  0
SECTION
  2
HEADER
  9
$ACADVER
  1
AC1009
  9
$INSBASE
 10
0
 20
0
 30
0
  9
$EXTMIN
 10
0
 20
0
  9
$EXTMAX
 10
1189
 20
841
  9
$LIMMIN
 10
0
 20
0
  9
$LIMMAX
 10
1189
 20
841
  9
$LTSCALE
 40
1
  0
ENDSEC
  0
SECTION
  2
TABLES
  0
TABLE
  2
LTYPE
 70
     9
  0
LTYPE
  2
CONTINUOUS
 70
    64
  3
実線
 72
    65
 73
     0
 40
0.0
  0
LTYPE
  2
DASHED1
 70
    64
  3
--  --  --  --  --  --  --  --  
 72
    65
 73
     2
 40
2.5
 49
1.25
 49
-1.25
  0
LTYPE
  2
DASHED2
 70
    64
  3
----    ----    ----    ----    
 72
    65
 73
     2
 40
5.0
 49
2.5
 49
-2.5
  0
LTYPE
  2
DASHED3
 70
    64
  3
------  ------  ------  ------  
 72
    65
 73
     2
 40
5.0
 49
3.75
 49
-1.25
  0
LTYPE
  2
CENTER1
 70
    64
  3
----- - ----- - ----- - ----- - 
 72
    65
 73
     4
 40
10.0
 49
6.25
 49
-1.25
 49
1.25
 49
-1.25
  0
LTYPE
  2
CENTER2
 70
    64
  3
----------  --  ----------  --  
 72
    65
 73
     4
 40
20.0
 49
12.5
 49
-2.5
 49
2.5
 49
-2.5
  0
LTYPE
  2
PHANTOM1
 70
    64
  3
--- - - --- - - --- - - --- - - 
 72
    65
 73
     6
 40
10.0
 49
3.25
 49
-1.25
 49
1.25
 49
-1.25
 49
1.25
 49
-1.25
  0
LTYPE
  2
PHANTOM2
 70
    64
  3
--------  -  -  --------  -  -  
 72
    65
 73
     6
 40
20.0
 49
10.0
 49
-2.5
 49
1.25
 49
-2.5
 49
1.25
 49
-2.5
  0
LTYPE
  2
DOT
 70
    64
  3
-   -   -   -   -   -   -   -   
 72
    65
 73
     2
 40
2.5
 49
0.625
 49
-1.875
  0
LTYPE
  2
DUMMY
 70
    64
  3
ダミー
 72
    65
 73
     0
 40
0.0
  0
LTYPE
  2
RAND1
 70
    64
  3
ランダム線1
 72
    65
 73
     4
 40
10.0
 49
1.0
 49
-2.0
 49
3.0
 49
-4.0
  0
LTYPE
  2
RAND2
 70
    64
  3
ランダム線2
 72
    65
 73
     4
 40
14.0
 49
2.0
 49
-3.0
 49
4.0
 49
-5.0
  0
LTYPE
  2
RAND3
 70
    64
  3
ランダム線3
 72
    65
 73
     4
 40
18.0
 49
3.0
 49
-4.0
 49
5.0
 49
-6.0
  0
LTYPE
  2
RAND4
 70
    64
  3
ランダム線4
 72
    65
 73
     4
 40
22.0
 49
4.0
 49
-5.0
 49
6.0
 49
-7.0
  0
LTYPE
  2
RAND5
 70
    64
  3
ランダム線5
 72
    65
 73
     4
 40
26.0
 49
5.0
 49
-6.0
 49
7.0
 49
-8.0
  0
LTYPE
  2
LONG1
 70
    64
  3
----------  --  ----------  --  
 72
    65
 73
     4
 40
40.0
 49
32.5
 49
-2.5
 49
2.5
 49
-2.5
  0
LTYPE
  2
LONG2
 70
    64
  3
--------  -  -  --------  -  -  
 72
    65
 73
     6
 40
40.0
 49
30.0
 49
-2.5
 49
1.25
 49
-2.5
 49
1.25
 49
-2.5
  0
LTYPE
  2
LONG3
 70
    64
  3
+++++++++++++++..+++++++++++++++
 72
    65
 73
     2
 40
40.0
 49
37.5
 49
-2.5
  0
LTYPE
  2
LONG4
 70
    64
  3
+++++++++++++++..+++++++++++++++
 72
    65
 73
     2
 40
80.0
 49
75.0
 49
-5.0
  0
LTYPE
  2
LONG5
 70
    64
  3
----------  --  ----------  --  
 72
    65
 73
     4
 40
60.0
 49
37.5
 49
-7.5
 49
7.5
 49
-7.5
  0
LTYPE
  2
dashed
 70
   64
  3
-------   -------------   ------
 72
   65
 73
    2
 40
7.5
 49
6
 49
-1.5
  0
LTYPE
  2
dashed_spaced
 70
   64
  3
----        --------        ----
 72
   65
 73
    2
 40
12
 49
6
 49
-6
  0
LTYPE
  2
long_dashed_dotted
 70
   64
  3
------------- --- --------------
 72
   65
 73
    4
 40
15.25
 49
12
 49
-1.5
 49
0.25
 49
-1.5
  0
LTYPE
  2
long_dashed_double-dotted
 70
   64
  3
----------- --- --- ------------
 72
   65
 73
    6
 40
17
 49
12
 49
-1.5
 49
0.25
 49
-1.5
 49
0.25
 49
-1.5
  0
LTYPE
  2
long_dashed_triplicate-dotted
 70
   64
  3
--------- --- --- --- ----------
 72
   65
 73
    8
 40
18.75
 49
12
 49
-1.5
 49
0.25
 49
-1.5
 49
0.25
 49
-1.5
 49
0.25
 49
-1.5
  0
LTYPE
  2
dotted
 70
   64
  3
   -       -       -       -    
 72
   65
 73
    2
 40
1.75
 49
0.25
 49
-1.5
  0
LTYPE
  2
chain
 70
   64
  3
-------------- -- --------------
 72
   65
 73
    4
 40
18.5
 49
12
 49
-1.5
 49
3.5
 49
-1.5
  0
LTYPE
  2
chain_double_dash
 70
   64
  3
------------ -- -- -------------
 72
   65
 73
    6
 40
23.5
 49
12
 49
-1.5
 49
3.5
 49
-1.5
 49
3.5
 49
-1.5
  0
LTYPE
  2
dashed_dotted
 70
   64
  3
-----------     -     ----------
 72
   65
 73
    4
 40
9.25
 49
6
 49
-1.5
 49
0.25
 49
-1.5
  0
LTYPE
  2
double-dashed_dotted
 70
   64
  3
------   -----------   -   -----
 72
   65
 73
    6
 40
16.75
 49
6
 49
-1.5
 49
6
 49
-1.5
 49
0.25
 49
-1.5
  0
LTYPE
  2
dashed_double-dotted
 70
   64
  3
---------    -    -    ---------
 72
   65
 73
    6
 40
11
 49
6
 49
-1.5
 49
0.25
 49
-1.5
 49
0.25
 49
-1.5
  0
LTYPE
  2
double-dashed_double-dotted
 70
   64
  3
-----   ---------   -   -   ----
 72
   65
 73
    8
 40
18.5
 49
6
 49
-1.5
 49
6
 49
-1.5
 49
0.25
 49
-1.5
 49
0.25
 49
-1.5
  0
LTYPE
  2
dashed_triplicate-dotted
 70
   64
  3
-------    -    -    -    ------
 72
   65
 73
    8
 40
12.75
 49
6
 49
-1.5
 49
0.25
 49
-1.5
 49
0.25
 49
-1.5
 49
0.25
 49
-1.5
  0
LTYPE
  2
double-dashed_triplicate-dotted
 70
   64
  3
-----  ---------  -  -  -  -----
 72
   65
 73
   10
 40
20.25
 49
6
 49
-1.5
 49
6
 49
-1.5
 49
0.25
 49
-1.5
 49
0.25
 49
-1.5
 49
0.25
 49
-1.5
  0
LTYPE
  2
undefined
 70
   64
  3
--------------------------------
 72
   65
 73
    0
 40
0
  0
ENDTAB
  0
TABLE
  2
STYLE
  5
3
100
AcDbSymbolTable
 70
     1
  0
STYLE
  5
10
100
AcDbSymbolTableRecord
100
AcDbTextStyleTableRecord
  2
STANDARD
 70
     0
 40
0.0
 41
1.0
 50
0.0
 71
     0
 42
0.2
  3
txt
  4
bigfont.shx
  0
STYLE
  5
26
100
AcDbSymbolTableRecord
100
AcDbTextStyleTableRecord
  2
TATEGAKI
 70
    68
 40
0.0
 41
1.0
 50
0.0
 71
     0
 42
1.0
  3
txt
  4
bigfont.shx
  0
ENDTAB
  0
TABLE
  2
LAYER
 70
    4
  0
LAYER
  2
_0-0_
 70
   64
 62
    7
  6
CONTINUOUS
  0
LAYER
  2
_0-1_
 70
   64
 62
    7
  6
CONTINUOUS
  0
LAYER
  2
_0-f_
 70
   64
 62
    7
  6
CONTINUOUS
  0
LAYER
  2
ADD_LINE
 70
   64
 62
    7
  6
CONTINUOUS
  0
ENDTAB
  0
ENDSEC
  0
SECTION
  2
BLOCKS
  0
ENDSEC
  0
SECTION
  2
ENTITIES
  0
TEXT
  8
_0-f_
 62
    7
 10
1.2831441073858514
 20
1.1755366329607
 40
4.2999999999999998
 41
0.744186046511628
 50
0
  1
TX25
  0
LINE
  8
_0-0_
  6
CONTINUOUS
 62
    7
 10
50.577315876385228
 20
38.907296180529499
 11
49.216274876385114
 21
38.907296180529499
  0
LINE
  8
_0-0_
  6
CONTINUOUS
 62
    7
 10
49.216274876385114
 20
38.907296180529499
 11
49.216274876385114
 21
39.314586180529602
  0
LINE
  8
_0-0_
  6
CONTINUOUS
 62
    7
 10
49.216274876385114
 20
39.314586180529602
 11
50.334676876384719
 21
39.314586180529602
  0
LINE
  8
_0-0_
  6
CONTINUOUS
 62
    7
 10
50.334676876384719
 20
39.314586180529602
 11
50.334676876384719
 21
40.050776180529681
  0
LINE
  8
_0-0_
  6
CONTINUOUS
 62
    7
 10
50.334676876384719
 20
40.050776180529681
 11
50.577315876385228
 21
40.050776180529681
  0
LINE
  8
_0-0_
  6
CONTINUOUS
 62
    7
 10
50.577315876385228
 20
40.050776180529681
 11
50.577315876385228
 21
38.907296180529499
  0
LINE
  8
_0-0_
  6
CONTINUOUS
 62
    7
 10
50.577315876385228
 20
40.365006180529178
 11
50.577315876385228
 21
41.508786180529739
  0
LINE
  8
_0-0_
  6
CONTINUOUS
 62
    7
 10
50.577315876385228
 20
41.508786180529739
 11
50.334676876384719
 21
41.508786180529739
  0
LINE
  8
_0-0_
  6
CONTINUOUS
 62
    7
 10
50.334676876384719
 20
41.508786180529739
 11
50.334676876384719
 21
40.770856180529506
  0
LINE
  8
_0-0_
  6
CONTINUOUS
 62
    7
 10
50.334676876384719
 20
40.770856180529506
 11
50.002310876384627
 21
40.770856180529506
  0
LINE
  8
_0-0_
  6
CONTINUOUS
 62
    7
 10
50.002310876384627
 20
40.770856180529506
 11
50.002310876384627
 21
41.438416180529828
  0
LINE
  8
_0-0_
  6
CONTINUOUS
 62
    7
 10
50.002310876384627
 20
41.438416180529828
 11
49.774542876384885
 21
41.438416180529828
  0
LINE
  8
_0-0_
  6
CONTINUOUS
 62
    7
 10
49.774542876384885
 20
41.438416180529828
 11
49.774542876384885
 21
40.770856180529506
  0
LINE
  8
_0-0_
  6
CONTINUOUS
 62
    7
 10
49.774542876384885
 20
40.770856180529506
 11
49.458913876384713
 21
40.770856180529506
  0
LINE
  8
_0-0_
  6
CONTINUOUS
 62
    7
 10
49.458913876384713
 20
40.770856180529506
 11
49.458913876384713
 21
41.508786180529739
  0
LINE
  8
_0-0_
  6
CONTINUOUS
 62
    7
 10
49.458913876384713
 20
41.508786180529739
 11
49.216274876385114
 21
41.508786180529739
  0
LINE
  8
_0-0_
  6
CONTINUOUS
 62
    7
 10
49.216274876385114
 20
41.508786180529739
 11
49.216274876385114
 21
40.365006180529178
  0
LINE
  8
_0-0_
  6
CONTINUOUS
 62
    7
 10
49.216274876385114
 20
40.365006180529178
 11
50.577315876385228
 21
40.365006180529178
  0
LINE
  8
_0-0_
  6
CONTINUOUS
 62
    7
 10
50.470777876385228
 20
41.981506180529266
 11
50.418937876385144
 21
41.931546180529665
  0
LINE
  8
_0-0_
  6
CONTINUOUS
 62
    7
 10
50.418937876385144
 20
41.931546180529665
 11
50.360653876384958
 21
41.893136180529552
  0
LINE
  8
_0-0_
  6
CONTINUOUS
 62
    7
 10
50.360653876384958
 20
41.893136180529552
 11
50.331829876384973
 21
41.879556180529733
  0
LINE
  8
_0-0_
  6
CONTINUOUS
 62
    7
 10
50.331829876384973
 20
41.879556180529733
 11
50.289554876384727
 21
41.865956180529508
  0
LINE
  8
_0-0_
  6
CONTINUOUS
 62
    7
 10
50.289554876384727
 20
41.865956180529508
 11
50.014372876384869
 21
41.8123861805297
  0
LINE
  8
_0-0_
  6
CONTINUOUS
 62
    7
 10
50.014372876384869
 20
41.8123861805297
 11
49.735617876385049
 21
41.81695618052953
  0
LINE
  8
_0-0_
  6
CONTINUOUS
 62
    7
 10
49.735617876385049
 20
41.81695618052953
 11
49.461760876384915
 21
41.879556180529733
  0
LINE
  8
_0-0_
  6
CONTINUOUS
 62
    7
 10
49.461760876384915
 20
41.879556180529733
 11
49.401073876384771
 21
41.912156180529735
  0
LINE
  8
_0-0_
  6
CONTINUOUS
 62
    7
 10
49.401073876384771
 20
41.912156180529735
 11
49.34602687638494
 21
41.956916180529504
  0
LINE
  8
_0-0_
  6
CONTINUOUS
 62
    7
 10
49.34602687638494
 20
41.956916180529504
 11
49.298291876384837
 21
42.012456180529568
  0
LINE
  8
_0-0_
  6
CONTINUOUS
 62
    7
 10
49.298291876384837
 20
42.012456180529568
 11
49.259319876385007
 21
42.077106180529597
  0
LINE
  8
_0-0_
  6
CONTINUOUS
 62
    7
 10
49.259319876385007
 20
42.077106180529597
 11
49.230294876384733
 21
42.148886180529587
  0
LINE
  8
_0-0_
  6
CONTINUOUS
 62
    7
 10
49.230294876384733
 20
42.148886180529587
 11
49.220440876384828
 21
42.18411618052977
  0
LINE
  8
_0-0_
  6
CONTINUOUS
 62
    7
 10
49.220440876384828
 20
42.18411618052977
 11
49.199795876385224
 21
42.335916180529409
  0
LINE
  8
_0-0_
  6
CONTINUOUS
 62
    7
 10
49.199795876385224
 20
42.335916180529409
 11
49.201430876384848
 21
42.489696180529506
  0
LINE
  8
_0-0_
  6
CONTINUOUS
 62
    7
 10
49.201430876384848
 20
42.489696180529506
 11
49.220440876384828
 21
42.619066180529387
  0
LINE
  8
_0-0_
  6
CONTINUOUS
 62
    7
 10
49.220440876384828
 20
42.619066180529387
 11
49.244516876384978
 21
42.693446180529634
  0
LINE
  8
_0-0_
  6
CONTINUOUS
 62
    7
 10
49.244516876384978
 20
42.693446180529634
 11
49.278990876385024
 21
42.761676180529491
  0
LINE
  8
_0-0_
  6
CONTINUOUS
 62
    7
 10
49.278990876385024
 20
42.761676180529491
 11
49.322812876385115
 21
42.821686180529412
  0
LINE
  8
_0-0_
  6
CONTINUOUS
 62
    7
 10
49.322812876385115
 20
42.821686180529412
 11
49.374653876384627
 21
42.871646180529467
  0
LINE
  8
_0-0_
  6
CONTINUOUS
 62
    7
 10
49.374653876384627
 20
42.871646180529467
 11
49.432936876384929
 21
42.910046180529378
  0
LINE
  8
_0-0_
  6
CONTINUOUS
 62
    7
 10
49.432936876384929
 20
42.910046180529378
 11
49.461760876384915
 21
42.923636180529627
  0
LINE
  8
_0-0_
  6
CONTINUOUS
 62
    7
 10
49.461760876384915
 20
42.923636180529627
 11
49.622750876384771
 21
42.967616180529774
  0
LINE
  8
_0-0_
  6
CONTINUOUS
 62
    7
 10
49.622750876384771
 20
42.967616180529774
 11
49.622750876384771
 21
42.551536180529808
  0
LINE
  8
_0-0_
  6
CONTINUOUS
 62
    7
 10
49.622750876384771
 20
42.551536180529808
 11
49.611985876384779
 21
42.55043618052963
  0
LINE
  8
_0-0_
  6
CONTINUOUS
 62
    7
 10
49.611985876384779
 20
42.55043618052963
 11
49.506094876384623
 21
42.52721618052982
  0
LINE
  8
_0-0_
  6
CONTINUOUS
 62
    7
 10
49.506094876384623
 20
42.52721618052982
 11
49.501673876384984
 21
42.52528618052969
  0
LINE
  8
_0-0_
  6
CONTINUOUS
 62
    7
 10
49.501673876384984
 20
42.52528618052969
 11
49.484381876384987
 21
42.5150661805298
  0
LINE
  8
_0-0_
  6
CONTINUOUS
 62
    7
 10
49.484381876384987
 20
42.5150661805298
 11
49.468831876384911
 21
42.501406180529727
  0
LINE
  8
_0-0_
  6
CONTINUOUS
 62
    7
 10
49.468831876384911
 20
42.501406180529727
 11
49.45549587638493
 21
42.484706180529599
  0
LINE
  8
_0-0_
  6
CONTINUOUS
 62
    7
 10
49.45549587638493
 20
42.484706180529599
 11
49.444778876384817
 21
42.465476180529492
  0
LINE
  8
_0-0_
  6
CONTINUOUS
 62
    7
 10
49.444778876384817
 20
42.465476180529492
 11
49.437006876384885
 21
42.444316180529484
  0
LINE
  8
_0-0_
  6
CONTINUOUS
 62
    7
 10
49.437006876384885
 20
42.444316180529484
 11
49.432415876384994
 21
42.421856180529801
  0
LINE
  8
_0-0_
  6
CONTINUOUS
 62
    7
 10
49.432415876384994
 20
42.421856180529801
 11
49.431144876384906
 21
42.398776180529637
  0
LINE
  8
_0-0_
  6
CONTINUOUS
 62
    7
 10
49.431144876384906
 20
42.398776180529637
 11
49.433232876384636
 21
42.375776180529726
  0
LINE
  8
_0-0_
  6
CONTINUOUS
 62
    7
 10
49.433232876384636
 20
42.375776180529726
 11
49.438615876384802
 21
42.35356618052964
  0
LINE
  8
_0-0_
  6
CONTINUOUS
 62
    7
 10
49.438615876384802
 20
42.35356618052964
 11
49.447131876385129
 21
42.332816180529505
  0
LINE
  8
_0-0_
  6
CONTINUOUS
 62
    7
 10
49.447131876385129
 20
42.332816180529505
 11
49.45852087638491
 21
42.314156180529551
  0
LINE
  8
_0-0_
  6
CONTINUOUS
 62
    7
 10
49.45852087638491
 20
42.314156180529551
 11
49.472436876384791
 21
42.298156180529702
  0
LINE
  8
_0-0_
  6
CONTINUOUS
 62
    7
 10
49.472436876384791
 20
42.298156180529702
 11
49.488456876384816
 21
42.285296180529656
  0
LINE
  8
_0-0_
  6
CONTINUOUS
 62
    7
 10
49.488456876384816
 20
42.285296180529656
 11
49.506094876384623
 21
42.275966180529338
  0
LINE
  8
_0-0_
  6
CONTINUOUS
 62
    7
 10
49.506094876384623
 20
42.275966180529338
 11
49.570028876384868
 21
42.259216180529563
  0
LINE
  8
_0-0_
  6
CONTINUOUS
 62
    7
 10
49.570028876384868
 20
42.259216180529563
 11
49.677372876384879
 21
42.249576180529573
  0
LINE
  8
_0-0_
  6
CONTINUOUS
 62
    7
 10
49.669292876384816
 20
42.249576180529573
 11
50.124297876384617
 21
42.249576180529573
  0
LINE
  8
_0-0_
  6
CONTINUOUS
 62
    7
 10
50.116217876385008
 20
42.249576180529573
 11
50.181605876384992
 21
42.252746180529527
  0
LINE
  8
_0-0_
  6
CONTINUOUS
 62
    7
 10
50.181605876384992
 20
42.252746180529527
 11
50.28749587638481
 21
42.275966180529338
  0
LINE
  8
_0-0_
  6
CONTINUOUS
 62
    7
 10
50.28749587638481
 20
42.275966180529338
 11
50.291916876384903
 21
42.277896180529694
  0
LINE
  8
_0-0_
  6
CONTINUOUS
 62
    7
 10
50.291916876384903
 20
42.277896180529694
 11
50.309208876384901
 21
42.288116180529357
  0
LINE
  8
_0-0_
  6
CONTINUOUS
 62
    7
 10
50.309208876384901
 20
42.288116180529357
 11
50.324758876384976
 21
42.301786180529632
  0
LINE
  8
_0-0_
  6
CONTINUOUS
 62
    7
 10
50.324758876384976
 20
42.301786180529632
 11
50.338094876384957
 21
42.318486180529533
  0
LINE
  8
_0-0_
  6
CONTINUOUS
 62
    7
 10
50.338094876384957
 20
42.318486180529533
 11
50.348811876384616
 21
42.337706180529665
  0
LINE
  8
_0-0_
  6
CONTINUOUS
 62
    7
 10
50.348811876384616
 20
42.337706180529665
 11
50.356583876385002
 21
42.358876180529649
  0
LINE
  8
_0-0_
  6
CONTINUOUS
 62
    7
 10
50.356583876385002
 20
42.358876180529649
 11
50.361175876385232
 21
42.381336180529786
  0
LINE
  8
_0-0_
  6
CONTINUOUS
 62
    7
 10
50.361175876385232
 20
42.381336180529786
 11
50.362446876384865
 21
42.404416180529722
  0
LINE
  8
_0-0_
  6
CONTINUOUS
 62
    7
 10
50.362446876384865
 20
42.404416180529722
 11
50.360358876385135
 21
42.427416180529633
  0
LINE
  8
_0-0_
  6
CONTINUOUS
 62
    7
 10
50.360358876385135
 20
42.427416180529633
 11
50.354974876385086
 21
42.449616180529745
  0
LINE
  8
_0-0_
  6
CONTINUOUS
 62
    7
 10
50.354974876385086
 20
42.449616180529745
 11
50.346459876384642
 21
42.470366180529652
  0
LINE
  8
_0-0_
  6
CONTINUOUS
 62
    7
 10
50.346459876384642
 20
42.470366180529652
 11
50.335070876384862
 21
42.489026180529606
  0
LINE
  8
_0-0_
  6
CONTINUOUS
 62
    7
 10
50.335070876384862
 20
42.489026180529606
 11
50.321154876384981
 21
42.505036180529657
  0
LINE
  8
_0-0_
  6
CONTINUOUS
 62
    7
 10
50.321154876384981
 20
42.505036180529657
 11
50.305133876385071
 21
42.517896180529704
  0
LINE
  8
_0-0_
  6
CONTINUOUS
 62
    7
 10
50.305133876385071
 20
42.517896180529704
 11
50.28749587638481
 21
42.52721618052982
  0
LINE
  8
_0-0_
  6
CONTINUOUS
 62
    7
 10
50.28749587638481
 20
42.52721618052982
 11
50.220573876384833
 21
42.544546180529494
  0
LINE
  8
_0-0_
  6
CONTINUOUS
 62
    7
 10
50.220573876384833
 20
42.544546180529494
 11
50.113191876385144
 21
42.553566180529685
  0
LINE
  8
_0-0_
  6
CONTINUOUS
 62
    7
 10
50.113191876385144
 20
42.553566180529685
 11
50.113191876385144
 21
42.978356180529488
  0
LINE
  8
_0-0_
  6
CONTINUOUS
 62
    7
 10
50.113191876385144
 20
42.978356180529488
 11
50.331829876384973
 21
42.923636180529627
  0
LINE
  8
_0-0_
  6
CONTINUOUS
 62
    7
 10
50.331829876384973
 20
42.923636180529627
 11
50.392516876385116
 21
42.891036180529397
  0
LINE
  8
_0-0_
  6
CONTINUOUS
 62
    7
 10
50.392516876385116
 20
42.891036180529397
 11
50.447564876384831
 21
42.846276180529628
  0
LINE
  8
_0-0_
  6
CONTINUOUS
 62
    7
 10
50.447564876384831
 20
42.846276180529628
 11
50.49529887638505
 21
42.790736180529791
  0
LINE
  8
_0-0_
  6
CONTINUOUS
 62
    7
 10
50.49529887638505
 20
42.790736180529791
 11
50.53427087638488
 21
42.726086180529535
  0
LINE
  8
_0-0_
  6
CONTINUOUS
 62
    7
 10
50.53427087638488
 20
42.726086180529535
 11
50.563295876385155
 21
42.65429618052957
  0
LINE
  8
_0-0_
  6
CONTINUOUS
 62
    7
 10
50.563295876385155
 20
42.65429618052957
 11
50.573150876384943
 21
42.619066180529387
  0
LINE
  8
_0-0_
  6
CONTINUOUS
 62
    7
 10
50.573150876384943
 20
42.619066180529387
 11
50.593794876384663
 21
42.467276180529495
  0
LINE
  8
_0-0_
  6
CONTINUOUS
 62
    7
 10
50.593794876384663
 20
42.467276180529495
 11
50.59215987638504
 21
42.313496180529626
  0
LINE
  8
_0-0_
  6
CONTINUOUS
 62
    7
 10
50.59215987638504
 20
42.313496180529626
 11
50.573150876384943
 21
42.18411618052977
  0
LINE
  8
_0-0_
  6
CONTINUOUS
 62
    7
 10
50.573150876384943
 20
42.18411618052977
 11
50.549073876384909
 21
42.109746180529498
  0
LINE
  8
_0-0_
  6
CONTINUOUS
 62
    7
 10
50.549073876384909
 20
42.109746180529498
 11
50.514600876384748
 21
42.041516180529641
  0
LINE
  8
_0-0_
  6
CONTINUOUS
 62
    7
 10
50.514600876384748
 20
42.041516180529641
 11
50.470777876385228
 21
41.981506180529266
  0
LINE
  8
_0-0_
  6
CONTINUOUS
 62
    7
 10
50.470777876385228
 20
43.412946180529786
 11
50.418937876385144
 21
43.362976180529756
  0
LINE
  8
_0-0_
  6
CONTINUOUS
 62
    7
 10
50.418937876385144
 20
43.362976180529756
 11
50.360653876384958
 21
43.324576180529618
  0
LINE
  8
_0-0_
  6
CONTINUOUS
 62
    7
 10
50.360653876384958
 20
43.324576180529618
 11
50.331829876384973
 21
43.310986180529824
  0
LINE
  8
_0-0_
  6
CONTINUOUS
 62
    7
 10
50.331829876384973
 20
43.310986180529824
 11
50.289554876384727
 21
43.297396180529802
  0
LINE
  8
_0-0_
  6
CONTINUOUS
 62
    7
 10
50.289554876384727
 20
43.297396180529802
 11
50.014372876384869
 21
43.243816180529564
  0
LINE
  8
_0-0_
  6
CONTINUOUS
 62
    7
 10
50.014372876384869
 20
43.243816180529564
 11
49.735617876385049
 21
43.248396180529824
  0
LINE
  8
_0-0_
  6
CONTINUOUS
 62
    7
 10
49.735617876385049
 20
43.248396180529824
 11
49.461760876384915
 21
43.310986180529824
  0
LINE
  8
_0-0_
  6
CONTINUOUS
 62
    7
 10
49.461760876384915
 20
43.310986180529824
 11
49.401073876384771
 21
43.343586180529826
  0
LINE
  8
_0-0_
  6
CONTINUOUS
 62
    7
 10
49.401073876384771
 20
43.343586180529826
 11
49.34602687638494
 21
43.388346180529595
  0
LINE
  8
_0-0_
  6
CONTINUOUS
 62
    7
 10
49.34602687638494
 20
43.388346180529595
 11
49.298291876384837
 21
43.44388618052966
  0
LINE
  8
_0-0_
  6
CONTINUOUS
 62
    7
 10
49.298291876384837
 20
43.44388618052966
 11
49.259319876385007
 21
43.508536180529688
  0
LINE
  8
_0-0_
  6
CONTINUOUS
 62
    7
 10
49.259319876385007
 20
43.508536180529688
 11
49.230294876384733
 21
43.580326180529653
  0
LINE
  8
_0-0_
  6
CONTINUOUS
 62
    7
 10
49.230294876384733
 20
43.580326180529653
 11
49.220440876384828
 21
43.615556180529381
  0
LINE
  8
_0-0_
  6
CONTINUOUS
 62
    7
 10
49.220440876384828
 20
43.615556180529381
 11
49.199795876385224
 21
43.767346180529273
  0
LINE
  8
_0-0_
  6
CONTINUOUS
 62
    7
 10
49.199795876385224
 20
43.767346180529273
 11
49.201430876384848
 21
43.9211361805298
  0
LINE
  8
_0-0_
  6
CONTINUOUS
 62
    7
 10
49.201430876384848
 20
43.9211361805298
 11
49.220440876384828
 21
44.050506180529453
  0
LINE
  8
_0-0_
  6
CONTINUOUS
 62
    7
 10
49.220440876384828
 20
44.050506180529453
 11
49.244516876384978
 21
44.124876180529725
  0
LINE
  8
_0-0_
  6
CONTINUOUS
 62
    7
 10
49.244516876384978
 20
44.124876180529725
 11
49.278990876385024
 21
44.193106180529583
  0
LINE
  8
_0-0_
  6
CONTINUOUS
 62
    7
 10
49.278990876385024
 20
44.193106180529583
 11
49.322812876385115
 21
44.253116180529503
  0
LINE
  8
_0-0_
  6
CONTINUOUS
 62
    7
 10
49.322812876385115
 20
44.253116180529503
 11
49.374653876384627
 21
44.303076180529558
  0
LINE
  8
_0-0_
  6
CONTINUOUS
 62
    7
 10
49.374653876384627
 20
44.303076180529558
 11
49.432936876384929
 21
44.341486180529671
  0
LINE
  8
_0-0_
  6
CONTINUOUS
 62
    7
 10
49.432936876384929
 20
44.341486180529671
 11
49.461760876384915
 21
44.355066180529491
  0
LINE
  8
_0-0_
  6
CONTINUOUS
 62
    7
 10
49.461760876384915
 20
44.355066180529491
 11
49.504036876385044
 21
44.368666180529715
  0
LINE
  8
_0-0_
  6
CONTINUOUS
 62
    7
 10
49.504036876385044
 20
44.368666180529715
 11
49.779218876384903
 21
44.422246180529498
  0
LINE
  8
_0-0_
  6
CONTINUOUS
 62
    7
 10
49.779218876384903
 20
44.422246180529498
 11
50.057972876384838
 21
44.417666180529693
  0
LINE
  8
_0-0_
  6
CONTINUOUS
 62
    7
 10
50.057972876384838
 20
44.417666180529693
 11
50.331829876384973
 21
44.355066180529491
  0
LINE
  8
_0-0_
  6
CONTINUOUS
 62
    7
 10
50.331829876384973
 20
44.355066180529491
 11
50.392516876385116
 21
44.322466180529489
  0
LINE
  8
_0-0_
  6
CONTINUOUS
 62
    7
 10
50.392516876385116
 20
44.322466180529489
 11
50.447564876384831
 21
44.277716180529694
  0
LINE
  8
_0-0_
  6
CONTINUOUS
 62
    7
 10
50.447564876384831
 20
44.277716180529694
 11
50.49529887638505
 21
44.222166180529427
  0
LINE
  8
_0-0_
  6
CONTINUOUS
 62
    7
 10
50.49529887638505
 20
44.222166180529427
 11
50.53427087638488
 21
44.157516180529626
  0
LINE
  8
_0-0_
  6
CONTINUOUS
 62
    7
 10
50.53427087638488
 20
44.157516180529626
 11
50.563295876385155
 21
44.085736180529409
  0
LINE
  8
_0-0_
  6
CONTINUOUS
 62
    7
 10
50.563295876385155
 20
44.085736180529409
 11
50.573150876384943
 21
44.050506180529453
  0
LINE
  8
_0-0_
  6
CONTINUOUS
 62
    7
 10
50.573150876384943
 20
44.050506180529453
 11
50.593794876384663
 21
43.898716180529561
  0
LINE
  8
_0-0_
  6
CONTINUOUS
 62
    7
 10
50.593794876384663
 20
43.898716180529561
 11
50.59215987638504
 21
43.744926180529717
  0
LINE
  8
_0-0_
  6
CONTINUOUS
 62
    7
 10
50.59215987638504
 20
43.744926180529717
 11
50.573150876384943
 21
43.615556180529381
  0
LINE
  8
_0-0_
  6
CONTINUOUS
 62
    7
 10
50.573150876384943
 20
43.615556180529381
 11
50.549073876384909
 21
43.54117618052959
  0
LINE
  8
_0-0_
  6
CONTINUOUS
 62
    7
 10
50.549073876384909
 20
43.54117618052959
 11
50.514600876384748
 21
43.472946180529732
  0
LINE
  8
_0-0_
  6
CONTINUOUS
 62
    7
 10
50.514600876384748
 20
43.472946180529732
 11
50.470777876385228
 21
43.412946180529786
  0
LINE
  8
_0-0_
  6
CONTINUOUS
 62
    7
 10
50.324758876384976
 20
43.733216180529496
 11
50.309208876384901
 21
43.719556180529423
  0
LINE
  8
_0-0_
  6
CONTINUOUS
 62
    7
 10
50.309208876384901
 20
43.719556180529423
 11
50.291916876384903
 21
43.70933618052976
  0
LINE
  8
_0-0_
  6
CONTINUOUS
 62
    7
 10
50.291916876384903
 20
43.70933618052976
 11
50.28749587638481
 21
43.707406180529404
  0
LINE
  8
_0-0_
  6
CONTINUOUS
 62
    7
 10
50.28749587638481
 20
43.707406180529404
 11
50.181605876384992
 21
43.684186180529821
  0
LINE
  8
_0-0_
  6
CONTINUOUS
 62
    7
 10
50.181605876384992
 20
43.684186180529821
 11
50.116217876385008
 21
43.681006180529664
  0
LINE
  8
_0-0_
  6
CONTINUOUS
 62
    7
 10
50.124297876384617
 20
43.681006180529664
 11
49.669292876384816
 21
43.681006180529664
  0
LINE
  8
_0-0_
  6
CONTINUOUS
 62
    7
 10
49.677372876384879
 20
43.681006180529664
 11
49.570028876384868
 21
43.690646180529654
  0
LINE
  8
_0-0_
  6
CONTINUOUS
 62
    7
 10
49.570028876384868
 20
43.690646180529654
 11
49.506094876384623
 21
43.707406180529404
  0
LINE
  8
_0-0_
  6
CONTINUOUS
 62
    7
 10
49.506094876384623
 20
43.707406180529404
 11
49.488456876384816
 21
43.71672618052952
  0
LINE
  8
_0-0_
  6
CONTINUOUS
 62
    7
 10
49.488456876384816
 20
43.71672618052952
 11
49.472436876384791
 21
43.729586180529793
  0
LINE
  8
_0-0_
  6
CONTINUOUS
 62
    7
 10
49.472436876384791
 20
43.729586180529793
 11
49.45852087638491
 21
43.745596180529617
  0
LINE
  8
_0-0_
  6
CONTINUOUS
 62
    7
 10
49.45852087638491
 20
43.745596180529617
 11
49.447131876385129
 21
43.764256180529799
  0
LINE
  8
_0-0_
  6
CONTINUOUS
 62
    7
 10
49.447131876385129
 20
43.764256180529799
 11
49.438615876384802
 21
43.785006180529706
  0
LINE
  8
_0-0_
  6
CONTINUOUS
 62
    7
 10
49.438615876384802
 20
43.785006180529706
 11
49.433232876384636
 21
43.807216180529565
  0
LINE
  8
_0-0_
  6
CONTINUOUS
 62
    7
 10
49.433232876384636
 20
43.807216180529565
 11
49.431144876384906
 21
43.830206180529501
  0
LINE
  8
_0-0_
  6
CONTINUOUS
 62
    7
 10
49.431144876384906
 20
43.830206180529501
 11
49.432415876384994
 21
43.853286180529437
  0
LINE
  8
_0-0_
  6
CONTINUOUS
 62
    7
 10
49.432415876384994
 20
43.853286180529437
 11
49.437006876384885
 21
43.875746180529575
  0
LINE
  8
_0-0_
  6
CONTINUOUS
 62
    7
 10
49.437006876384885
 20
43.875746180529575
 11
49.444778876384817
 21
43.896916180529558
  0
LINE
  8
_0-0_
  6
CONTINUOUS
 62
    7
 10
49.444778876384817
 20
43.896916180529558
 11
49.45549587638493
 21
43.916136180529691
  0
LINE
  8
_0-0_
  6
CONTINUOUS
 62
    7
 10
49.45549587638493
 20
43.916136180529691
 11
49.468831876384911
 21
43.932836180529819
  0
LINE
  8
_0-0_
  6
CONTINUOUS
 62
    7
 10
49.468831876384911
 20
43.932836180529819
 11
49.484381876384987
 21
43.946506180529411
  0
LINE
  8
_0-0_
  6
CONTINUOUS
 62
    7
 10
49.484381876384987
 20
43.946506180529411
 11
49.501673876384984
 21
43.956726180529756
  0
LINE
  8
_0-0_
  6
CONTINUOUS
 62
    7
 10
49.501673876384984
 20
43.956726180529756
 11
49.506094876384623
 21
43.958656180529431
  0
LINE
  8
_0-0_
  6
CONTINUOUS
 62
    7
 10
49.506094876384623
 20
43.958656180529431
 11
49.611985876384779
 21
43.981876180529696
  0
LINE
  8
_0-0_
  6
CONTINUOUS
 62
    7
 10
49.611985876384779
 20
43.981876180529696
 11
49.677372876384879
 21
43.98504618052965
  0
LINE
  8
_0-0_
  6
CONTINUOUS
 62
    7
 10
49.669292876384816
 20
43.98504618052965
 11
50.124297876384617
 21
43.98504618052965
  0
LINE
  8
_0-0_
  6
CONTINUOUS
 62
    7
 10
50.116217876385008
 20
43.98504618052965
 11
50.22356187638502
 21
43.975406180529433
  0
LINE
  8
_0-0_
  6
CONTINUOUS
 62
    7
 10
50.22356187638502
 20
43.975406180529433
 11
50.28749587638481
 21
43.958656180529431
  0
LINE
  8
_0-0_
  6
CONTINUOUS
 62
    7
 10
50.28749587638481
 20
43.958656180529431
 11
50.305133876385071
 21
43.949326180529795
  0
LINE
  8
_0-0_
  6
CONTINUOUS
 62
    7
 10
50.305133876385071
 20
43.949326180529795
 11
50.321154876384981
 21
43.936466180529521
  0
LINE
  8
_0-0_
  6
CONTINUOUS
 62
    7
 10
50.321154876384981
 20
43.936466180529521
 11
50.335070876384862
 21
43.920466180529445
  0
LINE
  8
_0-0_
  6
CONTINUOUS
 62
    7
 10
50.335070876384862
 20
43.920466180529445
 11
50.346459876384642
 21
43.901806180529718
  0
LINE
  8
_0-0_
  6
CONTINUOUS
 62
    7
 10
50.346459876384642
 20
43.901806180529718
 11
50.354974876385086
 21
43.881056180529583
  0
LINE
  8
_0-0_
  6
CONTINUOUS
 62
    7
 10
50.354974876385086
 20
43.881056180529583
 11
50.360358876385135
 21
43.858846180529497
  0
LINE
  8
_0-0_
  6
CONTINUOUS
 62
    7
 10
50.360358876385135
 20
43.858846180529497
 11
50.362446876384865
 21
43.835856180529561
  0
LINE
  8
_0-0_
  6
CONTINUOUS
 62
    7
 10
50.362446876384865
 20
43.835856180529561
 11
50.361175876385232
 21
43.812776180529397
  0
LINE
  8
_0-0_
  6
CONTINUOUS
 62
    7
 10
50.361175876385232
 20
43.812776180529397
 11
50.356583876385002
 21
43.79030618052974
  0
LINE
  8
_0-0_
  6
CONTINUOUS
 62
    7
 10
50.356583876385002
 20
43.79030618052974
 11
50.348811876384616
 21
43.769146180529276
  0
LINE
  8
_0-0_
  6
CONTINUOUS
 62
    7
 10
50.348811876384616
 20
43.769146180529276
 11
50.338094876384957
 21
43.749916180529624
  0
LINE
  8
_0-0_
  6
CONTINUOUS
 62
    7
 10
50.338094876384957
 20
43.749916180529624
 11
50.324758876384976
 21
43.733216180529496
  0
LINE
  8
_0-0_
  6
CONTINUOUS
 62
    7
 10
63.844101876384912
 20
38.917296180529263
 11
63.844101876384912
 21
44.41729618052949
  0
LINE
  8
_0-0_
  6
CONTINUOUS
 62
    7
 10
61.844101876384912
 20
46.417296180529263
 11
51.551208876384635
 21
46.417296180529263
  0
LINE
  8
_0-0_
  6
CONTINUOUS
 62
    7
 10
51.197655876384715
 20
46.270856180529506
 11
50.44054887638481
 21
45.513746180529495
  0
LINE
  8
_0-0_
  6
CONTINUOUS
 62
    7
 10
50.086994876385006
 20
45.367296180529763
 11
45.644101876385093
 21
45.367296180529763
  0
LINE
  8
_0-0_
  6
CONTINUOUS
 62
    7
 10
45.644101876385093
 20
45.367296180529763
 11
43.931969876384983
 21
47.079436180529626
  0
LINE
  8
_0-0_
  6
CONTINUOUS
 62
    7
 10
43.844101876384912
 20
48.267296180529627
 11
43.844101876384912
 21
40.591566180529696
  0
LINE
  8
_0-0_
  6
CONTINUOUS
 62
    7
 10
43.931969876384983
 20
40.379436180529353
 11
45.644101876385093
 21
38.667296180529263
  0
LINE
  8
_0-0_
  6
CONTINUOUS
 62
    7
 10
45.644101876385093
 20
37.967296180529445
 11
43.931969876384983
 21
36.255166180529557
  0
LINE
  8
_0-0_
  6
CONTINUOUS
 62
    7
 10
43.844101876384912
 20
36.043036180529214
 11
43.844101876384912
 21
35.067296180529354
  0
LINE
  8
_0-0_
  6
CONTINUOUS
 62
    7
 10
43.54410187638473
 20
34.767296180529627
 11
41.344101876384912
 21
34.767296180529627
  0
LINE
  8
_0-0_
  6
CONTINUOUS
 62
    7
 10
41.344101876384912
 20
34.767296180529627
 11
39.844101876384912
 21
36.267296180529172
  0
LINE
  8
_0-0_
  6
CONTINUOUS
 62
    7
 10
39.844101876384912
 20
36.267296180529172
 11
39.844101876384912
 21
47.067296180529581
  0
LINE
  8
_0-0_
  6
CONTINUOUS
 62
    7
 10
39.844101876384912
 20
47.067296180529581
 11
41.344101876384912
 21
48.567296180529581
  0
LINE
  8
_0-0_
  6
CONTINUOUS
 62
    7
 10
41.344101876384912
 20
48.567296180529581
 11
41.344101876384912
 21
41.867296180529763
  0
LINE
  8
_0-0_
  6
CONTINUOUS
 62
    7
 10
41.344101876384912
 20
41.867296180529763
 11
39.844101876384912
 21
40.367296180529536
  0
LINE
  8
_0-0_
  6
CONTINUOUS
 62
    7
 10
41.344101876384912
 20
41.867296180529763
 11
43.844101876384912
 21
41.867296180529763
  0
LINE
  8
_0-0_
  6
CONTINUOUS
 62
    7
 10
45.644101876385093
 20
45.367296180529763
 11
45.644101876385093
 21
37.967296180529445
  0
LINE
  8
_0-0_
  6
CONTINUOUS
 62
    7
 10
45.644101876385093
 20
37.967296180529445
 11
50.086994876385006
 21
37.967296180529445
  0
LINE
  8
_0-0_
  6
CONTINUOUS
 62
    7
 10
50.44054887638481
 20
37.820856180529461
 11
51.197655876384715
 21
37.063746180529449
  0
LINE
  8
_0-0_
  6
CONTINUOUS
 62
    7
 10
51.551208876384635
 20
36.917296180529263
 11
61.844101876384912
 21
36.917296180529263
  0
LINE
  8
_0-0_
  6
CONTINUOUS
 62
    7
 10
58.924452876384976
 20
39.567296180529354
 11
54.363750876384756
 21
39.567296180529354
  0
LINE
  8
_0-0_
  6
CONTINUOUS
 62
    7
 10
54.363750876384756
 20
43.767296180529399
 11
58.924452876384976
 21
43.767296180529399
  0
LINE
  8
_0-0_
  6
CONTINUOUS
 62
    7
 10
43.54410187638473
 20
48.567296180529581
 11
41.344101876384912
 21
48.567296180529581
  0
ARC
  8
_0-0_
  6
CONTINUOUS
 62
    7
 10
61.844101876384912
 20
38.917296180529263
 40
2
 50
270
 51
0
  0
ARC
  8
_0-0_
  6
CONTINUOUS
 62
    7
 10
61.844101876384912
 20
44.41729618052949
 40
2
 50
0
 51
90
  0
CIRCLE
  8
_0-0_
  6
CONTINUOUS
 62
    7
 10
56.644101876385093
 20
41.66729618052949
 40
3.1000000000000005
  0
CIRCLE
  8
_0-0_
  6
CONTINUOUS
 62
    7
 10
56.644101876385093
 20
41.66729618052949
 40
3.8500000000000001
  0
ARC
  8
_0-0_
  6
CONTINUOUS
 62
    7
 10
50.086994876385006
 20
45.867296180529763
 40
0.5
 50
270
 51
315
  0
ARC
  8
_0-0_
  6
CONTINUOUS
 62
    7
 10
51.551208876384635
 20
45.91729618052949
 40
0.5
 50
90
 51
135
  0
ARC
  8
_0-0_
  6
CONTINUOUS
 62
    7
 10
50.086994876385006
 20
37.467296180529445
 40
0.5
 50
45
 51
90
  0
ARC
  8
_0-0_
  6
CONTINUOUS
 62
    7
 10
51.551208876384635
 20
37.417296180529263
 40
0.5
 50
225
 51
270
  0
ARC
  8
_0-0_
  6
CONTINUOUS
 62
    7
 10
43.54410187638473
 20
48.267296180529627
 40
0.2999999999999998
 50
0
 51
90
  0
ARC
  8
_0-0_
  6
CONTINUOUS
 62
    7
 10
43.54410187638473
 20
35.067296180529354
 40
0.2999999999999998
 50
270
 51
0
  0
ARC
  8
_0-0_
  6
CONTINUOUS
 62
    7
 10
44.144101876385093
 20
36.043036180529214
 40
0.2999999999999998
 50
135
 51
180
  0
ARC
  8
_0-0_
  6
CONTINUOUS
 62
    7
 10
44.144101876385093
 20
40.591566180529696
 40
0.2999999999999998
 50
180
 51
225
  0
ARC
  8
_0-0_
  6
CONTINUOUS
 62
    7
 10
44.144101876385093
 20
47.291566180529742
 40
0.2999999999999998
 50
180
 51
225
  0
LINE
  8
_0-0_
  6
CONTINUOUS
 62
    7
 10
83.490625628848932
 20
44.617296180529308
 11
83.490625628848932
 21
38.717296180529331
  0
ARC
  8
_0-0_
  6
CONTINUOUS
 62
    7
 10
90.69062562884875
 20
37.217296180529331
 40
0.2999999999999999
 50
270
 51
0
  0
LINE
  8
_0-0_
  6
CONTINUOUS
 62
    7
 10
90.69062562884875
 20
36.91729618052949
 11
83.790625628848829
 21
36.91729618052949
  0
LINE
  8
_0-0_
  6
CONTINUOUS
 62
    7
 10
90.990625628848761
 20
37.217296180529331
 11
90.990625628848761
 21
38.388764133975485
  0
ARC
  8
_0-0_
  6
CONTINUOUS
 62
    7
 10
90.69062562884875
 20
38.388764133975485
 40
0.2999999999999999
 50
0
 51
75.000000000013813
  0
LINE
  8
_0-0_
  6
CONTINUOUS
 62
    7
 10
90.768271342379478
 20
38.678541881862202
 11
89.912979915318033
 21
38.907716529036406
  0
ARC
  8
_0-0_
  6
CONTINUOUS
 62
    7
 10
90.69062562884875
 20
44.945828227083268
 40
0.2999999999999999
 50
284.99999999998352
 51
0
  0
LINE
  8
_0-0_
  6
CONTINUOUS
 62
    7
 10
90.768271342379478
 20
44.656050479196608
 11
89.912979915318033
 21
44.426875832022517
  0
LINE
  8
_0-0_
  6
CONTINUOUS
 62
    7
 10
90.990625628848761
 20
44.945828227083268
 11
90.990625628848761
 21
46.117296180529422
  0
ARC
  8
_0-0_
  6
CONTINUOUS
 62
    7
 10
90.69062562884875
 20
46.117296180529422
 40
0.2999999999999999
 50
0
 51
90
  0
LINE
  8
_0-0_
  6
CONTINUOUS
 62
    7
 10
90.69062562884875
 20
46.41729618052949
 11
83.790625628848829
 21
46.41729618052949
  0
ARC
  8
_0-0_
  6
CONTINUOUS
 62
    7
 10
89.990625628848761
 20
44.137098084135687
 40
0.2999999999999999
 50
105.00000000000009
 51
180
  0
LINE
  8
_0-0_
  6
CONTINUOUS
 62
    7
 10
89.69062562884875
 20
39.197494276923237
 11
89.69062562884875
 21
44.137098084135687
  0
ARC
  8
_0-0_
  6
CONTINUOUS
 62
    7
 10
83.790625628848829
 20
37.217296180529672
 40
0.2999999999999999
 50
180
 51
270
  0
ARC
  8
_0-0_
  6
CONTINUOUS
 62
    7
 10
83.790625628848829
 20
46.117296180529593
 40
0.2999999999999999
 50
90
 51
180
  0
LINE
  8
_0-0_
  6
CONTINUOUS
 62
    7
 10
83.490625628848761
 20
46.117296180529593
 11
83.490625628848761
 21
37.217296180529672
  0
ARC
  8
_0-0_
  6
CONTINUOUS
 62
    7
 10
89.990625628848761
 20
39.197494276923237
 40
0.2999999999999999
 50
180
 51
255.00000000000028
  0
LINE
  8
_0-0_
  6
CONTINUOUS
 62
    7
 10
41.344101876384912
 20
17.631181095156649
 11
39.844101876384912
 21
16.131181095156649
  0
LINE
  8
_0-0_
  6
CONTINUOUS
 62
    7
 10
39.844101876384912
 20
16.131181095156649
 11
39.844101876384912
 21
5.3311810951564667
  0
LINE
  8
_0-0_
  6
CONTINUOUS
 62
    7
 10
39.844101876384912
 20
5.3311810951564667
 11
41.344101876384912
 21
3.8311810951564667
  0
LINE
  8
_0-0_
  6
CONTINUOUS
 62
    7
 10
41.344101876384912
 20
3.8311810951564667
 11
43.844101876384912
 21
3.8311810951564667
  0
LINE
  8
_0-0_
  6
CONTINUOUS
 62
    7
 10
43.844101876384912
 20
3.8311810951564667
 11
43.844101876384912
 21
11.931181095156376
  0
LINE
  8
_0-0_
  6
CONTINUOUS
 62
    7
 10
43.844101876384912
 20
11.931181095156376
 11
45.644101876385093
 21
13.731181095156558
  0
LINE
  8
_0-0_
  6
CONTINUOUS
 62
    7
 10
45.644101876385093
 20
13.631181095156649
 11
63.344101876384912
 21
13.631181095156649
  0
LINE
  8
_0-0_
  6
CONTINUOUS
 62
    7
 10
63.844101876384912
 20
13.131181095156194
 11
63.844101876384912
 21
7.9311810951563757
  0
LINE
  8
_0-0_
  6
CONTINUOUS
 62
    7
 10
45.644101876385093
 20
7.0311810951562848
 11
45.644101876385093
 21
14.431181095156376
  0
LINE
  8
_0-0_
  6
CONTINUOUS
 62
    7
 10
45.644101876385093
 20
14.431181095156376
 11
43.844101876384912
 21
16.231181095156558
  0
LINE
  8
_0-0_
  6
CONTINUOUS
 62
    7
 10
43.844101876384912
 20
16.231181095156558
 11
43.844101876384912
 21
17.631181095156649
  0
LINE
  8
_0-0_
  6
CONTINUOUS
 62
    7
 10
43.844101876384912
 20
17.631181095156649
 11
41.344101876384912
 21
17.631181095156649
  0
LINE
  8
_0-0_
  6
CONTINUOUS
 62
    7
 10
41.344101876384912
 20
10.531181095156285
 11
41.344101876384912
 21
3.8311810951564667
  0
LINE
  8
_0-0_
  6
CONTINUOUS
 62
    7
 10
43.844101876384912
 20
5.2311810951565576
 11
45.644101876385093
 21
7.0311810951562848
  0
LINE
  8
_0-0_
  6
CONTINUOUS
 62
    7
 10
43.844101876384912
 20
10.531181095156285
 11
41.344101876384912
 21
10.531181095156285
  0
LINE
  8
_0-0_
  6
CONTINUOUS
 62
    7
 10
41.344101876384912
 20
10.531181095156285
 11
39.844101876384912
 21
12.031181095156285
  0
LINE
  8
_0-0_
  6
CONTINUOUS
 62
    7
 10
51.644101876385093
 20
7.4311810951563757
 11
52.944101876384821
 21
6.1311810951566486
  0
LINE
  8
_0-0_
  6
CONTINUOUS
 62
    7
 10
52.944101876384821
 20
6.1311810951566486
 11
60.344101876384912
 21
6.1311810951566486
  0
LINE
  8
_0-0_
  6
CONTINUOUS
 62
    7
 10
60.344101876384912
 20
6.1311810951566486
 11
61.644101876385093
 21
7.4311810951563757
  0
ARC
  8
_0-0_
  6
CONTINUOUS
 62
    7
 10
63.344101876384912
 20
7.9311810951563757
 40
0.5
 50
270
 51
0
  0
ARC
  8
_0-0_
  6
CONTINUOUS
 62
    7
 10
63.344101876384912
 20
13.131181095156194
 40
0.5
 50
0
 51
90
  0
LINE
  8
_0-0_
  6
CONTINUOUS
 62
    7
 10
63.344101876384912
 20
7.4311810951563757
 11
61.644101876385093
 21
7.4311810951563757
  0
LINE
  8
_0-0_
  6
CONTINUOUS
 62
    7
 10
51.644101876385093
 20
7.4311810951563757
 11
45.644101876385093
 21
7.4311810951563757
  0
LINE
  8
_0-0_
  6
CONTINUOUS
 62
    7
 10
16.998101449575756
 20
41.86729618052965
 11
9.8981014495756199
 21
34.76729618052957
  0
LINE
  8
_0-0_
  6
CONTINUOUS
 62
    7
 10
3.1981014495758018
 20
41.86729618052965
 11
9.8981014495756199
 21
48.567296180529581
  0
LINE
  8
_0-0_
  6
CONTINUOUS
 62
    7
 10
4.1981014495758018
 20
34.76729618052957
 11
9.8981014495756199
 21
34.76729618052957
  0
LINE
  8
_0-0_
  6
CONTINUOUS
 62
    7
 10
3.1981014495758018
 20
35.76729618052957
 11
3.1981014495758018
 21
41.86729618052965
  0
ARC
  8
_0-0_
  6
CONTINUOUS
 62
    7
 10
4.1981014495758018
 20
35.76729618052957
 40
1
 50
180.00000000000034
 51
270
  0
LINE
  8
_0-0_
  6
CONTINUOUS
 62
    7
 10
16.998101449575756
 20
47.567296180529581
 11
16.998101449575756
 21
41.86729618052965
  0
LINE
  8
_0-0_
  6
CONTINUOUS
 62
    7
 10
15.998101449575756
 20
48.567296180529581
 11
9.8981014495756199
 21
48.567296180529581
  0
ARC
  8
_0-0_
  6
CONTINUOUS
 62
    7
 10
15.998101449575756
 20
47.567296180529581
 40
1
 50
0
 51
90
  0
LINE
  8
_0-0_
  6
CONTINUOUS
 62
    7
 10
15.198101449575802
 20
47.067296180529581
 11
8.3981014495756199
 21
47.067296180529581
  0
LINE
  8
_0-0_
  6
CONTINUOUS
 62
    7
 10
15.49810144957587
 20
46.767296180529399
 11
15.49810144957587
 21
40.367296180529763
  0
ARC
  8
_0-0_
  6
CONTINUOUS
 62
    7
 10
15.198101449575802
 20
46.767296180529399
 40
0.2999999999999999
 50
0
 51
90
  0
LINE
  8
_0-0_
  6
CONTINUOUS
 62
    7
 10
4.6981014495758018
 20
36.567296180529581
 11
4.6981014495758018
 21
43.36729618052965
  0
LINE
  8
_0-0_
  6
CONTINUOUS
 62
    7
 10
4.99810144957587
 20
36.26729618052957
 11
11.39810144957562
 21
36.26729618052957
  0
ARC
  8
_0-0_
  6
CONTINUOUS
 62
    7
 10
4.99810144957587
 20
36.567296180529581
 40
0.2999999999999999
 50
180.00000000000063
 51
270
  0
LINE
  8
_0-0_
  6
CONTINUOUS
 62
    7
 10
4.6767144356664403
 20
36.245909166620152
 11
3.5831486876170402
 21
35.152343418570638
  0
LINE
  8
_0-0_
  6
CONTINUOUS
 62
    7
 10
16.579305942155202
 20
48.14850067310897
 11
15.469192737960043
 21
47.038387468913754
  0
LINE
  8
_0-1_
  6
CENTER1
 62
  152
 10
39.844101876384912
 20
41.66729618052949
 11
63.844101876384912
 21
41.66729618052949
  0
LINE
  8
_0-1_
  6
CENTER1
 62
  152
 10
56.644101876385093
 20
46.417296180529263
 11
56.644101876385093
 21
36.917296180529263
  0
LINE
  8
_0-1_
  6
CENTER1
 62
  152
 10
82.654035921957302
 20
41.66729618052949
 11
92.086667508331743
 21
41.66729618052949
  0
LINE
  8
_0-1_
  6
CENTER1
 62
  152
 10
56.644101876385093
 20
13.631181095156649
 11
56.644101876385093
 21
6.1311810951566486
  0
LINE
  8
_0-0_
  6
DASHED2
 62
  152
 10
85.189663734525368
 20
38.567296180529411
 11
86.921714542094207
 21
39.567296180529411
  0
LINE
  8
_0-0_
  6
DASHED2
 62
  152
 10
85.189663734525368
 20
44.767296180529399
 11
86.921714542094151
 21
43.767296180529513
  0
LINE
  8
_0-0_
  6
DASHED2
 62
  152
 10
85.189663734525368
 20
38.567296180529411
 11
84.789663734525334
 21
38.567296180529411
  0
LINE
  8
_0-0_
  6
DASHED2
 62
  152
 10
85.189663734525368
 20
44.767296180529399
 11
84.789663734525334
 21
44.767296180529399
  0
LINE
  8
_0-0_
  6
DASHED2
 62
  152
 10
84.789663734525334
 20
44.767296180529399
 11
84.789663734525334
 21
38.567296180529411
  0
LINE
  8
_0-0_
  6
DASHED2
 62
  152
 10
83.490625628848761
 20
37.817296180529411
 11
84.789663734525334
 21
38.567296180529411
  0
LINE
  8
_0-0_
  6
DASHED2
 62
  152
 10
83.490625628848761
 20
45.517296180529399
 11
84.789663734525334
 21
44.767296180529399
  0
LINE
  8
_0-0_
  6
DASHED2
 62
  152
 10
86.921714542094151
 20
43.767296180529513
 11
89.390625628848738
 21
43.767296180529513
  0
LINE
  8
_0-0_
  6
DASHED2
 62
  152
 10
86.921714542094207
 20
39.567296180529411
 11
89.390625628848738
 21
39.567296180529411
  0
LINE
  8
_0-0_
  6
DASHED2
 62
  152
 10
89.390625628848738
 20
39.567296180529411
 11
89.390625628848738
 21
43.767296180529513
  0
LINE
  8
_0-0_
  6
DASHED2
 62
  152
 10
89.390625628848738
 20
43.767296180529513
 11
89.69062562884875
 21
44.067296180529411
  0
LINE
  8
_0-0_
  6
DASHED2
 62
  152
 10
89.390625628848738
 20
39.567296180529411
 11
89.69062562884875
 21
39.267296180529513
  0
ENDSEC
  0
EOF
