  0
SECTION
  2
HEADER
  9
$ACADVER
  1
AC1009
  9
$INSBASE
 10
0
 20
0
 30
0
  9
$EXTMIN
 10
0
 20
0
  9
$EXTMAX
 10
1189
 20
841
  9
$LIMMIN
 10
0
 20
0
  9
$LIMMAX
 10
1189
 20
841
  9
$LTSCALE
 40
1
  0
ENDSEC
  0
SECTION
  2
TABLES
  0
TABLE
  2
LTYPE
 70
     9
  0
LTYPE
  2
CONTINUOUS
 70
    64
  3
実線
 72
    65
 73
     0
 40
0.0
  0
LTYPE
  2
DASHED1
 70
    64
  3
--  --  --  --  --  --  --  --  
 72
    65
 73
     2
 40
2.5
 49
1.25
 49
-1.25
  0
LTYPE
  2
DASHED2
 70
    64
  3
----    ----    ----    ----    
 72
    65
 73
     2
 40
5.0
 49
2.5
 49
-2.5
  0
LTYPE
  2
DASHED3
 70
    64
  3
------  ------  ------  ------  
 72
    65
 73
     2
 40
5.0
 49
3.75
 49
-1.25
  0
LTYPE
  2
CENTER1
 70
    64
  3
----- - ----- - ----- - ----- - 
 72
    65
 73
     4
 40
10.0
 49
6.25
 49
-1.25
 49
1.25
 49
-1.25
  0
LTYPE
  2
CENTER2
 70
    64
  3
----------  --  ----------  --  
 72
    65
 73
     4
 40
20.0
 49
12.5
 49
-2.5
 49
2.5
 49
-2.5
  0
LTYPE
  2
PHANTOM1
 70
    64
  3
--- - - --- - - --- - - --- - - 
 72
    65
 73
     6
 40
10.0
 49
3.25
 49
-1.25
 49
1.25
 49
-1.25
 49
1.25
 49
-1.25
  0
LTYPE
  2
PHANTOM2
 70
    64
  3
--------  -  -  --------  -  -  
 72
    65
 73
     6
 40
20.0
 49
10.0
 49
-2.5
 49
1.25
 49
-2.5
 49
1.25
 49
-2.5
  0
LTYPE
  2
DOT
 70
    64
  3
-   -   -   -   -   -   -   -   
 72
    65
 73
     2
 40
2.5
 49
0.625
 49
-1.875
  0
LTYPE
  2
DUMMY
 70
    64
  3
ダミー
 72
    65
 73
     0
 40
0.0
  0
LTYPE
  2
RAND1
 70
    64
  3
ランダム線1
 72
    65
 73
     4
 40
10.0
 49
1.0
 49
-2.0
 49
3.0
 49
-4.0
  0
LTYPE
  2
RAND2
 70
    64
  3
ランダム線2
 72
    65
 73
     4
 40
14.0
 49
2.0
 49
-3.0
 49
4.0
 49
-5.0
  0
LTYPE
  2
RAND3
 70
    64
  3
ランダム線3
 72
    65
 73
     4
 40
18.0
 49
3.0
 49
-4.0
 49
5.0
 49
-6.0
  0
LTYPE
  2
RAND4
 70
    64
  3
ランダム線4
 72
    65
 73
     4
 40
22.0
 49
4.0
 49
-5.0
 49
6.0
 49
-7.0
  0
LTYPE
  2
RAND5
 70
    64
  3
ランダム線5
 72
    65
 73
     4
 40
26.0
 49
5.0
 49
-6.0
 49
7.0
 49
-8.0
  0
LTYPE
  2
LONG1
 70
    64
  3
----------  --  ----------  --  
 72
    65
 73
     4
 40
40.0
 49
32.5
 49
-2.5
 49
2.5
 49
-2.5
  0
LTYPE
  2
LONG2
 70
    64
  3
--------  -  -  --------  -  -  
 72
    65
 73
     6
 40
40.0
 49
30.0
 49
-2.5
 49
1.25
 49
-2.5
 49
1.25
 49
-2.5
  0
LTYPE
  2
LONG3
 70
    64
  3
+++++++++++++++..+++++++++++++++
 72
    65
 73
     2
 40
40.0
 49
37.5
 49
-2.5
  0
LTYPE
  2
LONG4
 70
    64
  3
+++++++++++++++..+++++++++++++++
 72
    65
 73
     2
 40
80.0
 49
75.0
 49
-5.0
  0
LTYPE
  2
LONG5
 70
    64
  3
----------  --  ----------  --  
 72
    65
 73
     4
 40
60.0
 49
37.5
 49
-7.5
 49
7.5
 49
-7.5
  0
LTYPE
  2
dashed
 70
   64
  3
-------   -------------   ------
 72
   65
 73
    2
 40
7.5
 49
6
 49
-1.5
  0
LTYPE
  2
dashed_spaced
 70
   64
  3
----        --------        ----
 72
   65
 73
    2
 40
12
 49
6
 49
-6
  0
LTYPE
  2
long_dashed_dotted
 70
   64
  3
------------- --- --------------
 72
   65
 73
    4
 40
15.25
 49
12
 49
-1.5
 49
0.25
 49
-1.5
  0
LTYPE
  2
long_dashed_double-dotted
 70
   64
  3
----------- --- --- ------------
 72
   65
 73
    6
 40
17
 49
12
 49
-1.5
 49
0.25
 49
-1.5
 49
0.25
 49
-1.5
  0
LTYPE
  2
long_dashed_triplicate-dotted
 70
   64
  3
--------- --- --- --- ----------
 72
   65
 73
    8
 40
18.75
 49
12
 49
-1.5
 49
0.25
 49
-1.5
 49
0.25
 49
-1.5
 49
0.25
 49
-1.5
  0
LTYPE
  2
dotted
 70
   64
  3
   -       -       -       -    
 72
   65
 73
    2
 40
1.75
 49
0.25
 49
-1.5
  0
LTYPE
  2
chain
 70
   64
  3
-------------- -- --------------
 72
   65
 73
    4
 40
18.5
 49
12
 49
-1.5
 49
3.5
 49
-1.5
  0
LTYPE
  2
chain_double_dash
 70
   64
  3
------------ -- -- -------------
 72
   65
 73
    6
 40
23.5
 49
12
 49
-1.5
 49
3.5
 49
-1.5
 49
3.5
 49
-1.5
  0
LTYPE
  2
dashed_dotted
 70
   64
  3
-----------     -     ----------
 72
   65
 73
    4
 40
9.25
 49
6
 49
-1.5
 49
0.25
 49
-1.5
  0
LTYPE
  2
double-dashed_dotted
 70
   64
  3
------   -----------   -   -----
 72
   65
 73
    6
 40
16.75
 49
6
 49
-1.5
 49
6
 49
-1.5
 49
0.25
 49
-1.5
  0
LTYPE
  2
dashed_double-dotted
 70
   64
  3
---------    -    -    ---------
 72
   65
 73
    6
 40
11
 49
6
 49
-1.5
 49
0.25
 49
-1.5
 49
0.25
 49
-1.5
  0
LTYPE
  2
double-dashed_double-dotted
 70
   64
  3
-----   ---------   -   -   ----
 72
   65
 73
    8
 40
18.5
 49
6
 49
-1.5
 49
6
 49
-1.5
 49
0.25
 49
-1.5
 49
0.25
 49
-1.5
  0
LTYPE
  2
dashed_triplicate-dotted
 70
   64
  3
-------    -    -    -    ------
 72
   65
 73
    8
 40
12.75
 49
6
 49
-1.5
 49
0.25
 49
-1.5
 49
0.25
 49
-1.5
 49
0.25
 49
-1.5
  0
LTYPE
  2
double-dashed_triplicate-dotted
 70
   64
  3
-----  ---------  -  -  -  -----
 72
   65
 73
   10
 40
20.25
 49
6
 49
-1.5
 49
6
 49
-1.5
 49
0.25
 49
-1.5
 49
0.25
 49
-1.5
 49
0.25
 49
-1.5
  0
LTYPE
  2
undefined
 70
   64
  3
--------------------------------
 72
   65
 73
    0
 40
0
  0
ENDTAB
  0
TABLE
  2
STYLE
  5
3
100
AcDbSymbolTable
 70
     1
  0
STYLE
  5
10
100
AcDbSymbolTableRecord
100
AcDbTextStyleTableRecord
  2
STANDARD
 70
     0
 40
0.0
 41
1.0
 50
0.0
 71
     0
 42
0.2
  3
txt
  4
bigfont.shx
  0
STYLE
  5
26
100
AcDbSymbolTableRecord
100
AcDbTextStyleTableRecord
  2
TATEGAKI
 70
    68
 40
0.0
 41
1.0
 50
0.0
 71
     0
 42
1.0
  3
txt
  4
bigfont.shx
  0
ENDTAB
  0
TABLE
  2
LAYER
 70
    4
  0
LAYER
  2
_0-0_
 70
   64
 62
    7
  6
CONTINUOUS
  0
LAYER
  2
_0-1_
 70
   64
 62
    7
  6
CONTINUOUS
  0
LAYER
  2
_0-f_
 70
   64
 62
    7
  6
CONTINUOUS
  0
LAYER
  2
ADD_LINE
 70
   64
 62
    7
  6
CONTINUOUS
  0
ENDTAB
  0
ENDSEC
  0
SECTION
  2
BLOCKS
  0
ENDSEC
  0
SECTION
  2
ENTITIES
  0
LINE
  8
_0-0_
  6
CONTINUOUS
 62
    7
 10
58.853272752748808
 20
41.246967589077599
 11
58.853272752748808
 21
55.246927589077245
  0
LINE
  8
_0-0_
  6
CONTINUOUS
 62
    7
 10
58.35319275274901
 20
55.746927589077245
 11
54.853252752748858
 21
55.746927589077245
  0
LINE
  8
_0-0_
  6
CONTINUOUS
 62
    7
 10
54.853252752748858
 20
55.746927589077245
 11
53.353222752748707
 21
54.246977589077346
  0
LINE
  8
_0-0_
  6
CONTINUOUS
 62
    7
 10
53.353222752748707
 20
54.246977589077346
 11
53.353222752748707
 21
42.246947589077195
  0
LINE
  8
_0-0_
  6
CONTINUOUS
 62
    7
 10
53.353222752748707
 20
42.246947589077195
 11
54.853252752748858
 21
40.746987589077094
  0
LINE
  8
_0-0_
  6
CONTINUOUS
 62
    7
 10
54.853252752748858
 20
40.746987589077094
 11
54.853252752748858
 21
42.252637589077153
  0
LINE
  8
_0-0_
  6
CONTINUOUS
 62
    7
 10
54.853252752748858
 20
42.252637589077153
 11
58.832752752748775
 21
42.252637589077153
  0
LINE
  8
_0-0_
  6
CONTINUOUS
 62
    7
 10
58.35319275274901
 20
40.746987589077094
 11
54.853252752748858
 21
40.746987589077094
  0
LINE
  8
_0-0_
  6
CONTINUOUS
 62
    7
 10
54.853252752748858
 20
42.252637589077153
 11
53.353222752748707
 21
44.474327589077461
  0
LINE
  8
_0-0_
  6
CONTINUOUS
 62
    7
 10
86.353322752748909
 20
42.746917589077498
 11
86.353322752748909
 21
53.746927589077245
  0
LINE
  8
_0-0_
  6
CONTINUOUS
 62
    7
 10
84.353262752748606
 20
55.746927589077245
 11
66.453212752748868
 21
55.746927589077245
  0
LINE
  8
_0-0_
  6
CONTINUOUS
 62
    7
 10
66.453212752748868
 20
55.746927589077245
 11
63.853292752748757
 21
53.146907589077387
  0
LINE
  8
_0-0_
  6
CONTINUOUS
 62
    7
 10
63.853292752748757
 20
53.146907589077387
 11
59.853222752748707
 21
53.146907589077387
  0
LINE
  8
_0-0_
  6
CONTINUOUS
 62
    7
 10
59.853222752748707
 20
53.146907589077387
 11
59.853222752748707
 21
45.11238758907723
  0
LINE
  8
_0-0_
  6
CONTINUOUS
 62
    7
 10
59.853222752748707
 20
45.11238758907723
 11
62.841942752748992
 21
45.11238758907723
  0
LINE
  8
_0-0_
  6
CONTINUOUS
 62
    7
 10
63.841942752748992
 20
44.11238758907723
 11
63.841942752748992
 21
43.346957589077306
  0
LINE
  8
_0-0_
  6
CONTINUOUS
 62
    7
 10
63.853292752748757
 20
43.346957589077306
 11
66.453212752748868
 21
40.746907589077296
  0
LINE
  8
_0-0_
  6
CONTINUOUS
 62
    7
 10
66.453212752748868
 20
40.746907589077296
 11
84.353262752748606
 21
40.746907589077296
  0
LINE
  8
_0-0_
  6
CONTINUOUS
 62
    7
 10
68.022202752748626
 20
52.641657589077226
 11
67.965102752748635
 21
52.686647589077552
  0
LINE
  8
_0-0_
  6
CONTINUOUS
 62
    7
 10
67.965102752748635
 20
52.686647589077552
 11
67.901912752748785
 21
52.719797589077302
  0
LINE
  8
_0-0_
  6
CONTINUOUS
 62
    7
 10
67.901912752748785
 20
52.719797589077302
 11
67.834572752748727
 21
52.740097589077436
  0
LINE
  8
_0-0_
  6
CONTINUOUS
 62
    7
 10
67.834572752748727
 20
52.740097589077436
 11
67.765122752748766
 21
52.746937589077447
  0
LINE
  8
_0-0_
  6
CONTINUOUS
 62
    7
 10
67.765122752748766
 20
52.746947589077649
 11
65.365112752748928
 21
52.746947589077649
  0
LINE
  8
_0-0_
  6
CONTINUOUS
 62
    7
 10
65.365112752748928
 20
52.746937589077447
 11
65.295662752748967
 21
52.740097589077436
  0
LINE
  8
_0-0_
  6
CONTINUOUS
 62
    7
 10
65.295662752748967
 20
52.740097589077436
 11
65.228322752748909
 21
52.719797589077302
  0
LINE
  8
_0-0_
  6
CONTINUOUS
 62
    7
 10
65.228322752748909
 20
52.719797589077302
 11
65.165132752748605
 21
52.686647589077552
  0
LINE
  8
_0-0_
  6
CONTINUOUS
 62
    7
 10
65.165132752748605
 20
52.686647589077552
 11
65.108022752748866
 21
52.641657589077226
  0
LINE
  8
_0-0_
  6
CONTINUOUS
 62
    7
 10
65.108022752748866
 20
52.641657589077226
 11
65.058732752748938
 21
52.58618758907744
  0
LINE
  8
_0-0_
  6
CONTINUOUS
 62
    7
 10
65.058732752748938
 20
52.58618758907744
 11
65.018742752748722
 21
52.521937589077083
  0
LINE
  8
_0-0_
  6
CONTINUOUS
 62
    7
 10
65.018742752748722
 20
52.521937589077083
 11
64.989272752748775
 21
52.450847589077171
  0
LINE
  8
_0-0_
  6
CONTINUOUS
 62
    7
 10
64.989272752748775
 20
52.450847589077171
 11
64.971232752748847
 21
52.37507758907725
  0
LINE
  8
_0-0_
  6
CONTINUOUS
 62
    7
 10
64.971232752748847
 20
52.37507758907725
 11
64.965152752748736
 21
52.296937589077174
  0
LINE
  8
_0-0_
  6
CONTINUOUS
 62
    7
 10
64.965122752748584
 20
52.296937589077174
 11
64.965122752748584
 21
44.196957589077215
  0
LINE
  8
_0-0_
  6
CONTINUOUS
 62
    7
 10
64.965152752748736
 20
44.196957589077215
 11
64.971232752748847
 21
44.118817589077139
  0
LINE
  8
_0-0_
  6
CONTINUOUS
 62
    7
 10
64.971232752748847
 20
44.118817589077139
 11
64.989272752748775
 21
44.043047589077219
  0
LINE
  8
_0-0_
  6
CONTINUOUS
 62
    7
 10
64.989272752748775
 20
44.043047589077219
 11
65.018742752748722
 21
43.971957589077306
  0
LINE
  8
_0-0_
  6
CONTINUOUS
 62
    7
 10
65.018742752748722
 20
43.971957589077306
 11
65.058732752748938
 21
43.907707589077404
  0
LINE
  8
_0-0_
  6
CONTINUOUS
 62
    7
 10
65.058732752748938
 20
43.907707589077404
 11
65.108022752748866
 21
43.852237589077163
  0
LINE
  8
_0-0_
  6
CONTINUOUS
 62
    7
 10
65.108022752748866
 20
43.852237589077163
 11
65.165132752748605
 21
43.807247589077292
  0
LINE
  8
_0-0_
  6
CONTINUOUS
 62
    7
 10
65.165132752748605
 20
43.807247589077292
 11
65.228322752748909
 21
43.774097589077542
  0
LINE
  8
_0-0_
  6
CONTINUOUS
 62
    7
 10
65.228322752748909
 20
43.774097589077542
 11
65.295662752748967
 21
43.753797589077408
  0
LINE
  8
_0-0_
  6
CONTINUOUS
 62
    7
 10
65.295662752748967
 20
43.753797589077408
 11
65.365112752748928
 21
43.746957589077397
  0
LINE
  8
_0-0_
  6
CONTINUOUS
 62
    7
 10
65.365112752748928
 20
43.746927589077245
 11
67.765122752748766
 21
43.746927589077245
  0
LINE
  8
_0-0_
  6
CONTINUOUS
 62
    7
 10
67.765122752748766
 20
43.746957589077397
 11
67.834572752748727
 21
43.753797589077408
  0
LINE
  8
_0-0_
  6
CONTINUOUS
 62
    7
 10
67.834572752748727
 20
43.753797589077408
 11
67.901912752748785
 21
43.774097589077542
  0
LINE
  8
_0-0_
  6
CONTINUOUS
 62
    7
 10
67.901912752748785
 20
43.774097589077542
 11
67.965102752748635
 21
43.807247589077292
  0
LINE
  8
_0-0_
  6
CONTINUOUS
 62
    7
 10
67.965102752748635
 20
43.807247589077292
 11
68.022202752748626
 21
43.852237589077163
  0
LINE
  8
_0-0_
  6
CONTINUOUS
 62
    7
 10
68.022202752748626
 20
43.852237589077163
 11
68.071502752748756
 21
43.907707589077404
  0
LINE
  8
_0-0_
  6
CONTINUOUS
 62
    7
 10
68.071502752748756
 20
43.907707589077404
 11
68.111492752748973
 21
43.971957589077306
  0
LINE
  8
_0-0_
  6
CONTINUOUS
 62
    7
 10
68.111492752748973
 20
43.971957589077306
 11
68.140952752748717
 21
44.043047589077219
  0
LINE
  8
_0-0_
  6
CONTINUOUS
 62
    7
 10
68.140952752748717
 20
44.043047589077219
 11
68.159002752748847
 21
44.118817589077139
  0
LINE
  8
_0-0_
  6
CONTINUOUS
 62
    7
 10
68.159002752748847
 20
44.118817589077139
 11
68.165082752748958
 21
44.196957589077215
  0
LINE
  8
_0-0_
  6
CONTINUOUS
 62
    7
 10
68.165112752748655
 20
44.196957589077215
 11
68.165112752748655
 21
52.296937589077174
  0
LINE
  8
_0-0_
  6
CONTINUOUS
 62
    7
 10
68.165082752748958
 20
52.296937589077174
 11
68.159002752748847
 21
52.37507758907725
  0
LINE
  8
_0-0_
  6
CONTINUOUS
 62
    7
 10
68.159002752748847
 20
52.37507758907725
 11
68.140952752748717
 21
52.450847589077171
  0
LINE
  8
_0-0_
  6
CONTINUOUS
 62
    7
 10
68.140952752748717
 20
52.450847589077171
 11
68.111492752748973
 21
52.521937589077083
  0
LINE
  8
_0-0_
  6
CONTINUOUS
 62
    7
 10
68.111492752748973
 20
52.521937589077083
 11
68.071502752748756
 21
52.58618758907744
  0
LINE
  8
_0-0_
  6
CONTINUOUS
 62
    7
 10
68.071502752748756
 20
52.58618758907744
 11
68.022202752748626
 21
52.641657589077226
  0
LINE
  8
_0-0_
  6
CONTINUOUS
 62
    7
 10
67.499542752748994
 20
52.282367589077353
 11
65.700842752748713
 21
52.282367589077353
  0
LINE
  8
_0-0_
  6
CONTINUOUS
 62
    7
 10
65.700842752748713
 20
52.282367589077353
 11
65.700842752748713
 21
51.737227589077179
  0
LINE
  8
_0-0_
  6
CONTINUOUS
 62
    7
 10
65.700842752748713
 20
51.737227589077179
 11
67.499542752748994
 21
51.737227589077179
  0
LINE
  8
_0-0_
  6
CONTINUOUS
 62
    7
 10
67.499542752748994
 20
51.737227589077179
 11
67.499542752748994
 21
52.282367589077353
  0
LINE
  8
_0-0_
  6
CONTINUOUS
 62
    7
 10
67.499542752748994
 20
51.214157589077445
 11
67.499542752748994
 21
50.486637589077077
  0
LINE
  8
_0-0_
  6
CONTINUOUS
 62
    7
 10
67.499542752748994
 20
50.486637589077077
 11
66.862672752748722
 21
49.932827589077192
  0
LINE
  8
_0-0_
  6
CONTINUOUS
 62
    7
 10
66.862672752748722
 20
49.932827589077192
 11
66.940312752748696
 21
49.847187589077407
  0
LINE
  8
_0-0_
  6
CONTINUOUS
 62
    7
 10
66.940312752748696
 20
49.847187589077407
 11
67.496132752748736
 21
49.847187589077407
  0
LINE
  8
_0-0_
  6
CONTINUOUS
 62
    7
 10
67.496132752748736
 20
49.847187589077407
 11
67.496132752748736
 21
49.301997589077132
  0
LINE
  8
_0-0_
  6
CONTINUOUS
 62
    7
 10
67.496132752748736
 20
49.301997589077132
 11
65.700842752748713
 21
49.301997589077132
  0
LINE
  8
_0-0_
  6
CONTINUOUS
 62
    7
 10
65.700842752748713
 20
49.301997589077132
 11
65.700842752748713
 21
49.847187589077407
  0
LINE
  8
_0-0_
  6
CONTINUOUS
 62
    7
 10
65.700842752748713
 20
49.847187589077407
 11
66.19790275274886
 21
49.847187589077407
  0
LINE
  8
_0-0_
  6
CONTINUOUS
 62
    7
 10
66.19790275274886
 20
49.847187589077407
 11
65.700842752748713
 21
50.39542758907703
  0
LINE
  8
_0-0_
  6
CONTINUOUS
 62
    7
 10
65.700842752748713
 20
50.39542758907703
 11
65.700842752748713
 21
51.214157589077445
  0
LINE
  8
_0-0_
  6
CONTINUOUS
 62
    7
 10
65.700842752748713
 20
51.214157589077445
 11
66.493842752748833
 21
50.339607589077445
  0
LINE
  8
_0-0_
  6
CONTINUOUS
 62
    7
 10
66.493842752748833
 20
50.339607589077445
 11
67.499542752748994
 21
51.214157589077445
  0
LINE
  8
_0-0_
  6
CONTINUOUS
 62
    7
 10
67.273332752748729
 20
48.373087589077045
 11
67.386062752749012
 21
48.25532758907741
  0
LINE
  8
_0-0_
  6
CONTINUOUS
 62
    7
 10
67.386062752749012
 20
48.25532758907741
 11
67.477502752748705
 21
48.118907589077594
  0
LINE
  8
_0-0_
  6
CONTINUOUS
 62
    7
 10
67.477502752748705
 20
48.118907589077594
 11
67.544882752748663
 21
47.96797758907735
  0
LINE
  8
_0-0_
  6
CONTINUOUS
 62
    7
 10
67.544882752748663
 20
47.96797758907735
 11
67.586142752748628
 21
47.807117589077393
  0
LINE
  8
_0-0_
  6
CONTINUOUS
 62
    7
 10
67.586142752748628
 20
47.807117589077393
 11
67.600042752749005
 21
47.641207589077226
  0
LINE
  8
_0-0_
  6
CONTINUOUS
 62
    7
 10
67.600042752749005
 20
47.641207589077226
 11
67.586142752748628
 21
47.475307589077261
  0
LINE
  8
_0-0_
  6
CONTINUOUS
 62
    7
 10
67.586142752748628
 20
47.475307589077261
 11
67.544882752748663
 21
47.314447589077304
  0
LINE
  8
_0-0_
  6
CONTINUOUS
 62
    7
 10
67.544882752748663
 20
47.314447589077304
 11
67.477502752748705
 21
47.16351758907706
  0
LINE
  8
_0-0_
  6
CONTINUOUS
 62
    7
 10
67.477502752748705
 20
47.16351758907706
 11
67.386062752749012
 21
47.027097589077243
  0
LINE
  8
_0-0_
  6
CONTINUOUS
 62
    7
 10
67.386062752749012
 20
47.027097589077243
 11
67.273332752748729
 21
46.909337589077609
  0
LINE
  8
_0-0_
  6
CONTINUOUS
 62
    7
 10
67.273332752748729
 20
46.909337589077609
 11
67.142742752748973
 21
46.813817589077303
  0
LINE
  8
_0-0_
  6
CONTINUOUS
 62
    7
 10
67.142742752748973
 20
46.813817589077303
 11
66.99825275274884
 21
46.743437589077189
  0
LINE
  8
_0-0_
  6
CONTINUOUS
 62
    7
 10
66.99825275274884
 20
46.743437589077189
 11
66.844262752748591
 21
46.700337589077321
  0
LINE
  8
_0-0_
  6
CONTINUOUS
 62
    7
 10
66.844262752748591
 20
46.700337589077321
 11
66.685442752748941
 21
46.685817589077146
  0
LINE
  8
_0-0_
  6
CONTINUOUS
 62
    7
 10
66.685442752748941
 20
46.68507758907765
 11
65.700842752748713
 21
46.68507758907765
  0
LINE
  8
_0-0_
  6
CONTINUOUS
 62
    7
 10
65.700842752748713
 20
46.68507758907765
 11
65.700842752748713
 21
47.230267589077471
  0
LINE
  8
_0-0_
  6
CONTINUOUS
 62
    7
 10
65.700842752748713
 20
47.230267589077471
 11
66.685442752748941
 21
47.230267589077471
  0
LINE
  8
_0-0_
  6
CONTINUOUS
 62
    7
 10
66.685442752748941
 20
47.230517589077522
 11
66.757922752748755
 21
47.236757589077229
  0
LINE
  8
_0-0_
  6
CONTINUOUS
 62
    7
 10
66.757922752748755
 20
47.236757589077229
 11
66.828202752748666
 21
47.255287589077511
  0
LINE
  8
_0-0_
  6
CONTINUOUS
 62
    7
 10
66.828202752748666
 20
47.255287589077511
 11
66.894152752748823
 21
47.285537589077308
  0
LINE
  8
_0-0_
  6
CONTINUOUS
 62
    7
 10
66.894152752748823
 20
47.285537589077308
 11
66.953752752748869
 21
47.326597589077323
  0
LINE
  8
_0-0_
  6
CONTINUOUS
 62
    7
 10
66.953752752748869
 20
47.326597589077323
 11
67.005202752748801
 21
47.377217589077304
  0
LINE
  8
_0-0_
  6
CONTINUOUS
 62
    7
 10
67.005202752748801
 20
47.377217589077304
 11
67.046932752748717
 21
47.435867589077247
  0
LINE
  8
_0-0_
  6
CONTINUOUS
 62
    7
 10
67.046932752748717
 20
47.435867589077247
 11
67.077682752748615
 21
47.50074758907715
  0
LINE
  8
_0-0_
  6
CONTINUOUS
 62
    7
 10
67.077682752748615
 20
47.50074758907715
 11
67.096512752748595
 21
47.569897589077414
  0
LINE
  8
_0-0_
  6
CONTINUOUS
 62
    7
 10
67.096512752748595
 20
47.569897589077414
 11
67.102852752748959
 21
47.641207589077226
  0
LINE
  8
_0-0_
  6
CONTINUOUS
 62
    7
 10
67.102852752748959
 20
47.641207589077226
 11
67.096512752748595
 21
47.71252758907724
  0
LINE
  8
_0-0_
  6
CONTINUOUS
 62
    7
 10
67.096512752748595
 20
47.71252758907724
 11
67.077682752748615
 21
47.781677589077503
  0
LINE
  8
_0-0_
  6
CONTINUOUS
 62
    7
 10
67.077682752748615
 20
47.781677589077503
 11
67.046932752748717
 21
47.846557589077406
  0
LINE
  8
_0-0_
  6
CONTINUOUS
 62
    7
 10
67.046932752748717
 20
47.846557589077406
 11
67.005202752748801
 21
47.905197589077147
  0
LINE
  8
_0-0_
  6
CONTINUOUS
 62
    7
 10
67.005202752748801
 20
47.905197589077147
 11
66.953752752748869
 21
47.955817589077583
  0
LINE
  8
_0-0_
  6
CONTINUOUS
 62
    7
 10
66.953752752748869
 20
47.955817589077583
 11
66.894152752748823
 21
47.996887589077346
  0
LINE
  8
_0-0_
  6
CONTINUOUS
 62
    7
 10
66.894152752748823
 20
47.996887589077346
 11
66.828202752748666
 21
48.027137589077142
  0
LINE
  8
_0-0_
  6
CONTINUOUS
 62
    7
 10
66.828202752748666
 20
48.027137589077142
 11
66.757922752748755
 21
48.045667589077425
  0
LINE
  8
_0-0_
  6
CONTINUOUS
 62
    7
 10
66.757922752748755
 20
48.045667589077425
 11
66.685442752748941
 21
48.051907589077132
  0
LINE
  8
_0-0_
  6
CONTINUOUS
 62
    7
 10
66.685442752748941
 20
48.052107589077082
 11
65.700842752748713
 21
48.052107589077082
  0
LINE
  8
_0-0_
  6
CONTINUOUS
 62
    7
 10
65.700842752748713
 20
48.052107589077082
 11
65.700842752748713
 21
48.597267589077205
  0
LINE
  8
_0-0_
  6
CONTINUOUS
 62
    7
 10
65.700842752748713
 20
48.597267589077205
 11
66.685442752748941
 21
48.597267589077205
  0
LINE
  8
_0-0_
  6
CONTINUOUS
 62
    7
 10
66.685442752748941
 20
48.596607589077507
 11
66.844262752748591
 21
48.582087589077332
  0
LINE
  8
_0-0_
  6
CONTINUOUS
 62
    7
 10
66.844262752748591
 20
48.582087589077332
 11
66.99825275274884
 21
48.538987589077465
  0
LINE
  8
_0-0_
  6
CONTINUOUS
 62
    7
 10
66.99825275274884
 20
48.538987589077465
 11
67.142742752748973
 21
48.468607589077351
  0
LINE
  8
_0-0_
  6
CONTINUOUS
 62
    7
 10
67.142742752748973
 20
48.468607589077351
 11
67.273332752748729
 21
48.373087589077045
  0
LINE
  8
_0-0_
  6
CONTINUOUS
 62
    7
 10
67.473782752749003
 20
45.393567589077179
 11
67.473782752749003
 21
44.848357589077409
  0
LINE
  8
_0-0_
  6
CONTINUOUS
 62
    7
 10
67.473782752749003
 20
44.848357589077409
 11
66.787012752748751
 21
44.848357589077409
  0
LINE
  8
_0-0_
  6
CONTINUOUS
 62
    7
 10
66.787012752748751
 20
44.848357589077409
 11
65.675182752748924
 21
44.07403758907742
  0
LINE
  8
_0-0_
  6
CONTINUOUS
 62
    7
 10
65.675182752748924
 20
44.07403758907742
 11
65.675182752748924
 21
44.741877589077035
  0
LINE
  8
_0-0_
  6
CONTINUOUS
 62
    7
 10
65.675182752748924
 20
44.741877589077035
 11
66.24883275274874
 21
45.141447589077075
  0
LINE
  8
_0-0_
  6
CONTINUOUS
 62
    7
 10
66.24883275274874
 20
45.141447589077075
 11
65.675182752748924
 21
45.541017589077569
  0
LINE
  8
_0-0_
  6
CONTINUOUS
 62
    7
 10
65.675182752748924
 20
45.541017589077569
 11
65.675182752748924
 21
46.208807589077537
  0
LINE
  8
_0-0_
  6
CONTINUOUS
 62
    7
 10
65.675182752748924
 20
46.208807589077537
 11
66.845722752748998
 21
45.393567589077179
  0
LINE
  8
_0-0_
  6
CONTINUOUS
 62
    7
 10
66.845722752748998
 20
45.393567589077179
 11
67.473782752749003
 21
45.393567589077179
  0
LINE
  8
_0-0_
  6
CONTINUOUS
 62
    7
 10
63.853292752748757
 20
43.346957589077306
 11
59.853222752748707
 21
43.346957589077306
  0
ARC
  8
_0-0_
  6
CONTINUOUS
 62
    7
 10
84.353262752748606
 20
53.746927589077245
 40
1.9999997000000003
 50
0
 51
90
  0
ARC
  8
_0-0_
  6
CONTINUOUS
 62
    7
 10
84.353262752748606
 20
42.746917589077498
 40
1.9999997000000003
 50
270
 51
0
  0
CIRCLE
  8
_0-0_
  6
CONTINUOUS
 62
    7
 10
76.653282752748737
 20
48.246917589077043
 40
5.4999998999999997
  0
CIRCLE
  8
_0-0_
  6
CONTINUOUS
 62
    7
 10
76.653282752748737
 20
48.246917589077043
 40
4.0999993999999997
  0
ARC
  8
_0-0_
  6
CONTINUOUS
 62
    7
 10
62.841942752748992
 20
44.11238758907723
 40
0.9999997999999996
 50
0
 51
90
  0
ARC
  8
_0-0_
  6
CONTINUOUS
 62
    7
 10
59.853222752748707
 20
54.146937589077538
 40
0.9999997999999996
 50
180
 51
270
  0
ARC
  8
_0-0_
  6
CONTINUOUS
 62
    7
 10
59.853222752748707
 20
42.346927589077154
 40
0.9999997999999996
 50
90
 51
180
  0
ARC
  8
_0-0_
  6
CONTINUOUS
 62
    7
 10
58.35319275274901
 20
55.246927589077245
 40
0.4999999
 50
0
 51
90
  0
ARC
  8
_0-0_
  6
CONTINUOUS
 62
    7
 10
58.35319275274901
 20
41.246967589077599
 40
0.4999999
 50
270
 51
0
  0
ARC
  8
_0-0_
  6
CONTINUOUS
 62
    7
 10
59.853222752748707
 20
44.11238758907723
 40
0.9999997999999996
 50
90
 51
180
  0
LINE
  8
_0-0_
  6
CONTINUOUS
 62
    7
 10
53.353222752748707
 20
23.446937589077265
 11
53.353222752748707
 21
14.646917589077702
  0
LINE
  8
_0-0_
  6
CONTINUOUS
 62
    7
 10
53.853242752748656
 20
14.146937589077424
 11
58.35319275274901
 21
14.146937589077424
  0
LINE
  8
_0-0_
  6
CONTINUOUS
 62
    7
 10
58.853272752748808
 20
14.646917589077702
 11
58.853272752748808
 21
23.446937589077265
  0
LINE
  8
_0-0_
  6
CONTINUOUS
 62
    7
 10
58.35319275274901
 20
23.946907589077568
 11
53.853242752748656
 21
23.946907589077568
  0
LINE
  8
_0-0_
  6
CONTINUOUS
 62
    7
 10
86.353322752748909
 20
21.946907589077568
 11
86.353322752748909
 21
16.146947589077627
  0
LINE
  8
_0-0_
  6
CONTINUOUS
 62
    7
 10
85.353362752748808
 20
15.146967589077576
 11
59.767412752748669
 21
15.146967589077576
  0
LINE
  8
_0-0_
  6
CONTINUOUS
 62
    7
 10
63.853242752748656
 20
15.146967589077576
 11
63.853242752748656
 21
22.946927589077518
  0
LINE
  8
_0-0_
  6
CONTINUOUS
 62
    7
 10
66.453212752748868
 20
22.947647589077519
 11
66.453212752748868
 21
15.157267589077719
  0
LINE
  8
_0-0_
  6
CONTINUOUS
 62
    7
 10
85.353362752748808
 20
22.946927589077518
 11
59.767412752748669
 21
22.946927589077518
  0
ARC
  8
_0-0_
  6
CONTINUOUS
 62
    7
 10
85.353362752748808
 20
21.946907589077568
 40
0.9999997999999996
 50
0
 51
90
  0
ARC
  8
_0-0_
  6
CONTINUOUS
 62
    7
 10
85.353362752748808
 20
16.146947589077627
 40
0.9999997999999996
 50
270
 51
0
  0
ARC
  8
_0-0_
  6
CONTINUOUS
 62
    7
 10
53.853242752748656
 20
23.446937589077265
 40
0.4999999
 50
90
 51
180
  0
ARC
  8
_0-0_
  6
CONTINUOUS
 62
    7
 10
53.853242752748656
 20
14.646917589077702
 40
0.4999999
 50
180
 51
270
  0
ARC
  8
_0-0_
  6
CONTINUOUS
 62
    7
 10
58.35319275274901
 20
23.446937589077265
 40
0.4999999
 50
0
 51
90
  0
ARC
  8
_0-0_
  6
CONTINUOUS
 62
    7
 10
58.35319275274901
 20
14.646917589077702
 40
0.4999999
 50
270
 51
0
  0
ARC
  8
_0-0_
  6
CONTINUOUS
 62
    7
 10
59.767412752748669
 20
23.946907589077568
 40
0.9999997999999996
 50
199.47082000000006
 51
270
  0
ARC
  8
_0-0_
  6
CONTINUOUS
 62
    7
 10
59.767412752748669
 20
14.146937589077424
 40
0.9999997999999996
 50
90
 51
160.52917000000002
  0
ARC
  8
_0-0_
  6
CONTINUOUS
 62
    7
 10
18.450301667860572
 20
42.746919676044968
 40
0.499999956907451
 50
180
 51
270
  0
ARC
  8
_0-0_
  6
CONTINUOUS
 62
    7
 10
27.250297146284197
 20
53.746919179071142
 40
0.499999956907451
 50
0
 51
90
  0
ARC
  8
_0-0_
  6
CONTINUOUS
 62
    7
 10
22.850299407072384
 20
48.246921489556712
 40
6.2877399153374096
 50
285.94232177734369
 51
321.19602966308588
  0
ARC
  8
_0-0_
  6
CONTINUOUS
 62
    7
 10
22.850299407072384
 20
48.246921489556712
 40
6.2877399153374096
 50
107.40048217773438
 51
141.19602966308597
  0
ARC
  8
_0-0_
  6
CONTINUOUS
 62
    7
 10
26.750295481784292
 20
54.746910136079691
 40
0.999999913814902
 50
0
 51
90
  0
ARC
  8
_0-0_
  6
CONTINUOUS
 62
    7
 10
18.950299208363617
 20
41.7469142850465
 40
0.999999913814902
 50
180
 51
270
  0
ARC
  8
_0-0_
  6
CONTINUOUS
 62
    7
 10
22.850299407072384
 20
48.246921489556712
 40
7.7999993664187093
 50
105.94233703613281
 51
128.91781616210937
  0
ARC
  8
_0-0_
  6
CONTINUOUS
 62
    7
 10
22.850299407072384
 20
48.246921489556712
 40
7.7999993664187093
 50
285.94239807128906
 51
308.91781616210937
  0
LINE
  8
_0-0_
  6
CONTINUOUS
 62
    7
 10
17.950295879363352
 20
41.7469142850465
 11
17.950295879363352
 21
54.315684372330793
  0
LINE
  8
_0-0_
  6
CONTINUOUS
 62
    7
 10
27.750300872782759
 20
54.746910136079691
 11
27.750300872782759
 21
42.178146234791143
  0
LINE
  8
_0-0_
  6
CONTINUOUS
 62
    7
 10
18.450301667860572
 20
42.246934507533638
 11
24.564242939597193
 21
42.246934507533638
  0
LINE
  8
_0-0_
  6
CONTINUOUS
 62
    7
 10
27.250297146284197
 20
54.24691671957396
 11
21.132287551342529
 21
54.24691671957396
  0
LINE
  8
_0-0_
  6
CONTINUOUS
 62
    7
 10
24.99272005923433
 20
40.746919204040637
 11
24.577355188589195
 21
42.201011737082467
  0
LINE
  8
_0-0_
  6
CONTINUOUS
 62
    7
 10
20.707880816909096
 20
55.746929961068531
 11
21.132287551342529
 21
54.24691671957396
  0
LINE
  8
_0-0_
  6
CONTINUOUS
 62
    7
 10
26.750295481784292
 20
55.746929961068531
 11
20.707880816909096
 21
55.746929961068531
  0
LINE
  8
_0-0_
  6
CONTINUOUS
 62
    7
 10
18.950299208363617
 20
40.746927452035038
 11
24.992732431225818
 21
40.746927452035038
  0
ARC
  8
_0-0_
  6
CONTINUOUS
 62
    7
 10
105.14538720477464
 20
55.246917589077043
 40
0.5
 50
90
 51
180
  0
LINE
  8
_0-0_
  6
CONTINUOUS
 62
    7
 10
104.64538720477464
 20
41.2469175890771
 11
104.64538720477464
 21
55.246917589077043
  0
ARC
  8
_0-0_
  6
CONTINUOUS
 62
    7
 10
105.14538720477464
 20
41.2469175890771
 40
0.5
 50
180
 51
270
  0
LINE
  8
_0-0_
  6
CONTINUOUS
 62
    7
 10
111.94538720477482
 20
55.746917589077043
 11
105.14538720477464
 21
55.746917589077043
  0
ARC
  8
_0-0_
  6
CONTINUOUS
 62
    7
 10
111.94538720477482
 20
55.246917589077043
 40
0.5
 50
0
 51
90
  0
LINE
  8
_0-0_
  6
CONTINUOUS
 62
    7
 10
112.44538720477482
 20
41.2469175890771
 11
112.44538720477482
 21
55.246917589077043
  0
LINE
  8
_0-0_
  6
CONTINUOUS
 62
    7
 10
111.94538720477482
 20
40.7469175890771
 11
105.14538720477464
 21
40.7469175890771
  0
ARC
  8
_0-0_
  6
CONTINUOUS
 62
    7
 10
111.94538720477482
 20
41.2469175890771
 40
0.5
 50
270
 51
0
  0
LINE
  8
_0-1_
  6
DASHED2
 62
  152
 10
72.553282752748828
 20
15.446917589071973
 11
72.053282752748373
 21
14.94691758907129
  0
LINE
  8
_0-1_
  6
DASHED2
 62
  152
 10
72.553282752748828
 20
20.322046458682507
 11
72.553282752748828
 21
15.446917589071973
  0
LINE
  8
_0-1_
  6
DASHED2
 62
  152
 10
76.653282752748737
 20
15.446917589077657
 11
72.553282752748828
 21
15.446917589071973
  0
LINE
  8
_0-1_
  6
DASHED2
 62
  152
 10
80.753282752749101
 20
15.446917589071973
 11
81.253282752749556
 21
14.94691758907129
  0
LINE
  8
_0-1_
  6
DASHED2
 62
  152
 10
80.753282752749101
 20
20.322046458682507
 11
80.753282752749101
 21
15.446917589071973
  0
LINE
  8
_0-1_
  6
DASHED2
 62
  152
 10
80.753282752749101
 20
20.322046458682507
 11
76.653282752748737
 21
20.322046458682507
  0
LINE
  8
_0-1_
  6
DASHED2
 62
  152
 10
76.653282752748737
 20
15.446917589077657
 11
80.753282752749101
 21
15.446917589071973
  0
LINE
  8
_0-1_
  6
DASHED2
 62
  152
 10
71.153282752835594
 20
22.746917589128543
 11
72.553282752748828
 21
20.322046458682507
  0
LINE
  8
_0-1_
  6
DASHED2
 62
  152
 10
72.553282752748828
 20
20.322046458682507
 11
80.753282752749101
 21
20.322046458682507
  0
LINE
  8
_0-1_
  6
DASHED2
 62
  152
 10
82.153282752662335
 20
22.746917589128543
 11
80.753282752749101
 21
20.322046458682507
  0
LINE
  8
_0-1_
  6
CENTER1
 62
  152
 10
17.950295879363352
 20
48.246917365559625
 11
27.750300872782759
 21
48.246917365559625
  0
LINE
  8
_0-1_
  6
CENTER1
 62
  152
 10
22.850299407072384
 20
55.746917589077043
 11
22.850299407072384
 21
40.746917142042207
  0
LINE
  8
_0-1_
  6
DASHED2
 62
  152
 10
104.64538720477464
 20
53.746917589077043
 11
107.07025833537119
 21
52.346917589077179
  0
LINE
  8
_0-1_
  6
DASHED2
 62
  152
 10
104.64538720477464
 20
42.7469175890771
 11
107.07025833537119
 21
44.146917589077191
  0
LINE
  8
_0-1_
  6
DASHED2
 62
  152
 10
107.07025833537119
 20
52.346917589077179
 11
107.07025833537119
 21
44.146917589077191
  0
LINE
  8
_0-1_
  6
DASHED2
 62
  152
 10
107.07025833537119
 20
52.346917589077179
 11
107.47025833537123
 21
52.346917589077179
  0
LINE
  8
_0-1_
  6
DASHED2
 62
  152
 10
107.07025833537119
 20
44.146917589077191
 11
107.47025833537123
 21
44.146917589077191
  0
LINE
  8
_0-1_
  6
DASHED2
 62
  152
 10
111.9453872047747
 20
44.946917589077088
 11
112.44538720477482
 21
44.446917589076861
  0
LINE
  8
_0-1_
  6
DASHED2
 62
  152
 10
111.9453872047747
 20
44.946917589077088
 11
111.9453872047747
 21
51.546917589077111
  0
LINE
  8
_0-1_
  6
DASHED2
 62
  152
 10
111.9453872047747
 20
51.546917589077111
 11
112.44538720477482
 21
52.046917589077225
  0
LINE
  8
_0-1_
  6
DASHED2
 62
  152
 10
107.47025833537123
 20
44.146917589077191
 11
108.85589898142626
 21
44.946917589077088
  0
LINE
  8
_0-1_
  6
DASHED2
 62
  152
 10
108.85589898142626
 20
44.946917589077088
 11
111.9453872047747
 21
44.946917589077088
  0
LINE
  8
_0-1_
  6
DASHED2
 62
  152
 10
107.47025833537123
 20
52.346917589077179
 11
108.85589898142649
 21
51.546917589077111
  0
LINE
  8
_0-1_
  6
DASHED2
 62
  152
 10
108.85589898142649
 20
51.546917589077111
 11
111.9453872047747
 21
51.546917589077111
  0
LINE
  8
_0-1_
  6
CENTER1
 62
  152
 10
52.353212752748959
 20
48.246917589077043
 11
87.353322752748909
 21
48.246917589077043
  0
LINE
  8
_0-1_
  6
CENTER1
 62
  152
 10
76.653282752748737
 20
39.746907589077296
 11
76.653282752748737
 21
56.746937589077447
  0
LINE
  8
_0-1_
  6
CENTER1
 62
  152
 10
102.45153582806881
 20
48.246917589077043
 11
115.81655350385859
 21
48.246917589077043
  0
LINE
  8
_0-1_
  6
CENTER1
 62
  152
 10
76.653282752748737
 20
11.746957589077283
 11
76.653282752748737
 21
26.746907589077296
  0
LINE
  8
_0-1_
  6
CENTER1
 62
  152
 10
52.353212752748959
 20
19.046947589077377
 11
87.353322752748909
 21
19.046947589077377
  0
TEXT
  8
_0-f_
 62
    7
 10
33.349703063237712
 20
22.989303296017283
 40
4.2999999999999998
 41
0.744186046511628
 50
0
  1
TP40
  0
ENDSEC
  0
EOF
