  0
SECTION
  2
HEADER
  9
$ACADVER
  1
AC1009
  9
$INSBASE
 10
0
 20
0
 30
0
  9
$EXTMIN
 10
0
 20
0
  9
$EXTMAX
 10
1189
 20
841
  9
$LIMMIN
 10
0
 20
0
  9
$LIMMAX
 10
1189
 20
841
  9
$LTSCALE
 40
1
  0
ENDSEC
  0
SECTION
  2
TABLES
  0
TABLE
  2
LTYPE
 70
     9
  0
LTYPE
  2
CONTINUOUS
 70
    64
  3
実線
 72
    65
 73
     0
 40
0.0
  0
LTYPE
  2
DASHED1
 70
    64
  3
--  --  --  --  --  --  --  --  
 72
    65
 73
     2
 40
2.5
 49
1.25
 49
-1.25
  0
LTYPE
  2
DASHED2
 70
    64
  3
----    ----    ----    ----    
 72
    65
 73
     2
 40
5.0
 49
2.5
 49
-2.5
  0
LTYPE
  2
DASHED3
 70
    64
  3
------  ------  ------  ------  
 72
    65
 73
     2
 40
5.0
 49
3.75
 49
-1.25
  0
LTYPE
  2
CENTER1
 70
    64
  3
----- - ----- - ----- - ----- - 
 72
    65
 73
     4
 40
10.0
 49
6.25
 49
-1.25
 49
1.25
 49
-1.25
  0
LTYPE
  2
CENTER2
 70
    64
  3
----------  --  ----------  --  
 72
    65
 73
     4
 40
20.0
 49
12.5
 49
-2.5
 49
2.5
 49
-2.5
  0
LTYPE
  2
PHANTOM1
 70
    64
  3
--- - - --- - - --- - - --- - - 
 72
    65
 73
     6
 40
10.0
 49
3.25
 49
-1.25
 49
1.25
 49
-1.25
 49
1.25
 49
-1.25
  0
LTYPE
  2
PHANTOM2
 70
    64
  3
--------  -  -  --------  -  -  
 72
    65
 73
     6
 40
20.0
 49
10.0
 49
-2.5
 49
1.25
 49
-2.5
 49
1.25
 49
-2.5
  0
LTYPE
  2
DOT
 70
    64
  3
-   -   -   -   -   -   -   -   
 72
    65
 73
     2
 40
2.5
 49
0.625
 49
-1.875
  0
LTYPE
  2
DUMMY
 70
    64
  3
ダミー
 72
    65
 73
     0
 40
0.0
  0
LTYPE
  2
RAND1
 70
    64
  3
ランダム線1
 72
    65
 73
     4
 40
10.0
 49
1.0
 49
-2.0
 49
3.0
 49
-4.0
  0
LTYPE
  2
RAND2
 70
    64
  3
ランダム線2
 72
    65
 73
     4
 40
14.0
 49
2.0
 49
-3.0
 49
4.0
 49
-5.0
  0
LTYPE
  2
RAND3
 70
    64
  3
ランダム線3
 72
    65
 73
     4
 40
18.0
 49
3.0
 49
-4.0
 49
5.0
 49
-6.0
  0
LTYPE
  2
RAND4
 70
    64
  3
ランダム線4
 72
    65
 73
     4
 40
22.0
 49
4.0
 49
-5.0
 49
6.0
 49
-7.0
  0
LTYPE
  2
RAND5
 70
    64
  3
ランダム線5
 72
    65
 73
     4
 40
26.0
 49
5.0
 49
-6.0
 49
7.0
 49
-8.0
  0
LTYPE
  2
LONG1
 70
    64
  3
----------  --  ----------  --  
 72
    65
 73
     4
 40
40.0
 49
32.5
 49
-2.5
 49
2.5
 49
-2.5
  0
LTYPE
  2
LONG2
 70
    64
  3
--------  -  -  --------  -  -  
 72
    65
 73
     6
 40
40.0
 49
30.0
 49
-2.5
 49
1.25
 49
-2.5
 49
1.25
 49
-2.5
  0
LTYPE
  2
LONG3
 70
    64
  3
+++++++++++++++..+++++++++++++++
 72
    65
 73
     2
 40
40.0
 49
37.5
 49
-2.5
  0
LTYPE
  2
LONG4
 70
    64
  3
+++++++++++++++..+++++++++++++++
 72
    65
 73
     2
 40
80.0
 49
75.0
 49
-5.0
  0
LTYPE
  2
LONG5
 70
    64
  3
----------  --  ----------  --  
 72
    65
 73
     4
 40
60.0
 49
37.5
 49
-7.5
 49
7.5
 49
-7.5
  0
LTYPE
  2
dashed
 70
   64
  3
-------   -------------   ------
 72
   65
 73
    2
 40
7.5
 49
6
 49
-1.5
  0
LTYPE
  2
dashed_spaced
 70
   64
  3
----        --------        ----
 72
   65
 73
    2
 40
12
 49
6
 49
-6
  0
LTYPE
  2
long_dashed_dotted
 70
   64
  3
------------- --- --------------
 72
   65
 73
    4
 40
15.25
 49
12
 49
-1.5
 49
0.25
 49
-1.5
  0
LTYPE
  2
long_dashed_double-dotted
 70
   64
  3
----------- --- --- ------------
 72
   65
 73
    6
 40
17
 49
12
 49
-1.5
 49
0.25
 49
-1.5
 49
0.25
 49
-1.5
  0
LTYPE
  2
long_dashed_triplicate-dotted
 70
   64
  3
--------- --- --- --- ----------
 72
   65
 73
    8
 40
18.75
 49
12
 49
-1.5
 49
0.25
 49
-1.5
 49
0.25
 49
-1.5
 49
0.25
 49
-1.5
  0
LTYPE
  2
dotted
 70
   64
  3
   -       -       -       -    
 72
   65
 73
    2
 40
1.75
 49
0.25
 49
-1.5
  0
LTYPE
  2
chain
 70
   64
  3
-------------- -- --------------
 72
   65
 73
    4
 40
18.5
 49
12
 49
-1.5
 49
3.5
 49
-1.5
  0
LTYPE
  2
chain_double_dash
 70
   64
  3
------------ -- -- -------------
 72
   65
 73
    6
 40
23.5
 49
12
 49
-1.5
 49
3.5
 49
-1.5
 49
3.5
 49
-1.5
  0
LTYPE
  2
dashed_dotted
 70
   64
  3
-----------     -     ----------
 72
   65
 73
    4
 40
9.25
 49
6
 49
-1.5
 49
0.25
 49
-1.5
  0
LTYPE
  2
double-dashed_dotted
 70
   64
  3
------   -----------   -   -----
 72
   65
 73
    6
 40
16.75
 49
6
 49
-1.5
 49
6
 49
-1.5
 49
0.25
 49
-1.5
  0
LTYPE
  2
dashed_double-dotted
 70
   64
  3
---------    -    -    ---------
 72
   65
 73
    6
 40
11
 49
6
 49
-1.5
 49
0.25
 49
-1.5
 49
0.25
 49
-1.5
  0
LTYPE
  2
double-dashed_double-dotted
 70
   64
  3
-----   ---------   -   -   ----
 72
   65
 73
    8
 40
18.5
 49
6
 49
-1.5
 49
6
 49
-1.5
 49
0.25
 49
-1.5
 49
0.25
 49
-1.5
  0
LTYPE
  2
dashed_triplicate-dotted
 70
   64
  3
-------    -    -    -    ------
 72
   65
 73
    8
 40
12.75
 49
6
 49
-1.5
 49
0.25
 49
-1.5
 49
0.25
 49
-1.5
 49
0.25
 49
-1.5
  0
LTYPE
  2
double-dashed_triplicate-dotted
 70
   64
  3
-----  ---------  -  -  -  -----
 72
   65
 73
   10
 40
20.25
 49
6
 49
-1.5
 49
6
 49
-1.5
 49
0.25
 49
-1.5
 49
0.25
 49
-1.5
 49
0.25
 49
-1.5
  0
LTYPE
  2
undefined
 70
   64
  3
--------------------------------
 72
   65
 73
    0
 40
0
  0
ENDTAB
  0
TABLE
  2
STYLE
  5
3
100
AcDbSymbolTable
 70
     1
  0
STYLE
  5
10
100
AcDbSymbolTableRecord
100
AcDbTextStyleTableRecord
  2
STANDARD
 70
     0
 40
0.0
 41
1.0
 50
0.0
 71
     0
 42
0.2
  3
txt
  4
bigfont.shx
  0
STYLE
  5
26
100
AcDbSymbolTableRecord
100
AcDbTextStyleTableRecord
  2
TATEGAKI
 70
    68
 40
0.0
 41
1.0
 50
0.0
 71
     0
 42
1.0
  3
txt
  4
bigfont.shx
  0
ENDTAB
  0
TABLE
  2
LAYER
 70
    4
  0
LAYER
  2
_0-0_
 70
   64
 62
    7
  6
CONTINUOUS
  0
LAYER
  2
_0-1_
 70
   64
 62
    7
  6
CONTINUOUS
  0
LAYER
  2
_0-f_
 70
   64
 62
    7
  6
CONTINUOUS
  0
LAYER
  2
ADD_LINE
 70
   64
 62
    7
  6
CONTINUOUS
  0
ENDTAB
  0
ENDSEC
  0
SECTION
  2
BLOCKS
  0
ENDSEC
  0
SECTION
  2
ENTITIES
  0
TEXT
  8
_0-f_
 62
    7
 10
2.1209961957700898
 20
2.1595001650799759
 40
4.2999999999999998
 41
0.744186046511628
 50
0
  1
TL4X
  0
ARC
  8
_0-0_
  6
CONTINUOUS
 62
    7
 10
91.968510779744463
 20
33.673808133408613
 40
0.5
 50
270
 51
0
  0
LINE
  8
_0-0_
  6
CONTINUOUS
 62
    7
 10
36.4012140986639
 20
6.8750042811580556
 11
36.328264302247135
 21
6.9894640199855189
  0
LINE
  8
_0-0_
  6
CONTINUOUS
 62
    7
 10
36.328264302247135
 20
6.9894640199855189
 11
36.261728744157836
 21
7.0944333095866909
  0
LINE
  8
_0-0_
  6
CONTINUOUS
 62
    7
 10
36.261728744157836
 20
7.0944333095866909
 11
36.201607424395775
 21
7.1899121499620264
  0
LINE
  8
_0-0_
  6
CONTINUOUS
 62
    7
 10
36.201607424395775
 20
7.1899121499620264
 11
36.147900342961066
 21
7.2759005411111843
  0
LINE
  8
_0-0_
  6
CONTINUOUS
 62
    7
 10
36.147900342961066
 20
7.2759005411111843
 11
36.100607499853822
 21
7.3523984830342783
  0
LINE
  8
_0-0_
  6
CONTINUOUS
 62
    7
 10
36.100607499853822
 20
7.3523984830342783
 11
36.059728895073704
 21
7.4194059757314221
  0
LINE
  8
_0-0_
  6
CONTINUOUS
 62
    7
 10
36.059728895073704
 20
7.4194059757314221
 11
36.005817354484407
 21
7.5095618536451525
  0
LINE
  8
_0-0_
  6
CONTINUOUS
 62
    7
 10
36.005817354484407
 20
7.5095618536451525
 11
35.953742444920522
 21
7.5986838856157988
  0
LINE
  8
_0-0_
  6
CONTINUOUS
 62
    7
 10
35.953742444920522
 20
7.5986838856157988
 11
35.904473888281927
 21
7.6851588929856121
  0
LINE
  8
_0-0_
  6
CONTINUOUS
 62
    7
 10
35.904473888281927
 20
7.6851588929856121
 11
35.858011684568737
 21
7.7689868757545923
  0
LINE
  8
_0-0_
  6
CONTINUOUS
 62
    7
 10
35.858011684568737
 20
7.7689868757545923
 11
35.814355833780837
 21
7.850167833922626
  0
LINE
  8
_0-0_
  6
CONTINUOUS
 62
    7
 10
35.814355833780837
 20
7.850167833922626
 11
35.773506335918114
 21
7.928701767490054
  0
LINE
  8
_0-0_
  6
CONTINUOUS
 62
    7
 10
35.773506335918114
 20
7.928701767490054
 11
35.735463190980795
 21
8.004588676456649
  0
LINE
  8
_0-0_
  6
CONTINUOUS
 62
    7
 10
35.735463190980795
 20
8.004588676456649
 11
35.640477696238804
 21
8.2097283393847533
  0
LINE
  8
_0-0_
  6
CONTINUOUS
 62
    7
 10
35.640477696238804
 20
8.2097283393847533
 11
35.561585929787611
 21
8.4057996613996124
  0
LINE
  8
_0-0_
  6
CONTINUOUS
 62
    7
 10
35.561585929787611
 20
8.4057996613996124
 11
35.498787891627444
 21
8.59280264250134
  0
LINE
  8
_0-0_
  6
CONTINUOUS
 62
    7
 10
35.498787891627444
 20
8.59280264250134
 11
35.444638248405113
 21
8.8044676503356527
  0
LINE
  8
_0-0_
  6
CONTINUOUS
 62
    7
 10
35.444638248405113
 20
8.8044676503356527
 11
35.412113650750598
 21
9.0064648657959765
  0
LINE
  8
_0-0_
  6
CONTINUOUS
 62
    7
 10
35.412113650750598
 20
9.0064648657959765
 11
35.4012140986639
 21
9.1987942888826524
  0
LINE
  8
_0-0_
  6
CONTINUOUS
 62
    7
 10
32.101214098663831
 20
17.939827508972201
 11
32.101214098663831
 21
11.01018105334407
  0
LINE
  8
_0-0_
  6
CONTINUOUS
 62
    7
 10
35.684618139910413
 20
14.342338991586814
 11
35.626498555237958
 21
14.407517595431443
  0
LINE
  8
_0-0_
  6
CONTINUOUS
 62
    7
 10
35.626498555237958
 20
14.407517595431443
 11
35.570735407265602
 21
14.482777113476175
  0
LINE
  8
_0-0_
  6
CONTINUOUS
 62
    7
 10
35.570735407265602
 20
14.482777113476175
 11
35.51924984840457
 21
14.568511201960575
  0
LINE
  8
_0-0_
  6
CONTINUOUS
 62
    7
 10
35.51924984840457
 20
14.568511201960575
 11
35.474186602350642
 21
14.664834147601994
  0
LINE
  8
_0-0_
  6
CONTINUOUS
 62
    7
 10
35.474186602350642
 20
14.664834147601994
 11
35.46902361209834
 21
14.677859420945822
  0
LINE
  8
_0-0_
  6
CONTINUOUS
 62
    7
 10
35.46902361209834
 20
14.677859420945822
 11
35.462716415093723
 21
14.694541977959773
  0
LINE
  8
_0-0_
  6
CONTINUOUS
 62
    7
 10
35.462716415093723
 20
14.694541977959773
 11
35.45545851436566
 21
14.714948493395298
  0
LINE
  8
_0-0_
  6
CONTINUOUS
 62
    7
 10
35.45545851436566
 20
14.714948493395298
 11
35.447487536387598
 21
14.73915219504903
  0
LINE
  8
_0-0_
  6
CONTINUOUS
 62
    7
 10
35.447487536387598
 20
14.73915219504903
 11
35.439086431576243
 21
14.767228256920419
  0
LINE
  8
_0-0_
  6
CONTINUOUS
 62
    7
 10
35.439086431576243
 20
14.767228256920419
 11
35.421400290583051
 21
14.839915274503653
  0
LINE
  8
_0-0_
  6
CONTINUOUS
 62
    7
 10
35.421400290583051
 20
14.839915274503653
 11
35.407174546298506
 21
14.930807472597905
  0
LINE
  8
_0-0_
  6
CONTINUOUS
 62
    7
 10
35.407174546298506
 20
14.930807472597905
 11
35.4012140986639
 21
15.039827508982114
  0
LINE
  8
_0-0_
  6
CONTINUOUS
 62
    7
 10
35.684618139910413
 20
14.342338991586814
 11
35.840581832876524
 21
14.211762618675778
  0
LINE
  8
_0-0_
  6
CONTINUOUS
 62
    7
 10
35.840581832876524
 20
14.211762618675778
 11
35.923823588364712
 21
14.161136265896005
  0
LINE
  8
_0-0_
  6
CONTINUOUS
 62
    7
 10
35.923823588364712
 20
14.161136265896005
 11
36.008888630054798
 21
14.120001043456853
  0
LINE
  8
_0-0_
  6
CONTINUOUS
 62
    7
 10
36.008888630054798
 20
14.120001043456853
 11
36.202808282173805
 21
14.05970755102652
  0
LINE
  8
_0-0_
  6
CONTINUOUS
 62
    7
 10
36.202808282173805
 20
14.05970755102652
 11
36.4012140986639
 21
14.039827508982114
  0
LINE
  8
_0-0_
  6
CONTINUOUS
 62
    7
 10
60.303137887310527
 20
6.2398275089820459
 11
60.303137887310527
 21
14.039827508982114
  0
LINE
  8
_0-0_
  6
CONTINUOUS
 62
    7
 10
40.4012140986639
 20
6.2398275089621507
 11
40.4012140986639
 21
14.039827508982114
  0
LINE
  8
_0-0_
  6
CONTINUOUS
 62
    7
 10
43.001214098663922
 20
14.039827508982114
 11
43.001214098663922
 21
6.2398275089621507
  0
ARC
  8
_0-0_
  6
CONTINUOUS
 62
    7
 10
36.4012140986639
 20
5.2398275089621507
 40
1
 50
90
 51
180.00000000000159
  0
LINE
  8
_0-0_
  6
CONTINUOUS
 62
    7
 10
36.4012140986639
 20
6.8750042811580556
 11
35.4012140986639
 21
6.8750042811580556
  0
LINE
  8
_0-0_
  6
CONTINUOUS
 62
    7
 10
35.766027840215315
 20
43.603499814245083
 11
35.667346876797183
 21
43.474507108916669
  0
LINE
  8
_0-0_
  6
CONTINUOUS
 62
    7
 10
35.667346876797183
 20
43.474507108916669
 11
35.58673660581735
 21
43.326689222848131
  0
LINE
  8
_0-0_
  6
CONTINUOUS
 62
    7
 10
35.58673660581735
 20
43.326689222848131
 11
35.52526146650348
 21
43.168295485461726
  0
LINE
  8
_0-0_
  6
CONTINUOUS
 62
    7
 10
35.52526146650348
 20
43.168295485461726
 11
35.479882672778103
 21
43.002620201225795
  0
LINE
  8
_0-0_
  6
CONTINUOUS
 62
    7
 10
35.479882672778103
 20
43.002620201225795
 11
35.439199973846598
 21
42.774502158174755
  0
LINE
  8
_0-0_
  6
CONTINUOUS
 62
    7
 10
35.439199973846598
 20
42.774502158174755
 11
35.415549323736059
 21
42.538603464452535
  0
LINE
  8
_0-0_
  6
CONTINUOUS
 62
    7
 10
35.415549323736059
 20
42.538603464452535
 11
35.404252378525143
 21
42.301337611232839
  0
LINE
  8
_0-0_
  6
CONTINUOUS
 62
    7
 10
35.404252378525143
 20
42.301337611232839
 11
35.4012140986639
 21
42.059448779430113
  0
LINE
  8
_0-0_
  6
CONTINUOUS
 62
    7
 10
35.766027840215315
 20
43.603499814245083
 11
35.888272719950692
 21
43.715566022134112
  0
LINE
  8
_0-0_
  6
CONTINUOUS
 62
    7
 10
35.888272719950692
 20
43.715566022134112
 11
35.978696270871069
 21
43.775096014091332
  0
LINE
  8
_0-0_
  6
CONTINUOUS
 62
    7
 10
35.978696270871069
 20
43.775096014091332
 11
36.078749419659289
 21
43.823704884506697
  0
LINE
  8
_0-0_
  6
CONTINUOUS
 62
    7
 10
36.078749419659289
 20
43.823704884506697
 11
36.180524613547277
 21
43.85760914640241
  0
LINE
  8
_0-0_
  6
CONTINUOUS
 62
    7
 10
36.180524613547277
 20
43.85760914640241
 11
36.287919373914519
 21
43.878853076936934
  0
LINE
  8
_0-0_
  6
CONTINUOUS
 62
    7
 10
36.287919373914519
 20
43.878853076936934
 11
36.4012140986639
 21
43.886283814149351
  0
LINE
  8
_0-0_
  6
CONTINUOUS
 62
    7
 10
36.4012140986639
 20
43.886283814149351
 11
40.401214098817036
 21
43.886283814149351
  0
LINE
  8
_0-0_
  6
CONTINUOUS
 62
    7
 10
40.401214098817036
 20
43.886283814149351
 11
40.4012140986639
 21
45.573808133408647
  0
LINE
  8
_0-0_
  6
CONTINUOUS
 62
    7
 10
40.4012140986639
 20
45.573808133408647
 11
36.4012140986639
 21
45.573808133408647
  0
LINE
  8
_0-0_
  6
CONTINUOUS
 62
    7
 10
35.636219626532011
 20
45.483327604632336
 11
35.73229010438672
 21
45.274669296628758
  0
LINE
  8
_0-0_
  6
CONTINUOUS
 62
    7
 10
35.73229010438672
 20
45.274669296628758
 11
35.771256881810586
 21
45.196626967149086
  0
LINE
  8
_0-0_
  6
CONTINUOUS
 62
    7
 10
35.771256881810586
 20
45.196626967149086
 11
35.813090587879287
 21
45.115959771050484
  0
LINE
  8
_0-0_
  6
CONTINUOUS
 62
    7
 10
35.813090587879287
 20
45.115959771050484
 11
35.857791222592596
 21
45.03266770833261
  0
LINE
  8
_0-0_
  6
CONTINUOUS
 62
    7
 10
35.857791222592596
 20
45.03266770833261
 11
35.905358785950511
 21
44.946750778995806
  0
LINE
  8
_0-0_
  6
CONTINUOUS
 62
    7
 10
35.905358785950511
 20
44.946750778995806
 11
35.955793277953262
 21
44.858208983039844
  0
LINE
  8
_0-0_
  6
CONTINUOUS
 62
    7
 10
35.955793277953262
 20
44.858208983039844
 11
36.009094698600848
 21
44.767042320464839
  0
LINE
  8
_0-0_
  6
CONTINUOUS
 62
    7
 10
36.009094698600848
 20
44.767042320464839
 11
36.068385494188078
 21
44.668096207126496
  0
LINE
  8
_0-0_
  6
CONTINUOUS
 62
    7
 10
36.068385494188078
 20
44.668096207126496
 11
36.121797661100914
 21
44.580756688468114
  0
LINE
  8
_0-0_
  6
CONTINUOUS
 62
    7
 10
36.121797661100914
 20
44.580756688468114
 11
36.180152369690404
 21
44.486790624940795
  0
LINE
  8
_0-0_
  6
CONTINUOUS
 62
    7
 10
36.180152369690404
 20
44.486790624940795
 11
36.228042397537138
 21
44.410572483239775
  0
LINE
  8
_0-0_
  6
CONTINUOUS
 62
    7
 10
36.228042397537138
 20
44.410572483239775
 11
36.256593412929988
 21
44.365492220992223
  0
LINE
  8
_0-0_
  6
CONTINUOUS
 62
    7
 10
36.256593412929988
 20
44.365492220992223
 11
36.294789255776323
 21
44.305432016243117
  0
LINE
  8
_0-0_
  6
CONTINUOUS
 62
    7
 10
36.294789255776323
 20
44.305432016243117
 11
36.342996151020998
 21
44.229811729653306
  0
LINE
  8
_0-0_
  6
CONTINUOUS
 62
    7
 10
36.342996151020998
 20
44.229811729653306
 11
36.4012140986639
 21
44.138631361222792
  0
LINE
  8
_0-0_
  6
CONTINUOUS
 62
    7
 10
35.636219626532011
 20
45.483327604632336
 11
35.556832022635263
 21
45.682400945910217
  0
LINE
  8
_0-0_
  6
CONTINUOUS
 62
    7
 10
35.556832022635263
 20
45.682400945910217
 11
35.494127292696589
 21
45.871889320462174
  0
LINE
  8
_0-0_
  6
CONTINUOUS
 62
    7
 10
35.494127292696589
 20
45.871889320462174
 11
35.442561732646027
 21
46.077620675230719
  0
LINE
  8
_0-0_
  6
CONTINUOUS
 62
    7
 10
35.442561732646027
 20
46.077620675230719
 11
35.411590667968539
 21
46.274464691392382
  0
LINE
  8
_0-0_
  6
CONTINUOUS
 62
    7
 10
35.411590667968539
 20
46.274464691392382
 11
35.4012140986639
 21
46.462421368947162
  0
LINE
  8
_0-0_
  6
CONTINUOUS
 62
    7
 10
32.101214098663831
 20
33.073808133408704
 11
32.101214098663831
 21
40.003454589036778
  0
LINE
  8
_0-0_
  6
CONTINUOUS
 62
    7
 10
35.45545851436566
 20
37.218183819136129
 11
35.447487536387598
 21
37.209715489344831
  0
LINE
  8
_0-0_
  6
CONTINUOUS
 62
    7
 10
35.447487536387598
 20
37.209715489344831
 11
35.439086431576243
 21
37.199946212928353
  0
LINE
  8
_0-0_
  6
CONTINUOUS
 62
    7
 10
35.439086431576243
 20
37.199946212928353
 11
35.421400290583051
 21
37.174916882252205
  0
LINE
  8
_0-0_
  6
CONTINUOUS
 62
    7
 10
35.421400290583051
 20
37.174916882252205
 11
35.407174546298506
 21
37.144033889074876
  0
LINE
  8
_0-0_
  6
CONTINUOUS
 62
    7
 10
35.407174546298506
 20
37.144033889074876
 11
35.4012140986639
 21
37.107297233396366
  0
LINE
  8
_0-0_
  6
CONTINUOUS
 62
    7
 10
35.45545851436566
 20
37.218183819136129
 11
35.462716415093723
 21
37.225351202302136
  0
LINE
  8
_0-0_
  6
CONTINUOUS
 62
    7
 10
35.462716415093723
 20
37.225351202302136
 11
35.46902361209834
 21
37.23121763884285
  0
LINE
  8
_0-0_
  6
CONTINUOUS
 62
    7
 10
35.46902361209834
 20
37.23121763884285
 11
35.474186602350642
 21
37.235783128758385
  0
LINE
  8
_0-0_
  6
CONTINUOUS
 62
    7
 10
35.474186602350642
 20
37.235783128758385
 11
35.51924984840457
 21
37.26952678149587
  0
LINE
  8
_0-0_
  6
CONTINUOUS
 62
    7
 10
35.51924984840457
 20
37.26952678149587
 11
35.570735407265602
 21
37.299852756131486
  0
LINE
  8
_0-0_
  6
CONTINUOUS
 62
    7
 10
35.570735407265602
 20
37.299852756131486
 11
35.626498555237958
 21
37.326761052665347
  0
LINE
  8
_0-0_
  6
CONTINUOUS
 62
    7
 10
35.626498555237958
 20
37.326761052665347
 11
35.684618139910413
 21
37.350251671097226
  0
LINE
  8
_0-0_
  6
CONTINUOUS
 62
    7
 10
35.684618139910413
 20
37.350251671097226
 11
35.840581832876524
 21
37.39769163515848
  0
LINE
  8
_0-0_
  6
CONTINUOUS
 62
    7
 10
35.840581832876524
 20
37.39769163515848
 11
35.923823588364712
 21
37.416308184506761
  0
LINE
  8
_0-0_
  6
CONTINUOUS
 62
    7
 10
35.923823588364712
 20
37.416308184506761
 11
36.008888630054798
 21
37.431522445400105
  0
LINE
  8
_0-0_
  6
CONTINUOUS
 62
    7
 10
36.008888630054798
 20
37.431522445400105
 11
36.202808282173805
 21
37.453879950850933
  0
LINE
  8
_0-0_
  6
CONTINUOUS
 62
    7
 10
36.202808282173805
 20
37.453879950850933
 11
36.4012140986639
 21
37.461332452667989
  0
LINE
  8
_0-0_
  6
CONTINUOUS
 62
    7
 10
36.4012140986639
 20
37.461332452667989
 11
40.401214098817036
 21
37.461332452667989
  0
LINE
  8
_0-0_
  6
CONTINUOUS
 62
    7
 10
40.401214098817036
 20
37.461332452667989
 11
40.4012140986639
 21
35.773808133408693
  0
LINE
  8
_0-0_
  6
CONTINUOUS
 62
    7
 10
40.4012140986639
 20
35.773808133408693
 11
36.4012140986639
 21
35.773808133408693
  0
LINE
  8
_0-0_
  6
CONTINUOUS
 62
    7
 10
60.303137887310527
 20
33.173808133408613
 11
60.303137887310527
 21
48.17380813340867
  0
ARC
  8
_0-0_
  6
CONTINUOUS
 62
    7
 10
36.4012140986639
 20
34.773808133408693
 40
1
 50
90
 51
180.00000000000082
  0
ARC
  8
_0-0_
  6
CONTINUOUS
 62
    7
 10
36.4012140986639
 20
46.573808133408647
 40
1
 50
180.0000000000008
 51
270
  0
LINE
  8
_0-0_
  6
CONTINUOUS
 62
    7
 10
41.901214098750643
 20
44.259034934540864
 11
41.901214098750643
 21
36.859034934540432
  0
LINE
  8
_0-0_
  6
CONTINUOUS
 62
    7
 10
42.201214098750597
 20
36.559034934540364
 11
44.601214098750688
 21
36.559034934540364
  0
LINE
  8
_0-0_
  6
CONTINUOUS
 62
    7
 10
44.901214098750643
 20
36.859034934540432
 11
44.901214098750643
 21
44.259034934540864
  0
LINE
  8
_0-0_
  6
CONTINUOUS
 62
    7
 10
44.601214098750688
 20
44.559034934540932
 11
42.201214098750597
 21
44.559034934540591
  0
LINE
  8
_0-0_
  6
CONTINUOUS
 62
    7
 10
42.959755819625343
 20
42.169103645920586
 11
42.959755819625229
 21
41.649002999783306
  0
LINE
  8
_0-0_
  6
CONTINUOUS
 62
    7
 10
43.695416439665223
 20
41.651533736859506
 11
43.695416439665223
 21
42.18252314232177
  0
LINE
  8
_0-0_
  6
CONTINUOUS
 62
    7
 10
43.529094941775384
 20
40.257599932173775
 11
43.529094941775384
 21
39.423146257196095
  0
LINE
  8
_0-0_
  6
CONTINUOUS
 62
    7
 10
43.529094941775384
 20
39.423146257196095
 11
44.027644918925262
 21
39.423146257196095
  0
LINE
  8
_0-0_
  6
CONTINUOUS
 62
    7
 10
44.027644918925262
 20
39.423146257196095
 11
44.027644918925262
 21
40.345560963300954
  0
LINE
  8
_0-0_
  6
CONTINUOUS
 62
    7
 10
44.027644918925262
 20
40.345560963300954
 11
44.391602855705287
 21
40.345560963300954
  0
LINE
  8
_0-0_
  6
CONTINUOUS
 62
    7
 10
44.391602855705287
 20
40.345560963300954
 11
44.391602855705287
 21
38.915846171756129
  0
LINE
  8
_0-0_
  6
CONTINUOUS
 62
    7
 10
44.391602855705287
 20
38.915846171756129
 11
42.350041613105304
 21
38.915846171756129
  0
LINE
  8
_0-0_
  6
CONTINUOUS
 62
    7
 10
42.350041613105304
 20
38.915846171756129
 11
42.350041613105304
 21
40.345560963300954
  0
LINE
  8
_0-0_
  6
CONTINUOUS
 62
    7
 10
42.350041613105304
 20
40.345560963300954
 11
42.713999549856453
 21
40.345560963300954
  0
LINE
  8
_0-0_
  6
CONTINUOUS
 62
    7
 10
42.713999549856453
 20
40.345560963300954
 11
42.713999549856453
 21
39.423146257196095
  0
LINE
  8
_0-0_
  6
CONTINUOUS
 62
    7
 10
42.713999549856453
 20
39.423146257196095
 11
43.187443863795352
 21
39.423146257196095
  0
LINE
  8
_0-0_
  6
CONTINUOUS
 62
    7
 10
43.187443863795352
 20
39.423146257196095
 11
43.187443863795352
 21
40.257599932173775
  0
LINE
  8
_0-0_
  6
CONTINUOUS
 62
    7
 10
43.187443863795352
 20
40.257599932173775
 11
43.529094941775384
 21
40.257599932173775
  0
LINE
  8
_0-0_
  6
CONTINUOUS
 62
    7
 10
44.391602855705287
 20
38.523049865578173
 11
44.027644918925262
 21
38.523049865578173
  0
LINE
  8
_0-0_
  6
CONTINUOUS
 62
    7
 10
44.027644918925262
 20
38.523049865578173
 11
44.027644918925262
 21
37.602812617663744
  0
LINE
  8
_0-0_
  6
CONTINUOUS
 62
    7
 10
44.027644918925262
 20
37.602812617663744
 11
42.350041613105304
 21
37.602812617663744
  0
LINE
  8
_0-0_
  6
CONTINUOUS
 62
    7
 10
42.350041613105304
 20
37.602812617663744
 11
42.350041613105304
 21
37.093707089264058
  0
LINE
  8
_0-0_
  6
CONTINUOUS
 62
    7
 10
42.350041613105304
 20
37.093707089264058
 11
44.391602855705287
 21
37.093707089264058
  0
LINE
  8
_0-0_
  6
CONTINUOUS
 62
    7
 10
44.391602855705287
 20
37.093707089264058
 11
44.391602855705287
 21
38.523049865578173
  0
ARC
  8
_0-0_
  6
CONTINUOUS
 62
    7
 10
44.601214098750688
 20
36.859034934540432
 40
0.3000000000000007
 50
270
 51
0
  0
ARC
  8
_0-0_
  6
CONTINUOUS
 62
    7
 10
44.601214098750688
 20
44.259034934540864
 40
0.3000000000000073
 50
0
 51
90
  0
ARC
  8
_0-0_
  6
CONTINUOUS
 62
    7
 10
42.20121409875037
 20
44.25903493454075
 40
0.2999999999998521
 50
90
 51
179.99999999997561
  0
ARC
  8
_0-0_
  6
CONTINUOUS
 62
    7
 10
42.201214098750597
 20
36.859034934540432
 40
0.3000000000000053
 50
180
 51
270
  0
ARC
  8
_0-0_
  6
CONTINUOUS
 62
    7
 10
43.370822234409616
 20
47.354725027974609
 40
6.0927389498117277
 50
266.78919008197317
 51
273.210809918027
  0
ARC
  8
_0-0_
  6
CONTINUOUS
 62
    7
 10
43.90347337880894
 20
41.461576115000867
 40
0.1658629864204367
 50
288.78093483260722
 51
71.219065167403798
  0
ARC
  8
_0-0_
  6
CONTINUOUS
 62
    7
 10
43.711583953518584
 20
40.725367521728913
 40
0.9263073175537861
 50
74.644741742144674
 51
91.000075600864918
  0
ARC
  8
_0-0_
  6
CONTINUOUS
 62
    7
 10
43.370822234405296
 20
39.805597799994757
 40
2.3989863444973438
 50
74.216002475893092
 51
82.223758552802551
  0
ARC
  8
_0-0_
  6
CONTINUOUS
 62
    7
 10
43.835975906598151
 20
41.573507319542955
 40
0.5721789663385409
 50
16.229103677731942
 51
70.881879685891036
  0
ARC
  8
_0-0_
  6
CONTINUOUS
 62
    7
 10
43.316478426002391
 20
41.461576115000526
 40
1.1029029679633351
 50
345.73070722358648
 51
14.269292776431824
  0
ARC
  8
_0-0_
  6
CONTINUOUS
 62
    7
 10
43.835975906598492
 20
41.349644910459006
 40
0.5721789663384535
 50
289.11812031406362
 51
343.77089632222248
  0
ARC
  8
_0-0_
  6
CONTINUOUS
 62
    7
 10
43.370822234405182
 20
43.11755443000709
 40
2.3989863444973172
 50
254.21600247589274
 51
285.78399752410667
  0
ARC
  8
_0-0_
  6
CONTINUOUS
 62
    7
 10
43.03006051529178
 20
40.725367521729254
 40
0.9263073175532877
 50
94.35281000280068
 51
105.35525825784561
  0
ARC
  8
_0-0_
  6
CONTINUOUS
 62
    7
 10
43.024000853264624
 20
42.154870384404717
 40
0.8833375614222087
 50
254.2866639652058
 51
270.36114653045598
  0
ARC
  8
_0-0_
  6
CONTINUOUS
 62
    7
 10
43.717643615550287
 20
42.154870384374135
 40
0.88333756139161
 50
269.63885346981272
 51
285.7133360350627
  0
ARC
  8
_0-0_
  6
CONTINUOUS
 62
    7
 10
42.838171090001651
 20
41.461576115000867
 40
0.1658629864204378
 50
108.7809348325729
 51
251.21906516741771
  0
ARC
  8
_0-0_
  6
CONTINUOUS
 62
    7
 10
42.905668562212213
 20
41.349644910459119
 40
0.5721789663386149
 50
196.2291036777516
 51
250.8818796859083
  0
ARC
  8
_0-0_
  6
CONTINUOUS
 62
    7
 10
42.905668562212441
 20
41.573507319542728
 40
0.5721789663387437
 50
109.11812031411181
 51
163.77089632226861
  0
ARC
  8
_0-0_
  6
CONTINUOUS
 62
    7
 10
43.425166042807177
 20
41.461576115000526
 40
1.1029029679624009
 50
165.73070722356209
 51
194.26929277640829
  0
ARC
  8
_0-0_
  6
CONTINUOUS
 62
    7
 10
43.370822234406887
 20
39.805597799993734
 40
2.398986344498764
 50
99.866322719854267
 51
105.7839975241387
  0
ARC
  8
_0-0_
  6
CONTINUOUS
 62
    7
 10
43.835975906598151
 20
43.138937210488621
 40
0.5721789663386166
 50
289.11812031409221
 51
343.77089632224971
  0
ARC
  8
_0-0_
  6
CONTINUOUS
 62
    7
 10
42.905668562212213
 20
43.138937210488621
 40
0.5721789663386166
 50
196.22910367774759
 51
250.88187968590472
  0
ARC
  8
_0-0_
  6
CONTINUOUS
 62
    7
 10
43.425166042807405
 20
43.250868415030368
 40
1.102902967962728
 50
165.7307072235794
 51
194.26929277642509
  0
ARC
  8
_0-0_
  6
CONTINUOUS
 62
    7
 10
42.905668562212213
 20
43.362799619572229
 40
0.5721789663387149
 50
109.11812031408849
 51
163.77089632224656
  0
ARC
  8
_0-0_
  6
CONTINUOUS
 62
    7
 10
43.370822234405296
 20
41.594890100024145
 40
2.39898634449739
 50
74.216002475892807
 51
105.78399752410689
  0
ARC
  8
_0-0_
  6
CONTINUOUS
 62
    7
 10
43.835975906598151
 20
43.362799619572456
 40
0.5721789663385361
 50
16.229103677733701
 51
70.881879685891505
  0
ARC
  8
_0-0_
  6
CONTINUOUS
 62
    7
 10
43.316478426002959
 20
43.250868415030368
 40
1.1029029679627289
 50
345.73070722357551
 51
14.269292776422251
  0
ARC
  8
_0-0_
  6
CONTINUOUS
 62
    7
 10
42.838171090001765
 20
43.250868415030482
 40
0.1658629864203572
 50
108.7809348326072
 51
251.21906516744389
  0
ARC
  8
_0-0_
  6
CONTINUOUS
 62
    7
 10
43.024000853265193
 20
43.94416268443365
 40
0.8833375614216895
 50
254.28666396516849
 51
270.36114653042023
  0
ARC
  8
_0-0_
  6
CONTINUOUS
 62
    7
 10
43.370822234409616
 20
49.144017328002519
 40
6.092738949810145
 50
266.78919008197238
 51
273.21080991802785
  0
ARC
  8
_0-0_
  6
CONTINUOUS
 62
    7
 10
43.717643615550287
 20
43.944162684403523
 40
0.8833375613914664
 50
269.63885346981073
 51
285.71333603506298
  0
ARC
  8
_0-0_
  6
CONTINUOUS
 62
    7
 10
43.90347337880894
 20
43.250868415030368
 40
0.165862986420438
 50
288.78093483259158
 51
71.21906516740691
  0
ARC
  8
_0-0_
  6
CONTINUOUS
 62
    7
 10
43.717643615550287
 20
42.557574145657213
 40
0.883337561391565
 50
74.286663964939322
 51
90.361146530191064
  0
ARC
  8
_0-0_
  6
CONTINUOUS
 62
    7
 10
43.024000853264624
 20
42.557574145626518
 40
0.8833375614222461
 50
89.638853469544927
 51
105.71333603479481
  0
ARC
  8
_0-0_
  6
CONTINUOUS
 62
    7
 10
43.370822234409616
 20
37.357719502055943
 40
6.092738949812456
 50
86.789190081973857
 51
93.210809918026953
  0
ARC
  8
_0-0_
  6
CONTINUOUS
 62
    7
 10
43.370822234405182
 20
44.906846730036591
 40
2.3989863444973039
 50
254.21600247589322
 51
285.78399752410752
  0
LINE
  8
_0-0_
  6
CONTINUOUS
 62
    7
 10
36.4012140986639
 20
44.138631361222792
 11
35.4012140986639
 21
44.138631361222792
  0
CIRCLE
  8
_0-0_
  6
CONTINUOUS
 62
    7
 10
53.201214098750597
 20
40.67380813340867
 40
5.5
  0
CIRCLE
  8
_0-0_
  6
CONTINUOUS
 62
    7
 10
53.201214098750597
 20
40.67380813340867
 40
4.0999999999999996
  0
ARC
  8
_0-0_
  6
CONTINUOUS
 62
    7
 10
3.4937532272922454
 20
47.773808133408693
 40
0.5
 50
90
 51
180
  0
LINE
  8
_0-0_
  6
CONTINUOUS
 62
    7
 10
4.4937532272922454
 20
46.273808133408693
 11
4.4937532272922454
 21
39.844161677780562
  0
LINE
  8
_0-0_
  6
CONTINUOUS
 62
    7
 10
4.9937532272922454
 20
46.773808133408693
 11
11.42339968292049
 21
46.773808133408693
  0
ARC
  8
_0-0_
  6
CONTINUOUS
 62
    7
 10
4.9937532272922454
 20
46.273808133408693
 40
0.5
 50
90
 51
180
  0
LINE
  8
_0-0_
  6
CONTINUOUS
 62
    7
 10
16.193753227292177
 20
34.573808133408647
 11
9.7641067716640464
 21
34.573808133408647
  0
LINE
  8
_0-0_
  6
CONTINUOUS
 62
    7
 10
16.693753227292177
 20
35.073808133408647
 11
16.693753227292177
 21
41.503454589036892
  0
ARC
  8
_0-0_
  6
CONTINUOUS
 62
    7
 10
16.193753227292177
 20
35.073808133408647
 40
0.5
 50
270
 51
0
  0
ARC
  8
_0-0_
  6
CONTINUOUS
 62
    7
 10
17.693753227292177
 20
33.573808133408704
 40
0.5
 50
270
 51
0
  0
ARC
  8
_0-0_
  6
CONTINUOUS
 62
    7
 10
32.308320879850498
 20
47.773808133408693
 40
0.5
 50
90
 51
135
  0
LINE
  8
_0-0_
  6
CONTINUOUS
 62
    7
 10
34.9012140986639
 20
48.273808133408693
 11
32.308320879850498
 21
48.273808133408693
  0
LINE
  8
_0-0_
  6
CONTINUOUS
 62
    7
 10
35.4012140986639
 20
47.773808133408693
 11
35.4012140986639
 21
46.462421368947162
  0
ARC
  8
_0-0_
  6
CONTINUOUS
 62
    7
 10
34.9012140986639
 20
47.773808133408693
 40
0.5
 50
0
 51
90
  0
ARC
  8
_0-0_
  6
CONTINUOUS
 62
    7
 10
34.9012140986639
 20
40.503454589036778
 40
0.5
 50
270
 51
0
  0
ARC
  8
_0-0_
  6
CONTINUOUS
 62
    7
 10
34.9012140986639
 20
33.573808133408704
 40
0.5
 50
270
 51
0
  0
LINE
  8
_0-0_
  6
CONTINUOUS
 62
    7
 10
35.4012140986639
 20
33.573808133408704
 11
35.4012140986639
 21
44.138631361222792
  0
LINE
  8
_0-0_
  6
CONTINUOUS
 62
    7
 10
32.308320879850498
 20
40.003454589036778
 11
34.9012140986639
 21
40.003454589036778
  0
ARC
  8
_0-0_
  6
CONTINUOUS
 62
    7
 10
32.308320879850498
 20
40.503454589036778
 40
0.5
 50
224.99999999999892
 51
270
  0
LINE
  8
_0-0_
  6
CONTINUOUS
 62
    7
 10
32.308320879850498
 20
33.073808133408704
 11
34.9012140986639
 21
33.073808133408704
  0
ARC
  8
_0-0_
  6
CONTINUOUS
 62
    7
 10
32.308320879850498
 20
33.573808133408704
 40
0.5
 50
225
 51
270
  0
LINE
  8
_0-0_
  6
CONTINUOUS
 62
    7
 10
42.854767489257142
 20
33.320254742815393
 11
40.4012140986639
 21
35.773808133408693
  0
ARC
  8
_0-0_
  6
CONTINUOUS
 62
    7
 10
43.208320879850362
 20
33.673808133408727
 40
0.5
 50
225.00000000000043
 51
269.99999999999994
  0
LINE
  8
_0-0_
  6
CONTINUOUS
 62
    7
 10
42.854767489257142
 20
48.02736152400189
 11
40.4012140986639
 21
45.573808133408647
  0
ARC
  8
_0-0_
  6
CONTINUOUS
 62
    7
 10
43.208320879850362
 20
47.67380813340867
 40
0.5
 50
90
 51
135.0000000000004
  0
LINE
  8
_0-0_
  6
CONTINUOUS
 62
    7
 10
60.169163291094947
 20
48.17380813340867
 11
43.208320879850362
 21
48.17380813340867
  0
ARC
  8
_0-0_
  6
CONTINUOUS
 62
    7
 10
60.169163291094947
 20
47.67380813340867
 40
0.5
 50
59.999999999999929
 51
90
  0
LINE
  8
_0-0_
  6
CONTINUOUS
 62
    7
 10
62.651214098663786
 20
46.818145700706054
 11
60.419163291094947
 21
48.106820835300937
  0
ARC
  8
_0-0_
  6
CONTINUOUS
 62
    7
 10
62.401214098663786
 20
46.385132998813901
 40
0.5
 50
0
 51
60.000000000000057
  0
LINE
  8
_0-0_
  6
CONTINUOUS
 62
    7
 10
62.901214098663786
 20
34.962483268003439
 11
62.901214098663786
 21
46.385132998813901
  0
ARC
  8
_0-0_
  6
CONTINUOUS
 62
    7
 10
62.401214098663786
 20
34.962483268003439
 40
0.5
 50
300.00000000000068
 51
0
  0
LINE
  8
_0-0_
  6
CONTINUOUS
 62
    7
 10
60.419163291094947
 20
33.24079543151646
 11
62.651214098663786
 21
34.529470566111229
  0
LINE
  8
_0-0_
  6
CONTINUOUS
 62
    7
 10
60.169163291094947
 20
33.173808133408613
 11
43.208320879850362
 21
33.173808133408727
  0
ARC
  8
_0-0_
  6
CONTINUOUS
 62
    7
 10
60.169163291094947
 20
33.673808133408613
 40
0.5
 50
269.99999999999989
 51
300.00000000000068
  0
ARC
  8
_0-0_
  6
CONTINUOUS
 62
    7
 10
85.168510779744452
 20
47.67380813340867
 40
0.5
 50
90
 51
180
  0
LINE
  8
_0-0_
  6
CONTINUOUS
 62
    7
 10
91.968510779744463
 20
48.17380813340867
 11
85.168510779744452
 21
48.17380813340867
  0
ARC
  8
_0-0_
  6
CONTINUOUS
 62
    7
 10
91.968510779744463
 20
47.67380813340867
 40
0.5
 50
0
 51
90
  0
ARC
  8
_0-0_
  6
CONTINUOUS
 62
    7
 10
90.468510779744463
 20
46.17380813340867
 40
0.5
 50
0
 51
90
  0
LINE
  8
_0-0_
  6
CONTINUOUS
 62
    7
 10
86.668510779744452
 20
46.67380813340867
 11
90.468510779744463
 21
46.67380813340867
  0
ARC
  8
_0-0_
  6
CONTINUOUS
 62
    7
 10
86.668510779744452
 20
46.17380813340867
 40
0.5
 50
90
 51
180
  0
LINE
  8
_0-0_
  6
CONTINUOUS
 62
    7
 10
86.168510779744452
 20
35.17380813340867
 11
86.168510779744452
 21
46.17380813340867
  0
ARC
  8
_0-0_
  6
CONTINUOUS
 62
    7
 10
86.668510779744452
 20
35.17380813340867
 40
0.5
 50
180
 51
270
  0
LINE
  8
_0-0_
  6
CONTINUOUS
 62
    7
 10
90.968510779744463
 20
35.17380813340867
 11
90.968510779744463
 21
46.17380813340867
  0
LINE
  8
_0-0_
  6
CONTINUOUS
 62
    7
 10
90.468510779744463
 20
34.67380813340867
 11
86.668510779744452
 21
34.67380813340867
  0
ARC
  8
_0-0_
  6
CONTINUOUS
 62
    7
 10
90.468510779744463
 20
35.17380813340867
 40
0.5
 50
270
 51
0
  0
LINE
  8
_0-0_
  6
CONTINUOUS
 62
    7
 10
84.668510779744452
 20
33.673808133408613
 11
84.668510779744452
 21
47.67380813340867
  0
ARC
  8
_0-0_
  6
CONTINUOUS
 62
    7
 10
85.168510779744452
 20
33.673808133408613
 40
0.5
 50
180
 51
270
  0
LINE
  8
_0-0_
  6
CONTINUOUS
 62
    7
 10
91.968510779744463
 20
33.173808133408613
 11
85.168510779744452
 21
33.173808133408613
  0
LINE
  8
_0-0_
  6
CONTINUOUS
 62
    7
 10
92.468510779744463
 20
33.673808133408613
 11
92.468510779744463
 21
47.67380813340867
  0
LINE
  8
_0-0_
  6
CONTINUOUS
 62
    7
 10
90.968510779744463
 20
34.67380813340867
 11
92.32206417033774
 21
33.320254742815393
  0
LINE
  8
_0-0_
  6
CONTINUOUS
 62
    7
 10
84.814957389151175
 20
33.320254742815393
 11
86.168510779744452
 21
34.67380813340867
  0
LINE
  8
_0-0_
  6
CONTINUOUS
 62
    7
 10
84.814957389151175
 20
48.02736152400189
 11
86.168510779744452
 21
46.67380813340867
  0
LINE
  8
_0-0_
  6
CONTINUOUS
 62
    7
 10
90.968510779744463
 20
46.67380813340867
 11
92.32206417033774
 21
48.02736152400189
  0
LINE
  8
_0-0_
  6
CONTINUOUS
 62
    7
 10
18.193753227292177
 20
39.796347807850225
 11
18.193753227292177
 21
33.573808133408704
  0
ARC
  8
_0-0_
  6
CONTINUOUS
 62
    7
 10
17.693753227292177
 20
39.796347807850225
 40
0.5
 50
0
 51
44.999999999999723
  0
LINE
  8
_0-0_
  6
CONTINUOUS
 62
    7
 10
10.069846292327156
 20
48.127361524001913
 11
18.047306617885397
 21
40.149901198443558
  0
LINE
  8
_0-0_
  6
CONTINUOUS
 62
    7
 10
9.7162929017338229
 20
48.273808133408693
 11
3.4937532272922454
 21
48.273808133408693
  0
ARC
  8
_0-0_
  6
CONTINUOUS
 62
    7
 10
9.7162929017338229
 20
47.773808133408693
 40
0.5
 50
44.999999999999744
 51
90
  0
LINE
  8
_0-0_
  6
CONTINUOUS
 62
    7
 10
2.9937532272922454
 20
41.551268458967115
 11
2.9937532272922454
 21
47.773808133408693
  0
ARC
  8
_0-0_
  6
CONTINUOUS
 62
    7
 10
3.4937532272922454
 20
41.551268458967115
 40
0.5
 50
180
 51
225.00000000000014
  0
LINE
  8
_0-0_
  6
CONTINUOUS
 62
    7
 10
11.11766016225738
 20
33.220254742815371
 11
3.1401998366989119
 21
41.197715068373782
  0
LINE
  8
_0-0_
  6
CONTINUOUS
 62
    7
 10
11.471213552850713
 20
33.073808133408704
 11
17.693753227292177
 21
33.073808133408704
  0
ARC
  8
_0-0_
  6
CONTINUOUS
 62
    7
 10
11.471213552850713
 20
33.573808133408704
 40
0.5
 50
225.00000000000014
 51
270
  0
LINE
  8
_0-0_
  6
CONTINUOUS
 62
    7
 10
3.1401998366989119
 20
48.127361524001913
 11
4.4937532272922454
 21
46.773808133408693
  0
LINE
  8
_0-0_
  6
CONTINUOUS
 62
    7
 10
16.693753227292177
 20
34.573808133408647
 11
18.047306617885397
 21
33.220254742815371
  0
ARC
  8
_0-0_
  6
CONTINUOUS
 62
    7
 10
34.9012140986639
 20
17.439827508972201
 40
0.5
 50
0
 51
90
  0
ARC
  8
_0-0_
  6
CONTINUOUS
 62
    7
 10
34.9012140986639
 20
10.51018105334407
 40
0.5
 50
0
 51
90
  0
LINE
  8
_0-0_
  6
CONTINUOUS
 62
    7
 10
35.4012140986639
 20
3.2398275089721551
 11
35.4012140986639
 21
6.8750042811580556
  0
ARC
  8
_0-0_
  6
CONTINUOUS
 62
    7
 10
34.9012140986639
 20
3.2398275089721551
 40
0.5
 50
270
 51
0
  0
LINE
  8
_0-0_
  6
CONTINUOUS
 62
    7
 10
32.308320879850498
 20
2.7398275089721551
 11
34.9012140986639
 21
2.7398275089721551
  0
ARC
  8
_0-0_
  6
CONTINUOUS
 62
    7
 10
32.308320879850498
 20
3.2398275089721551
 40
0.5
 50
225
 51
270
  0
LINE
  8
_0-0_
  6
CONTINUOUS
 62
    7
 10
32.308320879850498
 20
11.01018105334407
 11
34.9012140986639
 21
11.01018105334407
  0
ARC
  8
_0-0_
  6
CONTINUOUS
 62
    7
 10
32.308320879850498
 20
10.51018105334407
 40
0.5
 50
90
 51
135.00000000000216
  0
LINE
  8
_0-0_
  6
CONTINUOUS
 62
    7
 10
32.308320879850498
 20
17.939827508972201
 11
34.9012140986639
 21
17.939827508972201
  0
ARC
  8
_0-0_
  6
CONTINUOUS
 62
    7
 10
32.308320879850498
 20
17.439827508972201
 40
0.5
 50
90
 51
135
  0
LINE
  8
_0-0_
  6
CONTINUOUS
 62
    7
 10
30.747660708070612
 20
16.586274118378867
 11
31.954767489257165
 21
17.79338089956542
  0
LINE
  8
_0-0_
  6
CONTINUOUS
 62
    7
 10
30.747660708070612
 20
9.6566276627507364
 11
31.954767489257165
 21
10.863734443937403
  0
ARC
  8
_0-0_
  6
CONTINUOUS
 62
    7
 10
31.101214098663831
 20
9.3030742721574029
 40
0.5
 50
135.0000000000023
 51
179.99999999999994
  0
LINE
  8
_0-0_
  6
CONTINUOUS
 62
    7
 10
30.747660708070612
 20
4.0933808995654886
 11
31.954767489257165
 21
2.8862741183789353
  0
ARC
  8
_0-0_
  6
CONTINUOUS
 62
    7
 10
31.101214098663831
 20
4.4469342901587083
 40
0.5
 50
180
 51
225.0000000000002
  0
LINE
  8
_0-0_
  6
CONTINUOUS
 62
    7
 10
30.747660708070612
 20
34.427361524001924
 11
31.954767489257165
 21
33.220254742815371
  0
LINE
  8
_0-0_
  6
CONTINUOUS
 62
    7
 10
30.747660708070612
 20
41.357007979630112
 11
31.954767489257165
 21
40.149901198443558
  0
ARC
  8
_0-0_
  6
CONTINUOUS
 62
    7
 10
31.101214098663831
 20
41.710561370223445
 40
0.5
 50
180
 51
224.99999999999898
  0
LINE
  8
_0-0_
  6
CONTINUOUS
 62
    7
 10
30.747660708070612
 20
46.920254742815359
 11
31.954767489257165
 21
48.127361524001913
  0
ARC
  8
_0-0_
  6
CONTINUOUS
 62
    7
 10
31.101214098663831
 20
46.56670135222214
 40
0.5
 50
134.9999999999998
 51
180
  0
LINE
  8
_0-0_
  6
CONTINUOUS
 62
    7
 10
30.601214098663831
 20
46.56670135222214
 11
30.601214098663831
 21
34.780914914595201
  0
ARC
  8
_0-0_
  6
CONTINUOUS
 62
    7
 10
31.101214098663831
 20
34.780914914595201
 40
0.5
 50
180
 51
225.0000000000002
  0
LINE
  8
_0-0_
  6
CONTINUOUS
 62
    7
 10
30.601214098663831
 20
4.4469342901587083
 11
30.601214098663831
 21
16.232720727785647
  0
ARC
  8
_0-0_
  6
CONTINUOUS
 62
    7
 10
31.101214098663831
 20
16.232720727785647
 40
0.5
 50
134.9999999999998
 51
180
  0
LINE
  8
_0-0_
  6
CONTINUOUS
 62
    7
 10
35.4012140986639
 20
17.439827508972201
 11
35.4012140986639
 21
9.1987942888826524
  0
LINE
  8
_0-0_
  6
CONTINUOUS
 62
    7
 10
60.169163291095856
 20
14.039827508982569
 11
36.4012140986639
 21
14.039827509059876
  0
ARC
  8
_0-0_
  6
CONTINUOUS
 62
    7
 10
60.169163291094264
 20
13.539827508982569
 40
0.5
 50
59.999999999999929
 51
89.999999999813511
  0
LINE
  8
_0-0_
  6
CONTINUOUS
 62
    7
 10
62.651214098663786
 20
12.684165076279498
 11
60.303137887310527
 21
14.039827508982114
  0
ARC
  8
_0-0_
  6
CONTINUOUS
 62
    7
 10
62.401214098663786
 20
12.251152374387232
 40
0.5
 50
0
 51
59.999999999999929
  0
LINE
  8
_0-0_
  6
CONTINUOUS
 62
    7
 10
60.169163291095401
 20
6.2398275089819322
 11
36.4012140986639
 21
6.2398275089488493
  0
ARC
  8
_0-0_
  6
CONTINUOUS
 62
    7
 10
60.169163291094719
 20
6.7398275089819322
 40
0.5
 50
270.00000000007975
 51
300.00000000000006
  0
LINE
  8
_0-0_
  6
CONTINUOUS
 62
    7
 10
62.651214098663786
 20
7.5954899416846615
 11
60.419163291094719
 21
6.3068148070896655
  0
LINE
  8
_0-0_
  6
CONTINUOUS
 62
    7
 10
62.901214098663786
 20
8.0285026435769282
 11
62.901214098663786
 21
12.251152374387232
  0
ARC
  8
_0-0_
  6
CONTINUOUS
 62
    7
 10
62.401214098663786
 20
8.0285026435769282
 40
0.5
 50
300
 51
0.0000000000000127
  0
LINE
  8
_0-1_
  6
CENTER1
 62
  152
 10
53.201214098663968
 20
16.439827508972201
 11
53.201214098663968
 21
4.2398275089721551
  0
LINE
  8
_0-1_
  6
DASHED2
 62
  152
 10
49.101214098663831
 20
6.7398275089664708
 11
48.601214098663149
 21
6.2398275089657886
  0
LINE
  8
_0-1_
  6
DASHED2
 62
  152
 10
49.101214098663831
 20
11.614956378577006
 11
49.101214098663831
 21
6.7398275089664708
  0
LINE
  8
_0-1_
  6
DASHED2
 62
  152
 10
53.201214098663968
 20
6.7398275089721551
 11
49.101214098663831
 21
6.7398275089664708
  0
LINE
  8
_0-1_
  6
DASHED2
 62
  152
 10
57.301214098663877
 20
6.7398275089664708
 11
57.801214098664559
 21
6.2398275089657886
  0
LINE
  8
_0-1_
  6
DASHED2
 62
  152
 10
57.301214098663877
 20
11.614956378577006
 11
57.301214098663877
 21
6.7398275089664708
  0
LINE
  8
_0-1_
  6
DASHED2
 62
  152
 10
57.301214098663877
 20
11.614956378577006
 11
53.201214098663968
 21
11.614956378577006
  0
LINE
  8
_0-1_
  6
DASHED2
 62
  152
 10
53.201214098663968
 20
6.7398275089721551
 11
57.301214098663877
 21
6.7398275089664708
  0
LINE
  8
_0-1_
  6
DASHED2
 62
  152
 10
47.701214098750597
 20
14.039827509023155
 11
49.101214098663831
 21
11.614956378577006
  0
LINE
  8
_0-1_
  6
DASHED2
 62
  152
 10
49.101214098663831
 20
11.614956378577006
 11
57.301214098663877
 21
11.614956378577006
  0
LINE
  8
_0-1_
  6
DASHED2
 62
  152
 10
58.701214098577111
 20
14.039827509023155
 11
57.301214098663877
 21
11.614956378577006
  0
LINE
  8
_0-1_
  6
CENTER1
 62
  152
 10
28.991943689683239
 20
40.67380813340867
 11
63.701214098750597
 21
40.67380813340867
  0
LINE
  8
_0-1_
  6
CENTER1
 62
  152
 10
53.201214098750597
 20
51.059034934540705
 11
53.201214098750597
 21
30.059034934540648
  0
ENDSEC
  0
EOF
