  0
SECTION
  2
HEADER
  9
$ACADVER
  1
AC1009
  9
$INSBASE
 10
0
 20
0
 30
0
  9
$EXTMIN
 10
0
 20
0
  9
$EXTMAX
 10
1189
 20
841
  9
$LIMMIN
 10
0
 20
0
  9
$LIMMAX
 10
1189
 20
841
  9
$LTSCALE
 40
1
  0
ENDSEC
  0
SECTION
  2
TABLES
  0
TABLE
  2
LTYPE
 70
     9
  0
LTYPE
  2
CONTINUOUS
 70
    64
  3
実線
 72
    65
 73
     0
 40
0.0
  0
LTYPE
  2
DASHED1
 70
    64
  3
--  --  --  --  --  --  --  --  
 72
    65
 73
     2
 40
2.5
 49
1.25
 49
-1.25
  0
LTYPE
  2
DASHED2
 70
    64
  3
----    ----    ----    ----    
 72
    65
 73
     2
 40
5.0
 49
2.5
 49
-2.5
  0
LTYPE
  2
DASHED3
 70
    64
  3
------  ------  ------  ------  
 72
    65
 73
     2
 40
5.0
 49
3.75
 49
-1.25
  0
LTYPE
  2
CENTER1
 70
    64
  3
----- - ----- - ----- - ----- - 
 72
    65
 73
     4
 40
10.0
 49
6.25
 49
-1.25
 49
1.25
 49
-1.25
  0
LTYPE
  2
CENTER2
 70
    64
  3
----------  --  ----------  --  
 72
    65
 73
     4
 40
20.0
 49
12.5
 49
-2.5
 49
2.5
 49
-2.5
  0
LTYPE
  2
PHANTOM1
 70
    64
  3
--- - - --- - - --- - - --- - - 
 72
    65
 73
     6
 40
10.0
 49
3.25
 49
-1.25
 49
1.25
 49
-1.25
 49
1.25
 49
-1.25
  0
LTYPE
  2
PHANTOM2
 70
    64
  3
--------  -  -  --------  -  -  
 72
    65
 73
     6
 40
20.0
 49
10.0
 49
-2.5
 49
1.25
 49
-2.5
 49
1.25
 49
-2.5
  0
LTYPE
  2
DOT
 70
    64
  3
-   -   -   -   -   -   -   -   
 72
    65
 73
     2
 40
2.5
 49
0.625
 49
-1.875
  0
LTYPE
  2
DUMMY
 70
    64
  3
ダミー
 72
    65
 73
     0
 40
0.0
  0
LTYPE
  2
RAND1
 70
    64
  3
ランダム線1
 72
    65
 73
     4
 40
10.0
 49
1.0
 49
-2.0
 49
3.0
 49
-4.0
  0
LTYPE
  2
RAND2
 70
    64
  3
ランダム線2
 72
    65
 73
     4
 40
14.0
 49
2.0
 49
-3.0
 49
4.0
 49
-5.0
  0
LTYPE
  2
RAND3
 70
    64
  3
ランダム線3
 72
    65
 73
     4
 40
18.0
 49
3.0
 49
-4.0
 49
5.0
 49
-6.0
  0
LTYPE
  2
RAND4
 70
    64
  3
ランダム線4
 72
    65
 73
     4
 40
22.0
 49
4.0
 49
-5.0
 49
6.0
 49
-7.0
  0
LTYPE
  2
RAND5
 70
    64
  3
ランダム線5
 72
    65
 73
     4
 40
26.0
 49
5.0
 49
-6.0
 49
7.0
 49
-8.0
  0
LTYPE
  2
LONG1
 70
    64
  3
----------  --  ----------  --  
 72
    65
 73
     4
 40
40.0
 49
32.5
 49
-2.5
 49
2.5
 49
-2.5
  0
LTYPE
  2
LONG2
 70
    64
  3
--------  -  -  --------  -  -  
 72
    65
 73
     6
 40
40.0
 49
30.0
 49
-2.5
 49
1.25
 49
-2.5
 49
1.25
 49
-2.5
  0
LTYPE
  2
LONG3
 70
    64
  3
+++++++++++++++..+++++++++++++++
 72
    65
 73
     2
 40
40.0
 49
37.5
 49
-2.5
  0
LTYPE
  2
LONG4
 70
    64
  3
+++++++++++++++..+++++++++++++++
 72
    65
 73
     2
 40
80.0
 49
75.0
 49
-5.0
  0
LTYPE
  2
LONG5
 70
    64
  3
----------  --  ----------  --  
 72
    65
 73
     4
 40
60.0
 49
37.5
 49
-7.5
 49
7.5
 49
-7.5
  0
LTYPE
  2
dashed
 70
   64
  3
-------   -------------   ------
 72
   65
 73
    2
 40
7.5
 49
6
 49
-1.5
  0
LTYPE
  2
dashed_spaced
 70
   64
  3
----        --------        ----
 72
   65
 73
    2
 40
12
 49
6
 49
-6
  0
LTYPE
  2
long_dashed_dotted
 70
   64
  3
------------- --- --------------
 72
   65
 73
    4
 40
15.25
 49
12
 49
-1.5
 49
0.25
 49
-1.5
  0
LTYPE
  2
long_dashed_double-dotted
 70
   64
  3
----------- --- --- ------------
 72
   65
 73
    6
 40
17
 49
12
 49
-1.5
 49
0.25
 49
-1.5
 49
0.25
 49
-1.5
  0
LTYPE
  2
long_dashed_triplicate-dotted
 70
   64
  3
--------- --- --- --- ----------
 72
   65
 73
    8
 40
18.75
 49
12
 49
-1.5
 49
0.25
 49
-1.5
 49
0.25
 49
-1.5
 49
0.25
 49
-1.5
  0
LTYPE
  2
dotted
 70
   64
  3
   -       -       -       -    
 72
   65
 73
    2
 40
1.75
 49
0.25
 49
-1.5
  0
LTYPE
  2
chain
 70
   64
  3
-------------- -- --------------
 72
   65
 73
    4
 40
18.5
 49
12
 49
-1.5
 49
3.5
 49
-1.5
  0
LTYPE
  2
chain_double_dash
 70
   64
  3
------------ -- -- -------------
 72
   65
 73
    6
 40
23.5
 49
12
 49
-1.5
 49
3.5
 49
-1.5
 49
3.5
 49
-1.5
  0
LTYPE
  2
dashed_dotted
 70
   64
  3
-----------     -     ----------
 72
   65
 73
    4
 40
9.25
 49
6
 49
-1.5
 49
0.25
 49
-1.5
  0
LTYPE
  2
double-dashed_dotted
 70
   64
  3
------   -----------   -   -----
 72
   65
 73
    6
 40
16.75
 49
6
 49
-1.5
 49
6
 49
-1.5
 49
0.25
 49
-1.5
  0
LTYPE
  2
dashed_double-dotted
 70
   64
  3
---------    -    -    ---------
 72
   65
 73
    6
 40
11
 49
6
 49
-1.5
 49
0.25
 49
-1.5
 49
0.25
 49
-1.5
  0
LTYPE
  2
double-dashed_double-dotted
 70
   64
  3
-----   ---------   -   -   ----
 72
   65
 73
    8
 40
18.5
 49
6
 49
-1.5
 49
6
 49
-1.5
 49
0.25
 49
-1.5
 49
0.25
 49
-1.5
  0
LTYPE
  2
dashed_triplicate-dotted
 70
   64
  3
-------    -    -    -    ------
 72
   65
 73
    8
 40
12.75
 49
6
 49
-1.5
 49
0.25
 49
-1.5
 49
0.25
 49
-1.5
 49
0.25
 49
-1.5
  0
LTYPE
  2
double-dashed_triplicate-dotted
 70
   64
  3
-----  ---------  -  -  -  -----
 72
   65
 73
   10
 40
20.25
 49
6
 49
-1.5
 49
6
 49
-1.5
 49
0.25
 49
-1.5
 49
0.25
 49
-1.5
 49
0.25
 49
-1.5
  0
LTYPE
  2
undefined
 70
   64
  3
--------------------------------
 72
   65
 73
    0
 40
0
  0
ENDTAB
  0
TABLE
  2
STYLE
  5
3
100
AcDbSymbolTable
 70
     1
  0
STYLE
  5
10
100
AcDbSymbolTableRecord
100
AcDbTextStyleTableRecord
  2
STANDARD
 70
     0
 40
0.0
 41
1.0
 50
0.0
 71
     0
 42
0.2
  3
txt
  4
bigfont.shx
  0
STYLE
  5
26
100
AcDbSymbolTableRecord
100
AcDbTextStyleTableRecord
  2
TATEGAKI
 70
    68
 40
0.0
 41
1.0
 50
0.0
 71
     0
 42
1.0
  3
txt
  4
bigfont.shx
  0
ENDTAB
  0
TABLE
  2
LAYER
 70
    4
  0
LAYER
  2
_0-0_
 70
   64
 62
    7
  6
CONTINUOUS
  0
LAYER
  2
_0-1_
 70
   64
 62
    7
  6
CONTINUOUS
  0
LAYER
  2
_0-f_
 70
   64
 62
    7
  6
CONTINUOUS
  0
LAYER
  2
ADD_LINE
 70
   64
 62
    7
  6
CONTINUOUS
  0
ENDTAB
  0
ENDSEC
  0
SECTION
  2
BLOCKS
  0
ENDSEC
  0
SECTION
  2
ENTITIES
  0
TEXT
  8
_0-f_
 62
    7
 10
1.4260411807349556
 20
1.3698636324813265
 40
4.2999999999999998
 41
0.744186046511628
 50
0
  1
TL4F
  0
LINE
  8
_0-0_
  6
CONTINUOUS
 62
    7
 10
42.064831448863515
 20
46.25516665773057
 11
45.064831448863515
 21
46.25516665773057
  0
LINE
  8
_0-0_
  6
CONTINUOUS
 62
    7
 10
45.564831448863515
 20
45.75516665773057
 11
45.564831448863515
 21
31.755166657731024
  0
LINE
  8
_0-0_
  6
CONTINUOUS
 62
    7
 10
45.064831448863515
 20
31.255166657731024
 11
42.064831448863515
 21
31.255166657731024
  0
LINE
  8
_0-0_
  6
CONTINUOUS
 62
    7
 10
42.064831448863515
 20
31.255166657731024
 11
40.564831448863515
 21
32.755166657731024
  0
LINE
  8
_0-0_
  6
CONTINUOUS
 62
    7
 10
40.564831448863515
 20
32.755166657731024
 11
40.564831448863515
 21
44.75516665773057
  0
LINE
  8
_0-0_
  6
CONTINUOUS
 62
    7
 10
40.564831448863515
 20
44.75516665773057
 11
42.064831448863515
 21
46.25516665773057
  0
LINE
  8
_0-0_
  6
CONTINUOUS
 62
    7
 10
42.064831448863515
 20
46.25516665773057
 11
42.064831448863515
 21
31.255166657731024
  0
LINE
  8
_0-0_
  6
CONTINUOUS
 62
    7
 10
45.564831448863515
 20
33.155166657731115
 11
46.264831448863788
 21
33.855166657730933
  0
LINE
  8
_0-0_
  6
CONTINUOUS
 62
    7
 10
46.264831448863788
 20
33.855166657730933
 11
50.564831448863515
 21
33.855166657730933
  0
LINE
  8
_0-0_
  6
CONTINUOUS
 62
    7
 10
50.564831448863515
 20
33.855166657730933
 11
53.164831448863424
 21
31.255166657731024
  0
LINE
  8
_0-0_
  6
CONTINUOUS
 62
    7
 10
53.164831448863424
 20
31.255166657731024
 11
71.564831448863515
 21
31.255166657731024
  0
LINE
  8
_0-0_
  6
CONTINUOUS
 62
    7
 10
73.564831448863515
 20
33.255166657731024
 11
73.564831448863515
 21
44.25516665773057
  0
LINE
  8
_0-0_
  6
CONTINUOUS
 62
    7
 10
71.564831448863515
 20
46.25516665773057
 11
53.164831448863424
 21
46.25516665773057
  0
LINE
  8
_0-0_
  6
CONTINUOUS
 62
    7
 10
53.164831448863424
 20
46.25516665773057
 11
50.564831448863515
 21
43.655166657730661
  0
LINE
  8
_0-0_
  6
CONTINUOUS
 62
    7
 10
50.564831448863515
 20
43.655166657730661
 11
46.264831448863788
 21
43.655166657730661
  0
LINE
  8
_0-0_
  6
CONTINUOUS
 62
    7
 10
46.264831448863788
 20
43.655166657730661
 11
45.564831448863515
 21
44.355166657730933
  0
LINE
  8
_0-0_
  6
CONTINUOUS
 62
    7
 10
47.464831448863606
 20
43.655166657730661
 11
47.464831448863606
 21
33.855166657730933
  0
LINE
  8
_0-0_
  6
CONTINUOUS
 62
    7
 10
51.676669676532129
 20
34.592666657730661
 11
51.676669676532129
 21
42.917666657730479
  0
LINE
  8
_0-0_
  6
CONTINUOUS
 62
    7
 10
52.014169676532219
 20
43.255166657731024
 11
54.53916967653231
 21
43.255166657731024
  0
LINE
  8
_0-0_
  6
CONTINUOUS
 62
    7
 10
54.876669676532401
 20
42.917666657730479
 11
54.876669676531947
 21
34.592666657730661
  0
LINE
  8
_0-0_
  6
CONTINUOUS
 62
    7
 10
54.53916967653231
 20
34.255166657731024
 11
52.014169676532219
 21
34.255166657731024
  0
LINE
  8
_0-0_
  6
CONTINUOUS
 62
    7
 10
52.094100630180947
 20
34.856672831794185
 11
52.094100630180947
 21
35.429416551244231
  0
LINE
  8
_0-0_
  6
CONTINUOUS
 62
    7
 10
52.094100630180947
 20
35.429416551244231
 11
53.981404349228342
 21
35.429416551244231
  0
LINE
  8
_0-0_
  6
CONTINUOUS
 62
    7
 10
53.981404349228342
 20
35.429416551244231
 11
53.981404349228342
 21
36.464683455147679
  0
LINE
  8
_0-0_
  6
CONTINUOUS
 62
    7
 10
53.981404349228342
 20
36.464683455147679
 11
54.390857028105984
 21
36.464683455147679
  0
LINE
  8
_0-0_
  6
CONTINUOUS
 62
    7
 10
54.390857028105984
 20
36.464683455147679
 11
54.390857028105984
 21
34.856672831794185
  0
LINE
  8
_0-0_
  6
CONTINUOUS
 62
    7
 10
54.390857028105984
 20
34.856672831794185
 11
52.094100630180947
 21
34.856672831794185
  0
LINE
  8
_0-0_
  6
CONTINUOUS
 62
    7
 10
52.094100630180947
 20
36.906579299597979
 11
52.094100630180947
 21
38.515008440085694
  0
LINE
  8
_0-0_
  6
CONTINUOUS
 62
    7
 10
52.094100630180947
 20
38.515008440085694
 11
52.503553309026302
 21
38.515008440085694
  0
LINE
  8
_0-0_
  6
CONTINUOUS
 62
    7
 10
52.503553309026302
 20
38.515008440085694
 11
52.503553309026302
 21
37.477291895718281
  0
LINE
  8
_0-0_
  6
CONTINUOUS
 62
    7
 10
52.503553309026302
 20
37.477291895718281
 11
53.036178162207307
 21
37.477291895718281
  0
LINE
  8
_0-0_
  6
CONTINUOUS
 62
    7
 10
53.036178162207307
 20
37.477291895718281
 11
53.036178162207307
 21
38.416052280068016
  0
LINE
  8
_0-0_
  6
CONTINUOUS
 62
    7
 10
53.036178162207307
 20
38.416052280068016
 11
53.420535624934928
 21
38.416052280068016
  0
LINE
  8
_0-0_
  6
CONTINUOUS
 62
    7
 10
53.420535624934928
 20
38.416052280068016
 11
53.420535624934928
 21
37.477291895718281
  0
LINE
  8
_0-0_
  6
CONTINUOUS
 62
    7
 10
53.420535624934928
 20
37.477291895718281
 11
53.981404349228342
 21
37.477291895718281
  0
LINE
  8
_0-0_
  6
CONTINUOUS
 62
    7
 10
53.981404349228342
 20
37.477291895718281
 11
53.981404349228342
 21
38.515008440085694
  0
LINE
  8
_0-0_
  6
CONTINUOUS
 62
    7
 10
53.981404349228342
 20
38.515008440085694
 11
54.390857028105984
 21
38.515008440085694
  0
LINE
  8
_0-0_
  6
CONTINUOUS
 62
    7
 10
54.390857028105984
 20
38.515008440085694
 11
54.390857028105984
 21
36.906579299597979
  0
LINE
  8
_0-0_
  6
CONTINUOUS
 62
    7
 10
54.390857028105984
 20
36.906579299597979
 11
52.094100630180947
 21
36.906579299597979
  0
LINE
  8
_0-0_
  6
CONTINUOUS
 62
    7
 10
52.780029112516331
 20
39.981380731128866
 11
52.780029112516331
 21
40.566493958032879
  0
LINE
  8
_0-0_
  6
CONTINUOUS
 62
    7
 10
53.607647310061111
 20
40.581590891484666
 11
53.607647310061111
 21
39.984227810339689
  0
LINE
  8
_0-0_
  6
CONTINUOUS
 62
    7
 10
60.766755237510097
 20
42.055166657730751
 11
65.962907660216842
 21
42.055166657730751
  0
LINE
  8
_0-0_
  6
CONTINUOUS
 62
    7
 10
65.962907660216842
 20
35.455166657730842
 11
60.766755237510097
 21
35.455166657730842
  0
LINE
  8
_0-0_
  6
CONTINUOUS
 62
    7
 10
42.064831448863515
 20
17.255176657730772
 11
45.064831448863515
 21
17.255176657730772
  0
LINE
  8
_0-0_
  6
CONTINUOUS
 62
    7
 10
45.564831448863515
 20
16.755176657730772
 11
45.564831448863515
 21
2.7551766577308854
  0
LINE
  8
_0-0_
  6
CONTINUOUS
 62
    7
 10
45.064831448863515
 20
2.2551766577308854
 11
42.064831448863515
 21
2.2551766577308854
  0
LINE
  8
_0-0_
  6
CONTINUOUS
 62
    7
 10
42.064831448863515
 20
2.2551766577308854
 11
40.564831448863515
 21
3.7551766577308854
  0
LINE
  8
_0-0_
  6
CONTINUOUS
 62
    7
 10
40.564831448863515
 20
3.7551766577308854
 11
40.564831448863515
 21
15.755176657730772
  0
LINE
  8
_0-0_
  6
CONTINUOUS
 62
    7
 10
40.564831448863515
 20
15.755176657730772
 11
42.064831448863515
 21
17.255176657730772
  0
LINE
  8
_0-0_
  6
CONTINUOUS
 62
    7
 10
42.064831448863515
 20
17.255176657730772
 11
42.064831448863515
 21
2.2551766577308854
  0
LINE
  8
_0-0_
  6
CONTINUOUS
 62
    7
 10
45.564831448863515
 20
4.1551766577309763
 11
47.064831448863515
 21
5.655176657730749
  0
LINE
  8
_0-0_
  6
CONTINUOUS
 62
    7
 10
70.864831448863697
 20
5.655176657730749
 11
69.164831448863424
 21
3.9551766577309309
  0
LINE
  8
_0-0_
  6
CONTINUOUS
 62
    7
 10
68.957724667677212
 20
3.9551766577309309
 11
57.771938230050182
 21
3.9551766577309309
  0
LINE
  8
_0-0_
  6
CONTINUOUS
 62
    7
 10
57.564831448863515
 20
3.9551766577309309
 11
55.864831448863697
 21
5.655176657730749
  0
LINE
  8
_0-0_
  6
CONTINUOUS
 62
    7
 10
53.164831448863424
 20
5.655176657730749
 11
53.164831448863424
 21
13.455176657731045
  0
LINE
  8
_0-0_
  6
CONTINUOUS
 62
    7
 10
50.564831448863515
 20
13.455176657731045
 11
50.564831448863515
 21
5.655176657730749
  0
LINE
  8
_0-0_
  6
CONTINUOUS
 62
    7
 10
46.264831448863788
 20
4.8551766577307944
 11
46.264831448863788
 21
14.655176657730863
  0
LINE
  8
_0-0_
  6
CONTINUOUS
 62
    7
 10
45.564831448863515
 20
15.355176657730681
 11
47.464831448863606
 21
13.455176657731045
  0
LINE
  8
_0-0_
  6
CONTINUOUS
 62
    7
 10
47.464831448863606
 20
13.455176657731045
 11
72.564831448863515
 21
13.455176657731045
  0
LINE
  8
_0-0_
  6
CONTINUOUS
 62
    7
 10
73.564831448863515
 20
12.455176657731045
 11
73.564831448863515
 21
6.655176657730749
  0
CIRCLE
  8
_0-0_
  6
CONTINUOUS
 62
    7
 10
63.364831448863697
 20
38.75516665773057
 40
5.5
  0
ARC
  8
_0-0_
  6
CONTINUOUS
 62
    7
 10
45.064831448863515
 20
45.75516665773057
 40
0.5
 50
0
 51
90.000000000000028
  0
ARC
  8
_0-0_
  6
CONTINUOUS
 62
    7
 10
45.064831448863515
 20
31.755166657731024
 40
0.5
 50
270
 51
0
  0
ARC
  8
_0-0_
  6
CONTINUOUS
 62
    7
 10
71.564831448863515
 20
44.25516665773057
 40
2
 50
0
 51
90.000000000000028
  0
ARC
  8
_0-0_
  6
CONTINUOUS
 62
    7
 10
71.564831448863515
 20
33.255166657731024
 40
2
 50
270
 51
0
  0
CIRCLE
  8
_0-0_
  6
CONTINUOUS
 62
    7
 10
63.364831448863697
 20
38.75516665773057
 40
4.2000000000000002
  0
ARC
  8
_0-0_
  6
CONTINUOUS
 62
    7
 10
53.841711366597792
 20
41.783479323281881
 40
0.1865958597230807
 50
288.78093483258857
 51
71.219065167411443
  0
ARC
  8
_0-0_
  6
CONTINUOUS
 62
    7
 10
53.841711366597792
 20
39.770525485748749
 40
0.1865958597230807
 50
288.78093483258857
 51
71.219065167411443
  0
ARC
  8
_0-0_
  6
CONTINUOUS
 62
    7
 10
52.719180947926361
 20
41.909401928391617
 40
0.6437013371309403
 50
109.11812031409383
 51
163.77089632225113
  0
ARC
  8
_0-0_
  6
CONTINUOUS
 62
    7
 10
52.719180947926361
 20
41.657556718172145
 40
0.6437013371309403
 50
196.2291036777489
 51
250.8818796859062
  0
ARC
  8
_0-0_
  6
CONTINUOUS
 62
    7
 10
53.303615613596321
 20
41.783479323281881
 40
1.2407658389583818
 50
165.73070722357707
 51
194.2692927764229
  0
ARC
  8
_0-0_
  6
CONTINUOUS
 62
    7
 10
52.859121895141016
 20
40.955244655851402
 40
1.0420957322474584
 50
89.280775692594872
 51
105.35525825784568
  0
ARC
  8
_0-0_
  6
CONTINUOUS
 62
    7
 10
52.643246291689593
 20
41.783479323281881
 40
0.1865958597230807
 50
108.78093483258858
 51
251.21906516741137
  0
ARC
  8
_0-0_
  6
CONTINUOUS
 62
    7
 10
52.859121895141016
 20
42.611713990711905
 40
1.0420957322474584
 50
254.64474174215434
 51
270.71922430740511
  0
ARC
  8
_0-0_
  6
CONTINUOUS
 62
    7
 10
53.62583576314637
 20
42.611713990711905
 40
1.0420957322474584
 50
269.28077569259489
 51
285.35525825784566
  0
ARC
  8
_0-0_
  6
CONTINUOUS
 62
    7
 10
53.62583576314637
 20
40.955244655851402
 40
1.0420957322474584
 50
74.644741742154324
 51
90.719224307405128
  0
ARC
  8
_0-0_
  6
CONTINUOUS
 62
    7
 10
53.242478829143693
 20
39.920503718899909
 40
2.6988596375595528
 50
74.216002475892964
 51
105.78399752410705
  0
ARC
  8
_0-0_
  6
CONTINUOUS
 62
    7
 10
53.765776710360569
 20
41.657556718172145
 40
0.6437013371309403
 50
289.11812031409386
 51
343.77089632225113
  0
ARC
  8
_0-0_
  6
CONTINUOUS
 62
    7
 10
53.765776710360569
 20
41.909401928391617
 40
0.6437013371309403
 50
16.229103677748924
 51
70.881879685906199
  0
ARC
  8
_0-0_
  6
CONTINUOUS
 62
    7
 10
53.181342044690609
 20
41.783479323281881
 40
1.2407658389583818
 50
345.7307072235771
 51
14.269292776422915
  0
ARC
  8
_0-0_
  6
CONTINUOUS
 62
    7
 10
53.24247882914824
 20
35.15368679618723
 40
6.8543313185373709
 50
86.789190081972663
 51
93.210809918027337
  0
ARC
  8
_0-0_
  6
CONTINUOUS
 62
    7
 10
53.24247882914824
 20
48.413271850376077
 40
6.8543313185373709
 50
266.78919008197266
 51
273.21080991802734
  0
ARC
  8
_0-0_
  6
CONTINUOUS
 62
    7
 10
53.242478829143693
 20
43.646454927663854
 40
2.6988596375595528
 50
254.21600247589294
 51
285.78399752410706
  0
ARC
  8
_0-0_
  6
CONTINUOUS
 62
    7
 10
52.719180947926361
 20
39.644602880638558
 40
0.6437013371309403
 50
196.2291036777489
 51
250.8818796859062
  0
ARC
  8
_0-0_
  6
CONTINUOUS
 62
    7
 10
53.303615613596321
 20
39.770525485748749
 40
1.2407658389583818
 50
165.73070722357707
 51
194.2692927764229
  0
ARC
  8
_0-0_
  6
CONTINUOUS
 62
    7
 10
53.242478829143693
 20
37.907549881366776
 40
2.6988596375595528
 50
99.866322719820872
 51
105.78399752410704
  0
ARC
  8
_0-0_
  6
CONTINUOUS
 62
    7
 10
52.719180947926361
 20
39.89644809085803
 40
0.6437013371309403
 50
109.11812031409383
 51
163.77089632225113
  0
ARC
  8
_0-0_
  6
CONTINUOUS
 62
    7
 10
52.859121895141016
 20
38.94229081831827
 40
1.0420957322474584
 50
94.352810002800908
 51
105.35525825784568
  0
ARC
  8
_0-0_
  6
CONTINUOUS
 62
    7
 10
52.859121895141016
 20
40.598760153178773
 40
1.0420957322474584
 50
254.64474174215434
 51
270.71922430740511
  0
ARC
  8
_0-0_
  6
CONTINUOUS
 62
    7
 10
52.643246291689593
 20
39.770525485748749
 40
0.1865958597230807
 50
108.78093483258858
 51
251.21906516741137
  0
ARC
  8
_0-0_
  6
CONTINUOUS
 62
    7
 10
53.62583576314637
 20
40.598760153178773
 40
1.0420957322474584
 50
269.28077569259489
 51
285.35525825784566
  0
ARC
  8
_0-0_
  6
CONTINUOUS
 62
    7
 10
53.625835763145915
 20
38.94229081831827
 40
1.0420957322474584
 50
74.644741742154324
 51
91.000075600874936
  0
ARC
  8
_0-0_
  6
CONTINUOUS
 62
    7
 10
53.242478829143693
 20
37.907549881366776
 40
2.6988596375595528
 50
74.216002475892964
 51
82.223758552801954
  0
ARC
  8
_0-0_
  6
CONTINUOUS
 62
    7
 10
53.765776710360569
 20
39.89644809085803
 40
0.6437013371309403
 50
16.229103677748924
 51
70.881879685906199
  0
ARC
  8
_0-0_
  6
CONTINUOUS
 62
    7
 10
53.181342044690609
 20
39.770525485748749
 40
1.2407658389583818
 50
345.7307072235771
 51
14.269292776422915
  0
ARC
  8
_0-0_
  6
CONTINUOUS
 62
    7
 10
53.765776710360569
 20
39.644602880638558
 40
0.6437013371309403
 50
289.11812031409386
 51
343.77089632225113
  0
ARC
  8
_0-0_
  6
CONTINUOUS
 62
    7
 10
53.24247882914824
 20
46.400318012842945
 40
6.8543313185373709
 50
266.78919008197266
 51
273.21080991802734
  0
ARC
  8
_0-0_
  6
CONTINUOUS
 62
    7
 10
53.242478829143693
 20
41.633501090130267
 40
2.6988596375595528
 50
254.21600247589294
 51
285.78399752410706
  0
ARC
  8
_0-0_
  6
CONTINUOUS
 62
    7
 10
52.014169676532219
 20
42.917666657730479
 40
0.3375
 50
90
 51
180
  0
ARC
  8
_0-0_
  6
CONTINUOUS
 62
    7
 10
52.014169676532219
 20
34.592666657730661
 40
0.3375
 50
180
 51
270
  0
ARC
  8
_0-0_
  6
CONTINUOUS
 62
    7
 10
54.53916967653231
 20
42.917666657730479
 40
0.3375
 50
0
 51
90
  0
ARC
  8
_0-0_
  6
CONTINUOUS
 62
    7
 10
54.53916967653231
 20
34.592666657730661
 40
0.3375
 50
270
 51
0
  0
ARC
  8
_0-0_
  6
CONTINUOUS
 62
    7
 10
45.064831448863515
 20
16.755176657730772
 40
0.5
 50
0
 51
90.000000000000028
  0
ARC
  8
_0-0_
  6
CONTINUOUS
 62
    7
 10
45.064831448863515
 20
2.7551766577308854
 40
0.5
 50
270
 51
0
  0
ARC
  8
_0-0_
  6
CONTINUOUS
 62
    7
 10
72.564831448863515
 20
12.455176657731045
 40
1
 50
0
 51
90.000000000000028
  0
ARC
  8
_0-0_
  6
CONTINUOUS
 62
    7
 10
72.564831448863515
 20
6.655176657730749
 40
1
 50
270
 51
0
  0
ARC
  8
_0-0_
  6
CONTINUOUS
 62
    7
 10
57.771938230050182
 20
4.4551766577309309
 40
0.5
 50
225.00000000000037
 51
270
  0
ARC
  8
_0-0_
  6
CONTINUOUS
 62
    7
 10
68.957724667677212
 20
4.4551766577309309
 40
0.5
 50
270
 51
314.99999999999966
  0
LINE
  8
_0-0_
  6
CONTINUOUS
 62
    7
 10
47.064831448863515
 20
5.655176657730749
 11
55.864831448863697
 21
5.655176657730749
  0
LINE
  8
_0-0_
  6
CONTINUOUS
 62
    7
 10
70.864831448863697
 20
5.655176657730749
 11
72.564831448863515
 21
5.655176657730749
  0
ARC
  8
_0-0_
  6
CONTINUOUS
 62
    7
 10
91.856935900889596
 20
45.755166657730456
 40
0.5
 50
90
 51
180
  0
ARC
  8
_0-0_
  6
CONTINUOUS
 62
    7
 10
99.656935900889778
 20
42.666491523135733
 40
0.5
 50
119.99999999999997
 51
180.00000000000003
  0
LINE
  8
_0-0_
  6
CONTINUOUS
 62
    7
 10
99.156935900889778
 20
34.843841792325406
 11
99.156935900889778
 21
42.666491523135733
  0
ARC
  8
_0-0_
  6
CONTINUOUS
 62
    7
 10
99.656935900889778
 20
34.843841792325406
 40
0.5
 50
180
 51
239.99999999999994
  0
LINE
  8
_0-0_
  6
CONTINUOUS
 62
    7
 10
91.356935900889596
 20
31.75516665773057
 11
91.356935900889596
 21
45.755166657730456
  0
ARC
  8
_0-0_
  6
CONTINUOUS
 62
    7
 10
91.856935900889596
 20
31.75516665773057
 40
0.5
 50
180
 51
270
  0
LINE
  8
_0-0_
  6
CONTINUOUS
 62
    7
 10
100.3569359008896
 20
31.25516665773057
 11
91.856935900889596
 21
31.25516665773057
  0
ARC
  8
_0-0_
  6
CONTINUOUS
 62
    7
 10
100.3569359008896
 20
31.75516665773057
 40
0.5
 50
270
 51
0
  0
LINE
  8
_0-0_
  6
CONTINUOUS
 62
    7
 10
100.8569359008896
 20
33.284996065513383
 11
100.8569359008896
 21
31.75516665773057
  0
LINE
  8
_0-0_
  6
CONTINUOUS
 62
    7
 10
100.6069359008896
 20
33.718008767405649
 11
99.406935900889778
 21
34.41082909043314
  0
ARC
  8
_0-0_
  6
CONTINUOUS
 62
    7
 10
100.3569359008896
 20
33.284996065513383
 40
0.5
 50
0
 51
59.999999999997797
  0
LINE
  8
_0-0_
  6
CONTINUOUS
 62
    7
 10
100.6069359008896
 20
43.79232454805549
 11
99.406935900889778
 21
43.099504225027999
  0
ARC
  8
_0-0_
  6
CONTINUOUS
 62
    7
 10
100.3569359008896
 20
44.225337249947643
 40
0.5
 50
299.99999999999983
 51
0
  0
LINE
  8
_0-0_
  6
CONTINUOUS
 62
    7
 10
100.8569359008896
 20
45.755166657730456
 11
100.8569359008896
 21
44.225337249947643
  0
LINE
  8
_0-0_
  6
CONTINUOUS
 62
    7
 10
100.3569359008896
 20
46.255166657730456
 11
91.856935900889596
 21
46.255166657730456
  0
ARC
  8
_0-0_
  6
CONTINUOUS
 62
    7
 10
100.3569359008896
 20
45.755166657730456
 40
0.5
 50
0
 51
90
  0
LINE
  8
_0-0_
  6
CONTINUOUS
 62
    7
 10
15.561848103187344
 20
44.75516665773057
 11
3.5618481031873443
 21
44.75516665773057
  0
LINE
  8
_0-0_
  6
CONTINUOUS
 62
    7
 10
15.561848103187344
 20
44.75516665773057
 11
15.561848103187344
 21
32.75516665773057
  0
LINE
  8
_0-0_
  6
CONTINUOUS
 62
    7
 10
15.561848103187344
 20
32.75516665773057
 11
3.5618481031873443
 21
32.75516665773057
  0
LINE
  8
_0-0_
  6
CONTINUOUS
 62
    7
 10
3.5618481031873443
 20
44.75516665773057
 11
3.5618481031873443
 21
32.75516665773057
  0
ARC
  8
_0-0_
  6
CONTINUOUS
 62
    7
 10
3.0618481031873443
 20
45.25516665773057
 40
1
 50
90
 51
180
  0
LINE
  8
_0-0_
  6
CONTINUOUS
 62
    7
 10
16.061848103187344
 20
46.25516665773057
 11
3.0618481031873443
 21
46.25516665773057
  0
ARC
  8
_0-0_
  6
CONTINUOUS
 62
    7
 10
16.061848103187344
 20
45.25516665773057
 40
1
 50
0
 51
90.000000000000028
  0
LINE
  8
_0-0_
  6
CONTINUOUS
 62
    7
 10
17.061848103187344
 20
32.25516665773057
 11
17.061848103187344
 21
45.25516665773057
  0
ARC
  8
_0-0_
  6
CONTINUOUS
 62
    7
 10
16.061848103187344
 20
32.25516665773057
 40
1
 50
270
 51
0
  0
LINE
  8
_0-0_
  6
CONTINUOUS
 62
    7
 10
2.0618481031873443
 20
32.25516665773057
 11
2.0618481031873443
 21
45.25516665773057
  0
LINE
  8
_0-0_
  6
CONTINUOUS
 62
    7
 10
3.0618481031873443
 20
31.25516665773057
 11
16.061848103187344
 21
31.25516665773057
  0
ARC
  8
_0-0_
  6
CONTINUOUS
 62
    7
 10
3.0618481031873443
 20
32.25516665773057
 40
1
 50
180
 51
270
  0
LINE
  8
_0-0_
  6
CONTINUOUS
 62
    7
 10
3.5618481031873443
 20
44.75516665773057
 11
2.3547413220006774
 21
45.962273438917123
  0
LINE
  8
_0-0_
  6
CONTINUOUS
 62
    7
 10
15.561848103187344
 20
44.75516665773057
 11
16.768954884373898
 21
45.962273438917123
  0
LINE
  8
_0-0_
  6
CONTINUOUS
 62
    7
 10
3.5618481031873443
 20
32.75516665773057
 11
2.3547413220006774
 21
31.548059876544016
  0
LINE
  8
_0-0_
  6
CONTINUOUS
 62
    7
 10
15.561848103187344
 20
32.75516665773057
 11
16.768954884373898
 21
31.548059876544016
  0
LINE
  8
_0-1_
  6
DASHED2
 62
  152
 10
59.264831448863788
 20
6.1551666577253172
 11
58.764831448863333
 21
5.6551666577246351
  0
LINE
  8
_0-1_
  6
DASHED2
 62
  152
 10
59.264831448863788
 20
11.030295527335852
 11
59.264831448863788
 21
6.1551666577253172
  0
LINE
  8
_0-1_
  6
DASHED2
 62
  152
 10
63.364831448863697
 20
6.1551666577310016
 11
59.264831448863788
 21
6.1551666577253172
  0
LINE
  8
_0-1_
  6
DASHED2
 62
  152
 10
67.464831448864061
 20
6.1551666577253172
 11
67.964831448864516
 21
5.6551666577246351
  0
LINE
  8
_0-1_
  6
DASHED2
 62
  152
 10
67.464831448864061
 20
11.030295527335852
 11
67.464831448864061
 21
6.1551666577253172
  0
LINE
  8
_0-1_
  6
DASHED2
 62
  152
 10
67.464831448864061
 20
11.030295527335852
 11
63.364831448863697
 21
11.030295527335852
  0
LINE
  8
_0-1_
  6
DASHED2
 62
  152
 10
63.364831448863697
 20
6.1551666577310016
 11
67.464831448864061
 21
6.1551666577253172
  0
LINE
  8
_0-1_
  6
DASHED2
 62
  152
 10
57.864831448950554
 20
13.455166657781888
 11
59.264831448863788
 21
11.030295527335852
  0
LINE
  8
_0-1_
  6
DASHED2
 62
  152
 10
59.264831448863788
 20
11.030295527335852
 11
67.464831448864061
 21
11.030295527335852
  0
LINE
  8
_0-1_
  6
DASHED2
 62
  152
 10
55.864831448863697
 20
5.6551766577309763
 11
70.864831448863697
 21
5.6551766577309763
  0
LINE
  8
_0-1_
  6
DASHED2
 62
  152
 10
68.86483144877684
 20
13.455166657781888
 11
67.464831448863606
 21
11.030295527335852
  0
LINE
  8
_0-1_
  6
DASHED2
 62
  152
 10
98.656935900889607
 20
35.455166657730501
 11
99.156935900889778
 21
34.955166657730274
  0
LINE
  8
_0-1_
  6
DASHED2
 62
  152
 10
98.656935900889607
 20
35.455166657730501
 11
98.656935900889607
 21
42.055166657730524
  0
LINE
  8
_0-1_
  6
DASHED2
 62
  152
 10
98.656935900889607
 20
42.055166657730524
 11
99.156935900889778
 21
42.555166657730638
  0
LINE
  8
_0-1_
  6
DASHED2
 62
  152
 10
95.567447677541168
 20
35.455166657730501
 11
98.656935900889607
 21
35.455166657730501
  0
LINE
  8
_0-1_
  6
DASHED2
 62
  152
 10
95.567447677541452
 20
42.055166657730524
 11
98.656935900889607
 21
42.055166657730524
  0
LINE
  8
_0-1_
  6
DASHED2
 62
  152
 10
91.356935900889596
 20
33.25516665773057
 11
93.608601950729224
 21
34.555166657730524
  0
LINE
  8
_0-1_
  6
DASHED2
 62
  152
 10
93.608601950729224
 20
34.555166657730524
 11
94.008601950729258
 21
34.555166657730524
  0
LINE
  8
_0-1_
  6
DASHED2
 62
  152
 10
94.008601950729258
 20
34.555166657730524
 11
95.567447677541168
 21
35.455166657730501
  0
LINE
  8
_0-1_
  6
DASHED2
 62
  152
 10
94.008601950729258
 20
42.955166657730615
 11
95.567447677541452
 21
42.055166657730524
  0
LINE
  8
_0-1_
  6
DASHED2
 62
  152
 10
93.608601950729224
 20
42.955166657730615
 11
94.008601950729258
 21
42.955166657730615
  0
LINE
  8
_0-1_
  6
DASHED2
 62
  152
 10
91.356935900889596
 20
44.255166657730456
 11
93.608601950729224
 21
42.955166657730615
  0
LINE
  8
_0-1_
  6
DASHED2
 62
  152
 10
93.608601950729224
 20
42.955166657730615
 11
93.608601950729224
 21
34.555166657730524
  0
LINE
  8
_0-1_
  6
CENTER1
 62
  152
 10
73.564831448863515
 20
38.75516665773057
 11
40.564831448863515
 21
38.75516665773057
  0
LINE
  8
_0-1_
  6
CENTER1
 62
  152
 10
63.364831448863697
 20
44.25516665773057
 11
63.364831448863697
 21
33.255166657731024
  0
LINE
  8
_0-1_
  6
CENTER1
 62
  152
 10
89.325933287751866
 20
38.75516665773057
 11
101.79534468003908
 21
38.75516665773057
  0
LINE
  8
_0-1_
  6
CENTER1
 62
  152
 10
45.564831448863515
 20
9.7551766577307717
 11
40.564831448863515
 21
9.7551766577307717
  0
LINE
  8
_0-1_
  6
CENTER1
 62
  152
 10
63.364831448863697
 20
3.9551766577309309
 11
63.364831448863697
 21
13.455176657731045
  0
ENDSEC
  0
EOF
