  0
SECTION
  2
HEADER
  9
$ACADVER
  1
AC1009
  9
$INSBASE
 10
0
 20
0
 30
0
  9
$EXTMIN
 10
0
 20
0
  9
$EXTMAX
 10
1189
 20
841
  9
$LIMMIN
 10
0
 20
0
  9
$LIMMAX
 10
1189
 20
841
  9
$LTSCALE
 40
1
  0
ENDSEC
  0
SECTION
  2
TABLES
  0
TABLE
  2
LTYPE
 70
     9
  0
LTYPE
  2
CONTINUOUS
 70
    64
  3
実線
 72
    65
 73
     0
 40
0.0
  0
LTYPE
  2
DASHED1
 70
    64
  3
--  --  --  --  --  --  --  --  
 72
    65
 73
     2
 40
2.5
 49
1.25
 49
-1.25
  0
LTYPE
  2
DASHED2
 70
    64
  3
----    ----    ----    ----    
 72
    65
 73
     2
 40
5.0
 49
2.5
 49
-2.5
  0
LTYPE
  2
DASHED3
 70
    64
  3
------  ------  ------  ------  
 72
    65
 73
     2
 40
5.0
 49
3.75
 49
-1.25
  0
LTYPE
  2
CENTER1
 70
    64
  3
----- - ----- - ----- - ----- - 
 72
    65
 73
     4
 40
10.0
 49
6.25
 49
-1.25
 49
1.25
 49
-1.25
  0
LTYPE
  2
CENTER2
 70
    64
  3
----------  --  ----------  --  
 72
    65
 73
     4
 40
20.0
 49
12.5
 49
-2.5
 49
2.5
 49
-2.5
  0
LTYPE
  2
PHANTOM1
 70
    64
  3
--- - - --- - - --- - - --- - - 
 72
    65
 73
     6
 40
10.0
 49
3.25
 49
-1.25
 49
1.25
 49
-1.25
 49
1.25
 49
-1.25
  0
LTYPE
  2
PHANTOM2
 70
    64
  3
--------  -  -  --------  -  -  
 72
    65
 73
     6
 40
20.0
 49
10.0
 49
-2.5
 49
1.25
 49
-2.5
 49
1.25
 49
-2.5
  0
LTYPE
  2
DOT
 70
    64
  3
-   -   -   -   -   -   -   -   
 72
    65
 73
     2
 40
2.5
 49
0.625
 49
-1.875
  0
LTYPE
  2
DUMMY
 70
    64
  3
ダミー
 72
    65
 73
     0
 40
0.0
  0
LTYPE
  2
RAND1
 70
    64
  3
ランダム線1
 72
    65
 73
     4
 40
10.0
 49
1.0
 49
-2.0
 49
3.0
 49
-4.0
  0
LTYPE
  2
RAND2
 70
    64
  3
ランダム線2
 72
    65
 73
     4
 40
14.0
 49
2.0
 49
-3.0
 49
4.0
 49
-5.0
  0
LTYPE
  2
RAND3
 70
    64
  3
ランダム線3
 72
    65
 73
     4
 40
18.0
 49
3.0
 49
-4.0
 49
5.0
 49
-6.0
  0
LTYPE
  2
RAND4
 70
    64
  3
ランダム線4
 72
    65
 73
     4
 40
22.0
 49
4.0
 49
-5.0
 49
6.0
 49
-7.0
  0
LTYPE
  2
RAND5
 70
    64
  3
ランダム線5
 72
    65
 73
     4
 40
26.0
 49
5.0
 49
-6.0
 49
7.0
 49
-8.0
  0
LTYPE
  2
LONG1
 70
    64
  3
----------  --  ----------  --  
 72
    65
 73
     4
 40
40.0
 49
32.5
 49
-2.5
 49
2.5
 49
-2.5
  0
LTYPE
  2
LONG2
 70
    64
  3
--------  -  -  --------  -  -  
 72
    65
 73
     6
 40
40.0
 49
30.0
 49
-2.5
 49
1.25
 49
-2.5
 49
1.25
 49
-2.5
  0
LTYPE
  2
LONG3
 70
    64
  3
+++++++++++++++..+++++++++++++++
 72
    65
 73
     2
 40
40.0
 49
37.5
 49
-2.5
  0
LTYPE
  2
LONG4
 70
    64
  3
+++++++++++++++..+++++++++++++++
 72
    65
 73
     2
 40
80.0
 49
75.0
 49
-5.0
  0
LTYPE
  2
LONG5
 70
    64
  3
----------  --  ----------  --  
 72
    65
 73
     4
 40
60.0
 49
37.5
 49
-7.5
 49
7.5
 49
-7.5
  0
LTYPE
  2
dashed
 70
   64
  3
-------   -------------   ------
 72
   65
 73
    2
 40
7.5
 49
6
 49
-1.5
  0
LTYPE
  2
dashed_spaced
 70
   64
  3
----        --------        ----
 72
   65
 73
    2
 40
12
 49
6
 49
-6
  0
LTYPE
  2
long_dashed_dotted
 70
   64
  3
------------- --- --------------
 72
   65
 73
    4
 40
15.25
 49
12
 49
-1.5
 49
0.25
 49
-1.5
  0
LTYPE
  2
long_dashed_double-dotted
 70
   64
  3
----------- --- --- ------------
 72
   65
 73
    6
 40
17
 49
12
 49
-1.5
 49
0.25
 49
-1.5
 49
0.25
 49
-1.5
  0
LTYPE
  2
long_dashed_triplicate-dotted
 70
   64
  3
--------- --- --- --- ----------
 72
   65
 73
    8
 40
18.75
 49
12
 49
-1.5
 49
0.25
 49
-1.5
 49
0.25
 49
-1.5
 49
0.25
 49
-1.5
  0
LTYPE
  2
dotted
 70
   64
  3
   -       -       -       -    
 72
   65
 73
    2
 40
1.75
 49
0.25
 49
-1.5
  0
LTYPE
  2
chain
 70
   64
  3
-------------- -- --------------
 72
   65
 73
    4
 40
18.5
 49
12
 49
-1.5
 49
3.5
 49
-1.5
  0
LTYPE
  2
chain_double_dash
 70
   64
  3
------------ -- -- -------------
 72
   65
 73
    6
 40
23.5
 49
12
 49
-1.5
 49
3.5
 49
-1.5
 49
3.5
 49
-1.5
  0
LTYPE
  2
dashed_dotted
 70
   64
  3
-----------     -     ----------
 72
   65
 73
    4
 40
9.25
 49
6
 49
-1.5
 49
0.25
 49
-1.5
  0
LTYPE
  2
double-dashed_dotted
 70
   64
  3
------   -----------   -   -----
 72
   65
 73
    6
 40
16.75
 49
6
 49
-1.5
 49
6
 49
-1.5
 49
0.25
 49
-1.5
  0
LTYPE
  2
dashed_double-dotted
 70
   64
  3
---------    -    -    ---------
 72
   65
 73
    6
 40
11
 49
6
 49
-1.5
 49
0.25
 49
-1.5
 49
0.25
 49
-1.5
  0
LTYPE
  2
double-dashed_double-dotted
 70
   64
  3
-----   ---------   -   -   ----
 72
   65
 73
    8
 40
18.5
 49
6
 49
-1.5
 49
6
 49
-1.5
 49
0.25
 49
-1.5
 49
0.25
 49
-1.5
  0
LTYPE
  2
dashed_triplicate-dotted
 70
   64
  3
-------    -    -    -    ------
 72
   65
 73
    8
 40
12.75
 49
6
 49
-1.5
 49
0.25
 49
-1.5
 49
0.25
 49
-1.5
 49
0.25
 49
-1.5
  0
LTYPE
  2
double-dashed_triplicate-dotted
 70
   64
  3
-----  ---------  -  -  -  -----
 72
   65
 73
   10
 40
20.25
 49
6
 49
-1.5
 49
6
 49
-1.5
 49
0.25
 49
-1.5
 49
0.25
 49
-1.5
 49
0.25
 49
-1.5
  0
LTYPE
  2
undefined
 70
   64
  3
--------------------------------
 72
   65
 73
    0
 40
0
  0
ENDTAB
  0
TABLE
  2
STYLE
  5
3
100
AcDbSymbolTable
 70
     1
  0
STYLE
  5
10
100
AcDbSymbolTableRecord
100
AcDbTextStyleTableRecord
  2
STANDARD
 70
     0
 40
0.0
 41
1.0
 50
0.0
 71
     0
 42
0.2
  3
txt
  4
bigfont.shx
  0
STYLE
  5
26
100
AcDbSymbolTableRecord
100
AcDbTextStyleTableRecord
  2
TATEGAKI
 70
    68
 40
0.0
 41
1.0
 50
0.0
 71
     0
 42
1.0
  3
txt
  4
bigfont.shx
  0
ENDTAB
  0
TABLE
  2
LAYER
 70
    4
  0
LAYER
  2
_0-0_
 70
   64
 62
    7
  6
CONTINUOUS
  0
LAYER
  2
_0-1_
 70
   64
 62
    7
  6
CONTINUOUS
  0
LAYER
  2
_0-f_
 70
   64
 62
    7
  6
CONTINUOUS
  0
LAYER
  2
ADD_LINE
 70
   64
 62
    7
  6
CONTINUOUS
  0
ENDTAB
  0
ENDSEC
  0
SECTION
  2
BLOCKS
  0
ENDSEC
  0
SECTION
  2
ENTITIES
  0
LINE
  8
_0-0_
  6
CONTINUOUS
 62
  152
 10
11.213708857924075
 20
50.391757206878765
 11
12.420815639110742
 21
49.184650425692212
  0
LINE
  8
_0-0_
  6
CONTINUOUS
 62
    7
 10
12.420815639110742
 20
49.184650425692212
 11
24.420815639110742
 21
49.184650425692212
  0
LINE
  8
_0-0_
  6
CONTINUOUS
 62
    7
 10
24.420815639110742
 20
49.184650425692212
 11
24.420815639110742
 21
37.184650425692212
  0
LINE
  8
_0-0_
  6
CONTINUOUS
 62
    7
 10
24.420815639110742
 20
37.184650425692212
 11
12.420815639110742
 21
37.184650425692212
  0
LINE
  8
_0-0_
  6
CONTINUOUS
 62
    7
 10
12.420815639110742
 20
37.184650425692212
 11
12.420815639110742
 21
49.184650425692212
  0
LINE
  8
_0-0_
  6
CONTINUOUS
 62
    7
 10
11.920815639110742
 20
50.684650425692212
 11
24.920815639110742
 21
50.684650425692212
  0
LINE
  8
_0-0_
  6
CONTINUOUS
 62
  152
 10
25.627922420297182
 20
50.391757206878765
 11
24.420815639110742
 21
49.184650425692212
  0
LINE
  8
_0-0_
  6
CONTINUOUS
 62
    7
 10
25.920815639110742
 20
49.684650425692212
 11
25.920815639110742
 21
36.684650425692212
  0
LINE
  8
_0-0_
  6
CONTINUOUS
 62
  152
 10
25.627922420297182
 20
35.977543644505658
 11
24.420815639110742
 21
37.184650425692212
  0
LINE
  8
_0-0_
  6
CONTINUOUS
 62
    7
 10
24.920815639110742
 20
35.684650425692212
 11
11.920815639110742
 21
35.684650425692212
  0
LINE
  8
_0-0_
  6
CONTINUOUS
 62
  152
 10
11.213708857924075
 20
35.977543644505658
 11
12.420815639110742
 21
37.184650425692212
  0
LINE
  8
_0-0_
  6
CONTINUOUS
 62
    7
 10
10.920815639110742
 20
36.684650425692212
 11
10.920815639110742
 21
49.684650425692212
  0
LINE
  8
_0-1_
  6
CENTER1
 62
  152
 10
10.920815639110742
 20
43.184650425692212
 11
25.920815639110742
 21
43.184650425692212
  0
LINE
  8
_0-1_
  6
CENTER1
 62
  152
 10
18.420815639110742
 20
50.684650425692212
 11
18.420815639110742
 21
35.684650425692212
  0
LINE
  8
_0-0_
  6
CONTINUOUS
 62
    7
 10
50.923798984787027
 20
35.684650425692325
 11
53.923798984787027
 21
35.684650425692325
  0
LINE
  8
_0-0_
  6
CONTINUOUS
 62
    7
 10
54.423798984787027
 20
36.184650425692325
 11
54.423798984787027
 21
50.184650425692212
  0
LINE
  8
_0-0_
  6
CONTINUOUS
 62
    7
 10
54.423798984787027
 20
50.184650425692212
 11
54.573799001346401
 21
50.184650425692212
  0
LINE
  8
_0-0_
  6
CONTINUOUS
 62
    7
 10
54.573799001346401
 20
50.184650425692212
 11
54.573799001346401
 21
48.634650409132973
  0
LINE
  8
_0-0_
  6
CONTINUOUS
 62
    7
 10
54.423798984787027
 20
48.784650425692348
 11
55.123798984787186
 21
48.084650425692303
  0
LINE
  8
_0-0_
  6
CONTINUOUS
 62
    7
 10
55.123798984787186
 20
48.084650425692303
 11
59.423798984787027
 21
48.084650425692303
  0
LINE
  8
_0-0_
  6
CONTINUOUS
 62
    7
 10
59.423798984787027
 20
48.084650425692303
 11
62.023798984787163
 21
50.684650425692212
  0
LINE
  8
_0-0_
  6
CONTINUOUS
 62
    7
 10
62.023798984787163
 20
50.684650425692212
 11
79.711332376435394
 21
50.684650425692212
  0
LINE
  8
_0-0_
  6
CONTINUOUS
 62
    7
 10
79.961332376435394
 20
50.617663127584478
 11
82.173798984787027
 21
49.340294935679594
  0
LINE
  8
_0-0_
  6
CONTINUOUS
 62
    7
 10
82.423798984787027
 20
48.907282233787328
 11
82.423798984787027
 21
37.473432387992489
  0
LINE
  8
_0-0_
  6
CONTINUOUS
 62
    7
 10
82.173798984787027
 20
37.029005915704943
 11
79.961332376435394
 21
35.751637723800059
  0
LINE
  8
_0-0_
  6
CONTINUOUS
 62
    7
 10
79.711332376435394
 20
35.684650425692325
 11
62.023798984787163
 21
35.684650425692325
  0
LINE
  8
_0-0_
  6
CONTINUOUS
 62
    7
 10
62.023798984787163
 20
35.684650425692325
 11
59.423798984787027
 21
38.284650425692348
  0
LINE
  8
_0-0_
  6
CONTINUOUS
 62
    7
 10
59.423798984787027
 20
38.284650425692348
 11
55.123798984787186
 21
38.284650425692348
  0
LINE
  8
_0-0_
  6
CONTINUOUS
 62
    7
 10
55.123798984787186
 20
38.284650425692348
 11
54.423798984787027
 21
37.584650425692416
  0
LINE
  8
_0-0_
  6
CONTINUOUS
 62
    7
 10
54.62379898373797
 20
37.784650424643246
 11
54.62379898373797
 21
36.184650425692325
  0
LINE
  8
_0-0_
  6
CONTINUOUS
 62
    7
 10
54.62379898373797
 20
36.184650425692325
 11
54.423798984787027
 21
36.184650425692325
  0
LINE
  8
_0-1_
  6
CENTER1
 62
  152
 10
54.523798984262498
 20
39.901265154158182
 11
54.523798984262498
 21
41.398523827010081
  0
LINE
  8
_0-0_
  6
CONTINUOUS
 62
    7
 10
54.423798984787027
 20
40.857855506449141
 11
54.573799001346401
 21
40.771252956510239
  0
LINE
  8
_0-0_
  6
CONTINUOUS
 62
    7
 10
54.573798984000291
 20
40.598047886676682
 11
54.423798984787027
 21
40.511445345178913
  0
LINE
  8
_0-1_
  6
CENTER1
 62
  152
 10
53.883702685519211
 20
40.684650426600797
 11
55.187350323088367
 21
40.684650426600797
  0
LINE
  8
_0-0_
  6
CONTINUOUS
 62
    7
 10
56.323798984787004
 20
38.284650425692348
 11
56.323798984787004
 21
48.084650425692303
  0
LINE
  8
_0-1_
  6
CENTER1
 62
  152
 10
54.523798984262498
 20
46.398523827010081
 11
54.523798984262498
 21
44.901265154158295
  0
LINE
  8
_0-0_
  6
CONTINUOUS
 62
    7
 10
54.423798984787027
 20
45.511445345178913
 11
54.573798984000291
 21
45.598047886676682
  0
LINE
  8
_0-0_
  6
CONTINUOUS
 62
    7
 10
54.573799001346401
 20
45.771252956510239
 11
54.423798984787027
 21
45.857855506449255
  0
LINE
  8
_0-1_
  6
CENTER1
 62
  152
 10
53.883702685519211
 20
45.684650426600797
 11
55.187350323088367
 21
45.684650426600797
  0
LINE
  8
_0-0_
  6
CONTINUOUS
 62
    7
 10
53.923798984787027
 20
50.684650425692212
 11
50.923798984787027
 21
50.684650425692212
  0
LINE
  8
_0-0_
  6
CONTINUOUS
 62
    7
 10
50.923798984787027
 20
50.684650425692212
 11
50.923798984787027
 21
35.684650425692325
  0
LINE
  8
_0-0_
  6
CONTINUOUS
 62
    7
 10
50.923798984787027
 20
35.684650425692325
 11
49.423798984787027
 21
37.184650425692325
  0
LINE
  8
_0-0_
  6
CONTINUOUS
 62
    7
 10
49.423798984787027
 20
37.184650425692325
 11
49.423798984787027
 21
49.184650425692212
  0
LINE
  8
_0-0_
  6
CONTINUOUS
 62
    7
 10
49.423798984787027
 20
49.184650425692212
 11
50.923798984787027
 21
50.684650425692212
  0
LINE
  8
_0-1_
  6
CENTER1
 62
  152
 10
49.423798984787027
 20
43.184650425692212
 11
64.707397335113342
 21
43.184650425692212
  0
LINE
  8
_0-0_
  6
CONTINUOUS
 62
  152
 10
64.206368031138254
 20
43.424808643337201
 11
63.796915352293126
 21
43.424808643337201
  0
LINE
  8
_0-0_
  6
CONTINUOUS
 62
  152
 10
63.796915352293126
 20
43.424808643337201
 11
63.796915352293126
 21
44.462525187704841
  0
LINE
  8
_0-0_
  6
CONTINUOUS
 62
  152
 10
63.796915352293126
 20
44.462525187704841
 11
63.264290499111894
 21
44.462525187704841
  0
LINE
  8
_0-0_
  6
CONTINUOUS
 62
  152
 10
63.264290499111894
 20
44.462525187704841
 11
63.264290499111894
 21
43.523764803354766
  0
LINE
  8
_0-0_
  6
CONTINUOUS
 62
  152
 10
63.264290499111894
 20
43.523764803354766
 11
62.879933036384273
 21
43.523764803354766
  0
LINE
  8
_0-0_
  6
CONTINUOUS
 62
  152
 10
62.879933036384273
 20
43.523764803354766
 11
62.879933036384273
 21
44.462525187704841
  0
LINE
  8
_0-0_
  6
CONTINUOUS
 62
  152
 10
62.879933036384273
 20
44.462525187704841
 11
62.319064312090859
 21
44.462525187704841
  0
LINE
  8
_0-0_
  6
CONTINUOUS
 62
  152
 10
62.319064312090859
 20
44.462525187704841
 11
62.319064312090859
 21
43.424808643337201
  0
LINE
  8
_0-0_
  6
CONTINUOUS
 62
  152
 10
62.319064312090859
 20
43.424808643337201
 11
61.909611633213217
 21
43.424808643337201
  0
LINE
  8
_0-0_
  6
CONTINUOUS
 62
  152
 10
61.909611633213217
 20
43.424808643337201
 11
61.909611633213217
 21
45.033237783824802
  0
LINE
  8
_0-0_
  6
CONTINUOUS
 62
  152
 10
61.909611633213217
 20
45.033237783824802
 11
64.206368031138254
 21
45.033237783824802
  0
LINE
  8
_0-0_
  6
CONTINUOUS
 62
  152
 10
64.206368031138254
 20
45.033237783824802
 11
64.206368031138254
 21
43.424808643337201
  0
LINE
  8
_0-0_
  6
CONTINUOUS
 62
  152
 10
63.520439548803097
 20
41.958436352294143
 11
63.520439548803097
 21
41.373323125390016
  0
LINE
  8
_0-0_
  6
CONTINUOUS
 62
  152
 10
62.69282135125809
 20
41.358226191938456
 11
62.69282135125809
 21
41.955589273083319
  0
LINE
  8
_0-0_
  6
CONTINUOUS
 62
  152
 10
62.319064312090859
 20
45.475133628275103
 11
62.319064312090859
 21
46.510400532178551
  0
LINE
  8
_0-0_
  6
CONTINUOUS
 62
  152
 10
62.319064312090859
 20
46.510400532178551
 11
64.206368031138254
 21
46.510400532178551
  0
LINE
  8
_0-0_
  6
CONTINUOUS
 62
  152
 10
64.206368031138254
 20
46.510400532178551
 11
64.206368031138254
 21
47.08314425162871
  0
LINE
  8
_0-0_
  6
CONTINUOUS
 62
  152
 10
64.206368031138254
 20
47.08314425162871
 11
61.909611633213217
 21
47.08314425162871
  0
LINE
  8
_0-0_
  6
CONTINUOUS
 62
  152
 10
61.909611633213217
 20
47.08314425162871
 11
61.909611633213217
 21
45.475133628275103
  0
LINE
  8
_0-0_
  6
CONTINUOUS
 62
  152
 10
61.909611633213217
 20
45.475133628275103
 11
62.319064312090859
 21
45.475133628275103
  0
LINE
  8
_0-0_
  6
CONTINUOUS
 62
  152
 10
61.923798984787027
 20
47.684650425692098
 11
64.123798984787072
 21
47.684650425692098
  0
LINE
  8
_0-0_
  6
CONTINUOUS
 62
  152
 10
64.623798984787072
 20
47.184650425692098
 11
64.623798984787072
 21
39.184650425692098
  0
LINE
  8
_0-0_
  6
CONTINUOUS
 62
  152
 10
64.123798984787072
 20
38.684650425692098
 11
61.923798984787027
 21
38.684650425692098
  0
LINE
  8
_0-0_
  6
CONTINUOUS
 62
  152
 10
61.423798984787027
 20
39.184650425692098
 11
61.423798984787027
 21
47.184650425692098
  0
LINE
  8
_0-1_
  6
CENTER1
 62
  152
 10
66.500920127819654
 20
43.184650425692212
 11
82.423798984787027
 21
43.184650425692212
  0
LINE
  8
_0-1_
  6
CENTER1
 62
  152
 10
72.223798984787095
 20
35.684650425692325
 11
72.223798984787095
 21
50.684650425692212
  0
LINE
  8
_0-0_
  6
CONTINUOUS
 62
    7
 10
103.07126857983314
 20
50.684650425692212
 11
116.07126857983314
 21
50.684650425692212
  0
LINE
  8
_0-0_
  6
CONTINUOUS
 62
    7
 10
117.07126857983314
 20
49.684650425692212
 11
117.07126857983314
 21
36.684650425692325
  0
LINE
  8
_0-0_
  6
CONTINUOUS
 62
    7
 10
116.07126857983314
 20
35.684650425692439
 11
103.07126857983314
 21
35.684650425692439
  0
LINE
  8
_0-0_
  6
CONTINUOUS
 62
    7
 10
102.07126857983314
 20
36.684650425692325
 11
102.07126857983314
 21
49.684650425692212
  0
LINE
  8
_0-0_
  6
CONTINUOUS
 62
    7
 10
104.10631395817387
 20
48.723517832527023
 11
104.03240117297031
 21
48.649605047323462
  0
LINE
  8
_0-0_
  6
CONTINUOUS
 62
    7
 10
104.03240117297031
 20
48.649605047323462
 11
103.9867205595113
 21
48.550690433761588
  0
LINE
  8
_0-0_
  6
CONTINUOUS
 62
    7
 10
103.9867205595113
 20
48.550690433761588
 11
103.97126857980498
 21
48.431097035099015
  0
LINE
  8
_0-0_
  6
CONTINUOUS
 62
    7
 10
103.97126857980498
 20
48.431097035099015
 11
103.97126857980498
 21
45.857855506449141
  0
LINE
  8
_0-0_
  6
CONTINUOUS
 62
    7
 10
103.97126857980498
 20
45.857855506449141
 11
102.57126857983314
 21
45.857855506449141
  0
LINE
  8
_0-0_
  6
CONTINUOUS
 62
    7
 10
102.57126857983314
 20
45.857855506449141
 11
102.57126857983314
 21
45.511445345178799
  0
LINE
  8
_0-0_
  6
CONTINUOUS
 62
    7
 10
102.57126857983314
 20
45.511445345178799
 11
103.97126857980498
 21
45.511445345178799
  0
LINE
  8
_0-0_
  6
CONTINUOUS
 62
    7
 10
103.97126857980498
 20
45.511445345178799
 11
103.97126857980498
 21
40.857855506449141
  0
LINE
  8
_0-0_
  6
CONTINUOUS
 62
    7
 10
103.97126857980498
 20
40.857855506449141
 11
104.12126859636425
 21
40.771252956510239
  0
LINE
  8
_0-0_
  6
CONTINUOUS
 62
    7
 10
104.12126857901814
 20
40.598047886676682
 11
103.97126857980498
 21
40.511445345178799
  0
LINE
  8
_0-0_
  6
CONTINUOUS
 62
    7
 10
103.97126857980498
 20
40.511445345178799
 11
103.97126857980498
 21
37.938203816285636
  0
LINE
  8
_0-0_
  6
CONTINUOUS
 62
    7
 10
103.97126857980498
 20
37.938203816285636
 11
103.9867205595113
 21
37.818610417623177
  0
LINE
  8
_0-0_
  6
CONTINUOUS
 62
    7
 10
103.9867205595113
 20
37.818610417623177
 11
104.03240117297031
 21
37.719695804061189
  0
LINE
  8
_0-0_
  6
CONTINUOUS
 62
    7
 10
104.03240117297031
 20
37.719695804061189
 11
104.10631395817387
 21
37.645783018857742
  0
LINE
  8
_0-0_
  6
CONTINUOUS
 62
    7
 10
104.10631395817387
 20
37.645783018857742
 11
104.20522857173574
 21
37.600102405398729
  0
LINE
  8
_0-0_
  6
CONTINUOUS
 62
    7
 10
104.20522857173574
 20
37.600102405398729
 11
104.32482197039832
 21
37.584650425692416
  0
LINE
  8
_0-0_
  6
CONTINUOUS
 62
    7
 10
104.32482197039826
 20
37.584650425692416
 11
109.39806349907627
 21
37.584650425692416
  0
LINE
  8
_0-0_
  6
CONTINUOUS
 62
    7
 10
109.39806349907627
 20
37.584650425692416
 11
109.48466603881155
 21
37.73465042457849
  0
LINE
  8
_0-0_
  6
CONTINUOUS
 62
    7
 10
109.57126857967626
 20
37.784650425692462
 11
109.57126857967626
 21
36.184650425692325
  0
LINE
  8
_0-0_
  6
CONTINUOUS
 62
    7
 10
109.39806349907627
 20
36.184650425692325
 11
109.39806349907627
 21
37.584650425692416
  0
LINE
  8
_0-0_
  6
CONTINUOUS
 62
    7
 10
109.74447366059002
 20
37.584650425692416
 11
114.81771518921158
 21
37.584650425692416
  0
LINE
  8
_0-0_
  6
CONTINUOUS
 62
    7
 10
114.81771518921158
 20
37.584650425692416
 11
114.9373085878741
 21
37.600102405398843
  0
LINE
  8
_0-0_
  6
CONTINUOUS
 62
    7
 10
114.9373085878741
 20
37.600102405398843
 11
115.03622320143603
 21
37.645783018857742
  0
LINE
  8
_0-0_
  6
CONTINUOUS
 62
    7
 10
115.03622320143603
 20
37.645783018857742
 11
115.11013598663953
 21
37.719695804061303
  0
LINE
  8
_0-0_
  6
CONTINUOUS
 62
    7
 10
115.11013598663953
 20
37.719695804061303
 11
115.15581660009855
 21
37.818610417623177
  0
LINE
  8
_0-0_
  6
CONTINUOUS
 62
    7
 10
115.15581660009855
 20
37.818610417623177
 11
115.17126857980486
 21
37.93820381628575
  0
LINE
  8
_0-0_
  6
CONTINUOUS
 62
    7
 10
115.17126857980492
 20
37.93820381628575
 11
115.17126857980492
 21
40.511445345178799
  0
LINE
  8
_0-0_
  6
CONTINUOUS
 62
    7
 10
115.17126857980492
 20
40.511445345178799
 11
115.02126858059177
 21
40.598047886676682
  0
LINE
  8
_0-0_
  6
CONTINUOUS
 62
    7
 10
115.0212685632456
 20
40.771252956510239
 11
115.17126857980492
 21
40.857855506449141
  0
LINE
  8
_0-0_
  6
CONTINUOUS
 62
    7
 10
115.17126857980492
 20
40.857855506449141
 11
115.17126857980492
 21
45.511445345178799
  0
LINE
  8
_0-0_
  6
CONTINUOUS
 62
    7
 10
115.17126857980492
 20
45.511445345178799
 11
115.02126858059177
 21
45.598047886676795
  0
LINE
  8
_0-0_
  6
CONTINUOUS
 62
    7
 10
115.0212685632456
 20
45.771252956510239
 11
115.17126857980492
 21
45.857855506449141
  0
LINE
  8
_0-0_
  6
CONTINUOUS
 62
    7
 10
115.17126857980492
 20
45.857855506449141
 11
115.17126857980492
 21
48.431097035099128
  0
LINE
  8
_0-0_
  6
CONTINUOUS
 62
    7
 10
115.17126857980492
 20
48.431097035099128
 11
115.15581660009855
 21
48.550690433761588
  0
LINE
  8
_0-0_
  6
CONTINUOUS
 62
    7
 10
115.15581660009855
 20
48.550690433761588
 11
115.11013598663959
 21
48.649605047323575
  0
LINE
  8
_0-0_
  6
CONTINUOUS
 62
    7
 10
115.11013598663959
 20
48.649605047323575
 11
115.03622320143597
 21
48.723517832527136
  0
LINE
  8
_0-0_
  6
CONTINUOUS
 62
    7
 10
115.03622320143597
 20
48.723517832527136
 11
114.93730858787404
 21
48.769198445986149
  0
LINE
  8
_0-0_
  6
CONTINUOUS
 62
    7
 10
114.93730858787404
 20
48.769198445986149
 11
114.81771518921147
 21
48.784650425692462
  0
LINE
  8
_0-0_
  6
CONTINUOUS
 62
    7
 10
114.81771518921158
 20
48.784650425692348
 11
109.74447366059002
 21
48.784650425692348
  0
LINE
  8
_0-0_
  6
CONTINUOUS
 62
    7
 10
109.74447366059002
 20
48.784650425692348
 11
109.65787112021161
 21
48.634650425692371
  0
LINE
  8
_0-0_
  6
CONTINUOUS
 62
    7
 10
109.57126857967626
 20
48.584650425692303
 11
109.57126857967626
 21
50.184650425692098
  0
LINE
  8
_0-0_
  6
CONTINUOUS
 62
    7
 10
109.39806349907627
 20
50.184650425692098
 11
109.39806349907627
 21
48.784650425692348
  0
LINE
  8
_0-0_
  6
CONTINUOUS
 62
    7
 10
109.39806349907627
 20
48.784650425692348
 11
104.32482197039826
 21
48.784650425692348
  0
LINE
  8
_0-0_
  6
CONTINUOUS
 62
    7
 10
104.32482197039826
 20
48.784650425692348
 11
104.20522857173574
 21
48.769198445985921
  0
LINE
  8
_0-0_
  6
CONTINUOUS
 62
    7
 10
104.20522857173574
 20
48.769198445985921
 11
104.10631395817387
 21
48.723517832527023
  0
LINE
  8
_0-0_
  6
CONTINUOUS
 62
    7
 10
105.01820417929088
 20
47.956222838431017
 11
104.95128873886244
 21
47.878543051838619
  0
LINE
  8
_0-0_
  6
CONTINUOUS
 62
    7
 10
104.95128873886244
 20
47.878543051838619
 11
104.89398747306365
 21
47.78801874723024
  0
LINE
  8
_0-0_
  6
CONTINUOUS
 62
    7
 10
104.89398747306365
 20
47.78801874723024
 11
104.84880472217185
 21
47.688606271101207
  0
LINE
  8
_0-0_
  6
CONTINUOUS
 62
    7
 10
104.84880472217185
 20
47.688606271101207
 11
104.81771518921187
 21
47.584650425692303
  0
LINE
  8
_0-0_
  6
CONTINUOUS
 62
    7
 10
105.01820417929088
 20
47.956222838431017
 11
105.09180926850621
 21
48.017663127584569
  0
LINE
  8
_0-0_
  6
CONTINUOUS
 62
    7
 10
105.0918092685061
 20
48.017663127584569
 11
105.16668428795066
 21
48.054496736085298
  0
LINE
  8
_0-0_
  6
CONTINUOUS
 62
    7
 10
105.16668428795066
 20
48.054496736085298
 11
105.26318368051653
 21
48.077054302198462
  0
LINE
  8
_0-0_
  6
CONTINUOUS
 62
    7
 10
105.26318368051653
 20
48.077054302198462
 11
105.37837536099158
 21
48.084650425692303
  0
LINE
  8
_0-0_
  6
CONTINUOUS
 62
    7
 10
105.37837536099158
 20
48.084650425692303
 11
113.76416179861826
 21
48.084650425692303
  0
LINE
  8
_0-0_
  6
CONTINUOUS
 62
    7
 10
113.76416179861826
 20
48.084650425692303
 11
113.87935347909331
 21
48.077054302198462
  0
LINE
  8
_0-0_
  6
CONTINUOUS
 62
    7
 10
113.87935347909331
 20
48.077054302198462
 11
113.97585287165913
 21
48.054496736085298
  0
LINE
  8
_0-0_
  6
CONTINUOUS
 62
    7
 10
113.97585287165913
 20
48.054496736085298
 11
114.05072789110369
 21
48.017663127584569
  0
LINE
  8
_0-0_
  6
CONTINUOUS
 62
    7
 10
114.05072789110369
 20
48.017663127584683
 11
114.12433298031908
 21
47.956222838431017
  0
LINE
  8
_0-0_
  6
CONTINUOUS
 62
    7
 10
114.12433298031908
 20
47.956222838431017
 11
114.19124842074746
 21
47.878543051838619
  0
LINE
  8
_0-0_
  6
CONTINUOUS
 62
    7
 10
114.19124842074746
 20
47.878543051838619
 11
114.24854968654626
 21
47.78801874723024
  0
LINE
  8
_0-0_
  6
CONTINUOUS
 62
    7
 10
114.24854968654626
 20
47.78801874723024
 11
114.29373243743811
 21
47.688606271101207
  0
LINE
  8
_0-0_
  6
CONTINUOUS
 62
    7
 10
114.29373243743811
 20
47.688606271101207
 11
114.32482197039809
 21
47.584650425692303
  0
LINE
  8
_0-0_
  6
CONTINUOUS
 62
    7
 10
113.67126857980503
 20
47.584650425692303
 11
113.67126857980503
 21
38.784650425692462
  0
LINE
  8
_0-0_
  6
CONTINUOUS
 62
    7
 10
113.76416179861826
 20
38.284650425692462
 11
105.3783753609917
 21
38.284650425692462
  0
LINE
  8
_0-0_
  6
CONTINUOUS
 62
    7
 10
105.3783753609917
 20
38.284650425692348
 11
105.26318368051653
 21
38.292246549186189
  0
LINE
  8
_0-0_
  6
CONTINUOUS
 62
    7
 10
105.26318368051653
 20
38.292246549186189
 11
105.16668428795072
 21
38.314804115299467
  0
LINE
  8
_0-0_
  6
CONTINUOUS
 62
    7
 10
105.16668428795072
 20
38.314804115299467
 11
105.09180926850615
 21
38.351637723800195
  0
LINE
  8
_0-0_
  6
CONTINUOUS
 62
    7
 10
105.09180926850621
 20
38.351637723800195
 11
105.01820417929088
 21
38.413078012953747
  0
LINE
  8
_0-0_
  6
CONTINUOUS
 62
    7
 10
105.01820417929088
 20
38.413078012953747
 11
104.9512887388625
 21
38.490757799546145
  0
LINE
  8
_0-0_
  6
CONTINUOUS
 62
    7
 10
104.9512887388625
 20
38.490757799546145
 11
104.89398747306365
 21
38.581282104154525
  0
LINE
  8
_0-0_
  6
CONTINUOUS
 62
    7
 10
104.89398747306365
 20
38.581282104154525
 11
104.84880472217185
 21
38.680694580283557
  0
LINE
  8
_0-0_
  6
CONTINUOUS
 62
    7
 10
104.84880472217185
 20
38.680694580283557
 11
104.81771518921187
 21
38.784650425692348
  0
LINE
  8
_0-0_
  6
CONTINUOUS
 62
    7
 10
105.8712685798443
 20
38.784650425692348
 11
105.8712685798443
 21
47.584650425692303
  0
LINE
  8
_0-0_
  6
CONTINUOUS
 62
    7
 10
104.12126859636425
 20
45.771252956510239
 11
103.97126857980498
 21
45.857855506449141
  0
LINE
  8
_0-0_
  6
CONTINUOUS
 62
    7
 10
103.97126857980498
 20
45.511445345178799
 11
104.12126857901814
 21
45.598047886676795
  0
LINE
  8
_0-0_
  6
CONTINUOUS
 62
    7
 10
103.97126857980498
 20
40.857855506449141
 11
102.57126857983314
 21
40.857855506449141
  0
LINE
  8
_0-0_
  6
CONTINUOUS
 62
    7
 10
102.57126857983314
 20
40.857855506449141
 11
102.57126857983314
 21
40.511445345178799
  0
LINE
  8
_0-0_
  6
CONTINUOUS
 62
    7
 10
102.57126857983314
 20
40.511445345178799
 11
103.97126857980498
 21
40.511445345178799
  0
LINE
  8
_0-0_
  6
CONTINUOUS
 62
    7
 10
109.65787112021161
 20
37.734650425692394
 11
109.74447366059002
 21
37.584650425692416
  0
LINE
  8
_0-0_
  6
CONTINUOUS
 62
    7
 10
109.74447366059002
 20
37.584650425692416
 11
109.74447366059002
 21
36.184650425692098
  0
LINE
  8
_0-0_
  6
CONTINUOUS
 62
    7
 10
109.74447366059002
 20
36.184650425692212
 11
109.39806349907627
 21
36.184650425692212
  0
LINE
  8
_0-0_
  6
CONTINUOUS
 62
    7
 10
113.76416179861826
 20
38.284650425692462
 11
113.87935347909331
 21
38.292246549186189
  0
LINE
  8
_0-0_
  6
CONTINUOUS
 62
    7
 10
113.87935347909331
 20
38.292246549186189
 11
113.97585287165913
 21
38.314804115299467
  0
LINE
  8
_0-0_
  6
CONTINUOUS
 62
    7
 10
113.97585287165913
 20
38.314804115299467
 11
114.05072789110369
 21
38.351637723800195
  0
LINE
  8
_0-0_
  6
CONTINUOUS
 62
    7
 10
114.05072789110369
 20
38.351637723800195
 11
114.12433298031902
 21
38.413078012953747
  0
LINE
  8
_0-0_
  6
CONTINUOUS
 62
    7
 10
114.12433298031902
 20
38.413078012953747
 11
114.19124842074746
 21
38.490757799546145
  0
LINE
  8
_0-0_
  6
CONTINUOUS
 62
    7
 10
114.19124842074746
 20
38.490757799546145
 11
114.24854968654626
 21
38.581282104154525
  0
LINE
  8
_0-0_
  6
CONTINUOUS
 62
    7
 10
114.24854968654626
 20
38.581282104154525
 11
114.29373243743811
 21
38.680694580283557
  0
LINE
  8
_0-0_
  6
CONTINUOUS
 62
    7
 10
114.29373243743811
 20
38.680694580283557
 11
114.32482197039809
 21
38.784650425692462
  0
LINE
  8
_0-0_
  6
CONTINUOUS
 62
    7
 10
115.17126857980492
 20
40.511445345178799
 11
116.57126857983314
 21
40.511445345178799
  0
LINE
  8
_0-0_
  6
CONTINUOUS
 62
    7
 10
116.57126857983314
 20
40.511445345178799
 11
116.57126857983314
 21
40.857855506449141
  0
LINE
  8
_0-0_
  6
CONTINUOUS
 62
    7
 10
116.57126857983314
 20
40.857855506449141
 11
115.17126857980492
 21
40.857855506449141
  0
LINE
  8
_0-0_
  6
CONTINUOUS
 62
    7
 10
115.17126857980492
 20
45.511445345178799
 11
116.57126857983314
 21
45.511445345178799
  0
LINE
  8
_0-0_
  6
CONTINUOUS
 62
    7
 10
116.57126857983314
 20
45.511445345178799
 11
116.57126857983314
 21
45.857855506449141
  0
LINE
  8
_0-0_
  6
CONTINUOUS
 62
    7
 10
116.57126857983314
 20
45.857855506449141
 11
115.17126857980492
 21
45.857855506449141
  0
LINE
  8
_0-0_
  6
CONTINUOUS
 62
    7
 10
109.74447366059002
 20
48.784650425692348
 11
109.74447366059002
 21
50.184650425692212
  0
LINE
  8
_0-0_
  6
CONTINUOUS
 62
    7
 10
109.74447366059002
 20
50.184650425692212
 11
109.39806349907627
 21
50.184650425692212
  0
LINE
  8
_0-0_
  6
CONTINUOUS
 62
    7
 10
109.39806349907627
 20
48.784650425692348
 11
109.48466603881155
 21
48.634650426806274
  0
LINE
  8
_0-1_
  6
CENTER1
 62
  152
 10
109.57126857983309
 20
19.379310951527543
 11
109.57126857983309
 21
6.5846604256926753
  0
LINE
  8
_0-0_
  6
CONTINUOUS
 62
    7
 10
104.53411068950828
 20
8.6346604256927435
 11
105.22693101253583
 21
9.8346604256925616
  0
LINE
  8
_0-0_
  6
DASHED2
 62
  152
 10
105.37126857983321
 20
10.084660425692675
 11
105.37126857983321
 21
15.632994375853229
  0
LINE
  8
_0-0_
  6
DASHED2
 62
  152
 10
105.37126857983321
 20
15.632994375853229
 11
104.07126857983309
 21
17.884660425692744
  0
LINE
  8
_0-0_
  6
CONTINUOUS
 62
    7
 10
102.57126857983314
 20
17.884660425692744
 11
116.57126857983309
 21
17.884660425692744
  0
LINE
  8
_0-0_
  6
CONTINUOUS
 62
    7
 10
117.07126857983309
 20
17.384660425692744
 11
117.07126857983309
 21
8.8846604256927435
  0
LINE
  8
_0-0_
  6
CONTINUOUS
 62
    7
 10
116.57126857983309
 20
8.3846604256927435
 11
115.04143917205027
 21
8.3846604256927435
  0
LINE
  8
_0-0_
  6
CONTINUOUS
 62
    7
 10
114.60842647015807
 20
8.6346604256927435
 11
113.91560614713063
 21
9.8346604256925616
  0
LINE
  8
_0-0_
  6
DASHED2
 62
  152
 10
113.77126857983302
 20
10.084660425692675
 11
113.77126857983302
 21
15.632994375853229
  0
LINE
  8
_0-0_
  6
DASHED2
 62
  152
 10
113.77126857983302
 20
15.632994375853229
 11
105.37126857983321
 21
15.632994375853229
  0
LINE
  8
_0-0_
  6
CONTINUOUS
 62
    7
 10
102.07126857983314
 20
17.384660425692744
 11
102.07126857983314
 21
8.8846604256927435
  0
LINE
  8
_0-0_
  6
CONTINUOUS
 62
    7
 10
102.57126857983314
 20
8.3846604256927435
 11
104.10109798761607
 21
8.3846604256927435
  0
LINE
  8
_0-0_
  6
CONTINUOUS
 62
    7
 10
105.6599437144281
 20
10.084660425692562
 11
113.48259344523836
 21
10.084660425692562
  0
LINE
  8
_0-0_
  6
DASHED2
 62
  152
 10
113.77126857983302
 20
15.632994375853229
 11
115.07126857983309
 21
17.884660425692744
  0
LINE
  8
_0-0_
  6
CONTINUOUS
 62
    7
 10
81.423798984787027
 20
17.884660425692744
 11
56.323798984787004
 21
17.884660425692744
  0
LINE
  8
_0-0_
  6
CONTINUOUS
 62
    7
 10
56.323798984787004
 20
17.884660425692744
 11
54.423798984787027
 21
19.784660425692721
  0
LINE
  8
_0-0_
  6
CONTINUOUS
 62
    7
 10
54.573799001346401
 20
19.63466040913346
 11
54.573799001346401
 21
21.184660425692698
  0
LINE
  8
_0-0_
  6
CONTINUOUS
 62
    7
 10
54.573799001346401
 20
21.184660425692698
 11
54.423798984787027
 21
21.184660425692698
  0
LINE
  8
_0-0_
  6
CONTINUOUS
 62
    7
 10
54.423798984787027
 20
21.184660425692698
 11
54.423798984787027
 21
7.184660425692698
  0
LINE
  8
_0-0_
  6
CONTINUOUS
 62
    7
 10
54.423798984787027
 20
7.1846604256928117
 11
54.62379898373797
 21
7.1846604256928117
  0
LINE
  8
_0-0_
  6
CONTINUOUS
 62
    7
 10
54.62379898373797
 20
7.1846604256928117
 11
54.62379898373797
 21
8.7846604246437323
  0
LINE
  8
_0-0_
  6
CONTINUOUS
 62
    7
 10
54.423798984787027
 20
8.584660425692789
 11
55.923798984787027
 21
10.084660425692675
  0
LINE
  8
_0-0_
  6
CONTINUOUS
 62
    7
 10
55.923798984787027
 20
10.084660425692675
 11
64.723798984787095
 21
10.084660425692675
  0
LINE
  8
_0-0_
  6
CONTINUOUS
 62
    7
 10
64.723798984787095
 20
10.084660425692675
 11
66.423798984787027
 21
8.3846604256927435
  0
LINE
  8
_0-0_
  6
CONTINUOUS
 62
    7
 10
66.630905765973694
 20
8.3846604256927435
 11
77.816692203600496
 21
8.3846604256927435
  0
LINE
  8
_0-0_
  6
CONTINUOUS
 62
    7
 10
78.023798984787163
 20
8.3846604256927435
 11
79.723798984787209
 21
10.084660425692675
  0
LINE
  8
_0-0_
  6
CONTINUOUS
 62
    7
 10
79.723798984787209
 20
10.084660425692675
 11
81.423798984787027
 21
10.084660425692675
  0
LINE
  8
_0-0_
  6
CONTINUOUS
 62
    7
 10
82.423798984787027
 20
11.084660425692675
 11
82.423798984787027
 21
16.884660425692744
  0
LINE
  8
_0-0_
  6
DASHED2
 62
  152
 10
77.723798984787209
 20
17.884660425692744
 11
76.423798984787027
 21
15.632994375853229
  0
LINE
  8
_0-0_
  6
DASHED2
 62
  152
 10
76.423798984787027
 20
15.632994375853229
 11
76.423798984787027
 21
10.584660425692675
  0
LINE
  8
_0-1_
  6
CENTER1
 62
  152
 10
72.223798984787209
 20
9.4302498362187066
 11
72.223798984787209
 21
19.475133488667154
  0
LINE
  8
_0-0_
  6
DASHED2
 62
  152
 10
66.723798984787095
 20
17.884660425692744
 11
68.023798984787163
 21
15.632994375853229
  0
LINE
  8
_0-0_
  6
DASHED2
 62
  152
 10
68.023798984787163
 20
15.632994375853229
 11
68.023798984787163
 21
10.584660425692675
  0
LINE
  8
_0-0_
  6
CONTINUOUS
 62
    7
 10
62.023798984787163
 20
10.084660425692675
 11
62.023798984787163
 21
17.884660425692744
  0
LINE
  8
_0-0_
  6
CONTINUOUS
 62
    7
 10
59.423798984787027
 20
17.884660425692744
 11
59.423798984787027
 21
10.084660425692675
  0
LINE
  8
_0-0_
  6
CONTINUOUS
 62
    7
 10
55.123798984787186
 20
9.2846604256927208
 11
55.123798984787186
 21
19.084660425692675
  0
LINE
  8
_0-0_
  6
CONTINUOUS
 62
    7
 10
53.923798984787027
 20
21.684660425692698
 11
50.923798984787027
 21
21.684660425692698
  0
LINE
  8
_0-0_
  6
CONTINUOUS
 62
    7
 10
50.923798984787027
 20
21.684660425692698
 11
50.923798984787027
 21
6.684660425692698
  0
LINE
  8
_0-0_
  6
CONTINUOUS
 62
    7
 10
50.923798984787027
 20
6.684660425692698
 11
53.923798984787027
 21
6.684660425692698
  0
LINE
  8
_0-0_
  6
CONTINUOUS
 62
    7
 10
50.923798984787027
 20
6.684660425692698
 11
49.423798984787027
 21
8.184660425692698
  0
LINE
  8
_0-0_
  6
CONTINUOUS
 62
    7
 10
49.423798984787027
 20
8.184660425692698
 11
49.423798984787027
 21
20.184660425692698
  0
LINE
  8
_0-0_
  6
CONTINUOUS
 62
    7
 10
49.423798984787027
 20
20.184660425692698
 11
50.923798984787027
 21
21.684660425692698
  0
LINE
  8
_0-1_
  6
CENTER1
 62
  152
 10
49.423798984787027
 20
14.184660425692698
 11
54.78744476740394
 21
14.184660425692698
  0
LINE
  8
_0-0_
  6
CONTINUOUS
 62
    7
 10
54.573798984787118
 20
14.09805788531429
 11
54.42379898478714
 21
14.011455344935769
  0
LINE
  8
_0-0_
  6
CONTINUOUS
 62
    7
 10
54.42379898478714
 20
14.357865506449514
 11
54.573798983673214
 21
14.271262966714232
  0
LINE
  8
_0-1_
  6
CENTER1
 62
  152
 10
54.523798984787163
 20
14.898533826101982
 11
54.523798984787163
 21
13.401275153250083
  0
CIRCLE
  8
_0-0_
  6
CONTINUOUS
 62
    7
 10
72.223798984787095
 20
43.184650425692212
 40
5.5
  0
ARC
  8
_0-0_
  6
CONTINUOUS
 62
    7
 10
53.923798984787027
 20
50.184650425692212
 40
0.5
 50
0
 51
90.000000000000014
  0
ARC
  8
_0-0_
  6
CONTINUOUS
 62
    7
 10
53.923798984787027
 20
36.184650425692325
 40
0.5
 50
270
 51
0
  0
CIRCLE
  8
_0-0_
  6
CONTINUOUS
 62
    7
 10
72.223798984787095
 20
43.184650425692212
 40
4.2000000000000002
  0
ARC
  8
_0-0_
  6
CONTINUOUS
 62
    7
 10
54.523798984262498
 20
40.684650426600797
 40
0.0999999994754458
 50
299.99999999993213
 51
59.999988523931208
  0
ARC
  8
_0-0_
  6
CONTINUOUS
 62
    7
 10
54.523798984262498
 20
45.684650426600797
 40
0.0999999994754462
 50
300.00000000003524
 51
59.999988523901415
  0
ARC
  8
_0-0_
  6
CONTINUOUS
 62
    7
 10
106.37126857980496
 20
38.784650425692348
 40
0.5
 50
180
 51
270
  0
ARC
  8
_0-0_
  6
CONTINUOUS
 62
    7
 10
106.37126857980496
 20
47.584650425692303
 40
0.5
 50
89.999999999998394
 51
180
  0
ARC
  8
_0-0_
  6
CONTINUOUS
 62
    7
 10
113.17126857980503
 20
47.584650425692303
 40
0.4999999999999998
 50
0
 51
90
  0
ARC
  8
_0-0_
  6
CONTINUOUS
 62
    7
 10
113.17126857980503
 20
38.784650425692462
 40
0.4999999999999998
 50
270.0000000000008
 51
0
  0
ARC
  8
_0-0_
  6
CONTINUOUS
 62
    7
 10
104.07126857928034
 20
40.684650426600797
 40
0.0999999994754458
 50
300.00000000002467
 51
59.999988523903902
  0
ARC
  8
_0-0_
  6
CONTINUOUS
 62
    7
 10
104.07126857928034
 20
45.684650426600797
 40
0.0999999994754462
 50
300.00000000000131
 51
59.999988523899198
  0
ARC
  8
_0-0_
  6
CONTINUOUS
 62
    7
 10
115.07126858032944
 20
45.684650426600797
 40
0.0999999994754462
 50
120.00001147609365
 51
240.00000000000927
  0
ARC
  8
_0-0_
  6
CONTINUOUS
 62
    7
 10
115.07126858032944
 20
40.684650426600797
 40
0.0999999994754458
 50
120.0000114761078
 51
239.99999999998698
  0
ARC
  8
_0-0_
  6
CONTINUOUS
 62
    7
 10
109.57126857983314
 20
48.684650425692325
 40
0.1
 50
209.9999992630168
 51
330.00000000000227
  0
ARC
  8
_0-0_
  6
CONTINUOUS
 62
    7
 10
109.57126857983314
 20
37.684650425692439
 40
0.1
 50
29.99999999997549
 51
150.00000073696498
  0
ARC
  8
_0-0_
  6
CONTINUOUS
 62
    7
 10
103.07126857983314
 20
49.684650425692212
 40
1
 50
90
 51
180
  0
ARC
  8
_0-0_
  6
CONTINUOUS
 62
    7
 10
103.07126857983314
 20
36.684650425692325
 40
1
 50
180
 51
269.9999999999992
  0
ARC
  8
_0-0_
  6
CONTINUOUS
 62
    7
 10
116.07126857983314
 20
36.684650425692325
 40
1
 50
270.0000000000004
 51
0
  0
ARC
  8
_0-0_
  6
CONTINUOUS
 62
    7
 10
116.07126857983314
 20
49.684650425692212
 40
1
 50
0
 51
89.999999999999602
  0
ARC
  8
_0-0_
  6
CONTINUOUS
 62
  152
 10
62.458757294721636
 20
40.156337760141128
 40
0.1865958597230809
 50
108.7809348325886
 51
251.21906516741143
  0
ARC
  8
_0-0_
  6
CONTINUOUS
 62
  152
 10
62.458757294721636
 20
42.16929159767426
 40
0.1865958597230809
 50
108.7809348325886
 51
251.21906516741143
  0
ARC
  8
_0-0_
  6
CONTINUOUS
 62
  152
 10
63.58128771339284
 20
40.030415155031505
 40
0.6437013371309405
 50
289.11812031409386
 51
343.77089632225113
  0
ARC
  8
_0-0_
  6
CONTINUOUS
 62
  152
 10
63.58128771339284
 20
40.282260365250977
 40
0.6437013371309405
 50
16.229103677748874
 51
70.881879685906171
  0
ARC
  8
_0-0_
  6
CONTINUOUS
 62
  152
 10
62.99685304772288
 20
40.156337760141128
 40
1.2407658389583818
 50
345.7307072235771
 51
14.269292776422903
  0
ARC
  8
_0-0_
  6
CONTINUOUS
 62
  152
 10
63.441346766178413
 20
40.98457242757172
 40
1.0420957322474584
 50
269.28077569259489
 51
285.35525825784566
  0
ARC
  8
_0-0_
  6
CONTINUOUS
 62
  152
 10
63.657222369629608
 20
40.156337760141128
 40
0.1865958597230809
 50
288.78093483258857
 51
71.219065167411415
  0
ARC
  8
_0-0_
  6
CONTINUOUS
 62
  152
 10
63.441346766178413
 20
39.328103092710762
 40
1.0420957322474584
 50
74.644741742154338
 51
90.719224307405113
  0
ARC
  8
_0-0_
  6
CONTINUOUS
 62
  152
 10
62.674632898173058
 20
39.328103092710762
 40
1.0420957322474584
 50
89.280775692594887
 51
105.35525825784566
  0
ARC
  8
_0-0_
  6
CONTINUOUS
 62
  152
 10
62.674632898173058
 20
40.98457242757172
 40
1.0420957322474584
 50
254.64474174215434
 51
270.71922430740511
  0
ARC
  8
_0-0_
  6
CONTINUOUS
 62
  152
 10
63.057989832175736
 20
42.0193133645231
 40
2.6988596375595528
 50
254.21600247589294
 51
285.78399752410706
  0
ARC
  8
_0-0_
  6
CONTINUOUS
 62
  152
 10
62.534691950958631
 20
40.282260365250977
 40
0.6437013371309405
 50
109.1181203140938
 51
163.77089632225113
  0
ARC
  8
_0-0_
  6
CONTINUOUS
 62
  152
 10
62.534691950958631
 20
40.030415155031505
 40
0.6437013371309405
 50
196.22910367774887
 51
250.88187968590617
  0
ARC
  8
_0-0_
  6
CONTINUOUS
 62
  152
 10
63.119126616628591
 20
40.156337760141128
 40
1.2407658389583818
 50
165.7307072235771
 51
194.2692927764229
  0
ARC
  8
_0-0_
  6
CONTINUOUS
 62
  152
 10
63.057989832170961
 20
46.786130287235665
 40
6.8543313185373709
 50
266.78919008197266
 51
273.21080991802734
  0
ARC
  8
_0-0_
  6
CONTINUOUS
 62
  152
 10
63.057989832170961
 20
33.526545233046818
 40
6.8543313185373709
 50
86.789190081972663
 51
93.210809918027337
  0
ARC
  8
_0-0_
  6
CONTINUOUS
 62
  152
 10
63.057989832175736
 20
38.293362155759155
 40
2.6988596375595528
 50
74.21600247589295
 51
105.78399752410705
  0
ARC
  8
_0-0_
  6
CONTINUOUS
 62
  152
 10
63.58128771339284
 20
42.295214202784109
 40
0.6437013371309405
 50
16.229103677748874
 51
70.881879685906171
  0
ARC
  8
_0-0_
  6
CONTINUOUS
 62
  152
 10
62.99685304772288
 20
42.16929159767426
 40
1.2407658389583818
 50
345.7307072235771
 51
14.269292776422903
  0
ARC
  8
_0-0_
  6
CONTINUOUS
 62
  152
 10
63.057989832175736
 20
44.032267202056346
 40
2.6988596375595528
 50
279.86632271982091
 51
285.78399752410706
  0
ARC
  8
_0-0_
  6
CONTINUOUS
 62
  152
 10
63.58128771339284
 20
42.043368992564751
 40
0.6437013371309405
 50
289.11812031409386
 51
343.77089632225113
  0
ARC
  8
_0-0_
  6
CONTINUOUS
 62
  152
 10
63.441346766178413
 20
42.997526265104852
 40
1.0420957322474584
 50
274.35281000280088
 51
285.35525825784566
  0
ARC
  8
_0-0_
  6
CONTINUOUS
 62
  152
 10
63.441346766178413
 20
41.341056930244008
 40
1.0420957322474584
 50
74.644741742154338
 51
90.719224307405113
  0
ARC
  8
_0-0_
  6
CONTINUOUS
 62
  152
 10
63.657222369629835
 20
42.16929159767426
 40
0.1865958597230809
 50
288.78093483258857
 51
71.219065167411415
  0
ARC
  8
_0-0_
  6
CONTINUOUS
 62
  152
 10
62.674632898173058
 20
41.341056930244008
 40
1.0420957322474584
 50
89.280775692594887
 51
105.35525825784566
  0
ARC
  8
_0-0_
  6
CONTINUOUS
 62
  152
 10
62.674632898173286
 20
42.997526265104852
 40
1.0420957322474584
 50
254.64474174215434
 51
271.00007560087494
  0
ARC
  8
_0-0_
  6
CONTINUOUS
 62
  152
 10
63.057989832175736
 20
44.032267202056346
 40
2.6988596375595528
 50
254.21600247589294
 51
262.22375855280194
  0
ARC
  8
_0-0_
  6
CONTINUOUS
 62
  152
 10
62.534691950958631
 20
42.043368992564751
 40
0.6437013371309405
 50
196.22910367774887
 51
250.88187968590617
  0
ARC
  8
_0-0_
  6
CONTINUOUS
 62
  152
 10
63.119126616628591
 20
42.16929159767426
 40
1.2407658389583818
 50
165.7307072235771
 51
194.2692927764229
  0
ARC
  8
_0-0_
  6
CONTINUOUS
 62
  152
 10
62.534691950958631
 20
42.295214202784109
 40
0.6437013371309405
 50
109.1181203140938
 51
163.77089632225113
  0
ARC
  8
_0-0_
  6
CONTINUOUS
 62
  152
 10
63.057989832170961
 20
35.53949907057995
 40
6.8543313185373709
 50
86.789190081972663
 51
93.210809918027337
  0
ARC
  8
_0-0_
  6
CONTINUOUS
 62
  152
 10
63.057989832175736
 20
40.306315993292515
 40
2.6988596375595528
 50
74.21600247589295
 51
105.78399752410705
  0
ARC
  8
_0-0_
  6
CONTINUOUS
 62
  152
 10
61.923798984787027
 20
39.184650425692098
 40
0.5
 50
180
 51
270
  0
ARC
  8
_0-0_
  6
CONTINUOUS
 62
  152
 10
64.123798984787072
 20
39.184650425692098
 40
0.5
 50
270
 51
0
  0
ARC
  8
_0-0_
  6
CONTINUOUS
 62
  152
 10
64.123798984787072
 20
47.184650425692098
 40
0.5
 50
0
 51
90.000000000000014
  0
ARC
  8
_0-0_
  6
CONTINUOUS
 62
  152
 10
61.923798984787027
 20
47.184650425692098
 40
0.5
 50
90
 51
180
  0
ARC
  8
_0-0_
  6
CONTINUOUS
 62
    7
 10
79.711332376435394
 20
50.184650425692212
 40
0.5
 50
60.000000000000036
 51
89.999999999999943
  0
ARC
  8
_0-0_
  6
CONTINUOUS
 62
    7
 10
81.923798984787027
 20
48.907282233787328
 40
0.5
 50
0
 51
60.000000000000085
  0
ARC
  8
_0-0_
  6
CONTINUOUS
 62
    7
 10
81.923798984787027
 20
37.462018617597096
 40
0.5
 50
299.99999999999989
 51
0
  0
ARC
  8
_0-0_
  6
CONTINUOUS
 62
    7
 10
79.711332376435394
 20
36.184650425692212
 40
0.5
 50
270
 51
299.99999999999994
  0
ARC
  8
_0-0_
  6
CONTINUOUS
 62
    7
 10
53.923798984787027
 20
21.184660425692698
 40
0.5
 50
0
 51
90.000000000000014
  0
ARC
  8
_0-0_
  6
CONTINUOUS
 62
    7
 10
53.923798984787027
 20
7.184660425692698
 40
0.5
 50
270
 51
0
  0
ARC
  8
_0-0_
  6
CONTINUOUS
 62
    7
 10
81.423798984787027
 20
16.884660425692744
 40
1
 50
0
 51
90.000000000000014
  0
ARC
  8
_0-0_
  6
CONTINUOUS
 62
    7
 10
81.423798984787027
 20
11.084660425692675
 40
1
 50
270
 51
0
  0
ARC
  8
_0-0_
  6
CONTINUOUS
 62
    7
 10
66.630905765973694
 20
8.8846604256927435
 40
0.5
 50
225.00000000000037
 51
270
  0
ARC
  8
_0-0_
  6
CONTINUOUS
 62
    7
 10
77.816692203600496
 20
8.8846604256927435
 40
0.5
 50
270
 51
314.99999999999966
  0
ARC
  8
_0-0_
  6
CONTINUOUS
 62
    7
 10
54.523798984787163
 20
14.184660425692698
 40
0.1
 50
300.00000000000784
 51
60.000000736964999
  0
ARC
  8
_0-0_
  6
DASHED2
 62
  152
 10
67.523798984787163
 20
10.584660425692675
 40
0.5
 50
270
 51
0
  0
ARC
  8
_0-0_
  6
DASHED2
 62
  152
 10
76.923798984787027
 20
10.584660425692675
 40
0.5
 50
180
 51
270
  0
ARC
  8
_0-0_
  6
CONTINUOUS
 62
    7
 10
11.920815639110742
 20
49.684650425692212
 40
1
 50
90
 51
180
  0
ARC
  8
_0-0_
  6
CONTINUOUS
 62
    7
 10
24.920815639110742
 20
49.684650425692212
 40
1
 50
0
 51
90.000000000000014
  0
ARC
  8
_0-0_
  6
CONTINUOUS
 62
    7
 10
24.920815639110742
 20
36.684650425692212
 40
1
 50
270
 51
0
  0
ARC
  8
_0-0_
  6
CONTINUOUS
 62
    7
 10
11.920815639110742
 20
36.684650425692212
 40
1
 50
180
 51
270
  0
ARC
  8
_0-0_
  6
CONTINUOUS
 62
    7
 10
116.57126857983309
 20
17.384660425692744
 40
0.5
 50
0
 51
90
  0
ARC
  8
_0-0_
  6
CONTINUOUS
 62
    7
 10
113.48259344523836
 20
9.5846604256925616
 40
0.5
 50
29.999999999999964
 51
90.000000000000028
  0
ARC
  8
_0-0_
  6
CONTINUOUS
 62
    7
 10
105.6599437144281
 20
9.5846604256925616
 40
0.5
 50
90
 51
149.99999999999994
  0
ARC
  8
_0-0_
  6
CONTINUOUS
 62
    7
 10
102.57126857983314
 20
17.384660425692744
 40
0.5
 50
90
 51
180
  0
ARC
  8
_0-0_
  6
CONTINUOUS
 62
    7
 10
102.57126857983314
 20
8.8846604256927435
 40
0.5
 50
180
 51
270
  0
ARC
  8
_0-0_
  6
CONTINUOUS
 62
    7
 10
104.10109798761607
 20
8.8846604256927435
 40
0.5
 50
270
 51
329.99999999999778
  0
ARC
  8
_0-0_
  6
CONTINUOUS
 62
    7
 10
115.04143917205027
 20
8.8846604256927435
 40
0.5
 50
209.9999999999998
 51
270
  0
ARC
  8
_0-0_
  6
CONTINUOUS
 62
    7
 10
116.57126857983309
 20
8.8846604256927435
 40
0.5
 50
270
 51
0
  0
TEXT
  8
_0-f_
 62
    7
 10
14.295891934386646
 20
10.966418782978337
 40
4.2999999999999998
 41
0.744186046511628
 50
0
  1
TL4E
  0
ENDSEC
  0
EOF
