  0
SECTION
  2
HEADER
  9
$ACADVER
  1
AC1009
  9
$INSBASE
 10
0
 20
0
 30
0
  9
$EXTMIN
 10
0
 20
0
  9
$EXTMAX
 10
1189
 20
841
  9
$LIMMIN
 10
0
 20
0
  9
$LIMMAX
 10
1189
 20
841
  9
$LTSCALE
 40
1
  0
ENDSEC
  0
SECTION
  2
TABLES
  0
TABLE
  2
LTYPE
 70
     9
  0
LTYPE
  2
CONTINUOUS
 70
    64
  3
実線
 72
    65
 73
     0
 40
0.0
  0
LTYPE
  2
DASHED1
 70
    64
  3
--  --  --  --  --  --  --  --  
 72
    65
 73
     2
 40
2.5
 49
1.25
 49
-1.25
  0
LTYPE
  2
DASHED2
 70
    64
  3
----    ----    ----    ----    
 72
    65
 73
     2
 40
5.0
 49
2.5
 49
-2.5
  0
LTYPE
  2
DASHED3
 70
    64
  3
------  ------  ------  ------  
 72
    65
 73
     2
 40
5.0
 49
3.75
 49
-1.25
  0
LTYPE
  2
CENTER1
 70
    64
  3
----- - ----- - ----- - ----- - 
 72
    65
 73
     4
 40
10.0
 49
6.25
 49
-1.25
 49
1.25
 49
-1.25
  0
LTYPE
  2
CENTER2
 70
    64
  3
----------  --  ----------  --  
 72
    65
 73
     4
 40
20.0
 49
12.5
 49
-2.5
 49
2.5
 49
-2.5
  0
LTYPE
  2
PHANTOM1
 70
    64
  3
--- - - --- - - --- - - --- - - 
 72
    65
 73
     6
 40
10.0
 49
3.25
 49
-1.25
 49
1.25
 49
-1.25
 49
1.25
 49
-1.25
  0
LTYPE
  2
PHANTOM2
 70
    64
  3
--------  -  -  --------  -  -  
 72
    65
 73
     6
 40
20.0
 49
10.0
 49
-2.5
 49
1.25
 49
-2.5
 49
1.25
 49
-2.5
  0
LTYPE
  2
DOT
 70
    64
  3
-   -   -   -   -   -   -   -   
 72
    65
 73
     2
 40
2.5
 49
0.625
 49
-1.875
  0
LTYPE
  2
DUMMY
 70
    64
  3
ダミー
 72
    65
 73
     0
 40
0.0
  0
LTYPE
  2
RAND1
 70
    64
  3
ランダム線1
 72
    65
 73
     4
 40
10.0
 49
1.0
 49
-2.0
 49
3.0
 49
-4.0
  0
LTYPE
  2
RAND2
 70
    64
  3
ランダム線2
 72
    65
 73
     4
 40
14.0
 49
2.0
 49
-3.0
 49
4.0
 49
-5.0
  0
LTYPE
  2
RAND3
 70
    64
  3
ランダム線3
 72
    65
 73
     4
 40
18.0
 49
3.0
 49
-4.0
 49
5.0
 49
-6.0
  0
LTYPE
  2
RAND4
 70
    64
  3
ランダム線4
 72
    65
 73
     4
 40
22.0
 49
4.0
 49
-5.0
 49
6.0
 49
-7.0
  0
LTYPE
  2
RAND5
 70
    64
  3
ランダム線5
 72
    65
 73
     4
 40
26.0
 49
5.0
 49
-6.0
 49
7.0
 49
-8.0
  0
LTYPE
  2
LONG1
 70
    64
  3
----------  --  ----------  --  
 72
    65
 73
     4
 40
40.0
 49
32.5
 49
-2.5
 49
2.5
 49
-2.5
  0
LTYPE
  2
LONG2
 70
    64
  3
--------  -  -  --------  -  -  
 72
    65
 73
     6
 40
40.0
 49
30.0
 49
-2.5
 49
1.25
 49
-2.5
 49
1.25
 49
-2.5
  0
LTYPE
  2
LONG3
 70
    64
  3
+++++++++++++++..+++++++++++++++
 72
    65
 73
     2
 40
40.0
 49
37.5
 49
-2.5
  0
LTYPE
  2
LONG4
 70
    64
  3
+++++++++++++++..+++++++++++++++
 72
    65
 73
     2
 40
80.0
 49
75.0
 49
-5.0
  0
LTYPE
  2
LONG5
 70
    64
  3
----------  --  ----------  --  
 72
    65
 73
     4
 40
60.0
 49
37.5
 49
-7.5
 49
7.5
 49
-7.5
  0
LTYPE
  2
dashed
 70
   64
  3
-------   -------------   ------
 72
   65
 73
    2
 40
7.5
 49
6
 49
-1.5
  0
LTYPE
  2
dashed_spaced
 70
   64
  3
----        --------        ----
 72
   65
 73
    2
 40
12
 49
6
 49
-6
  0
LTYPE
  2
long_dashed_dotted
 70
   64
  3
------------- --- --------------
 72
   65
 73
    4
 40
15.25
 49
12
 49
-1.5
 49
0.25
 49
-1.5
  0
LTYPE
  2
long_dashed_double-dotted
 70
   64
  3
----------- --- --- ------------
 72
   65
 73
    6
 40
17
 49
12
 49
-1.5
 49
0.25
 49
-1.5
 49
0.25
 49
-1.5
  0
LTYPE
  2
long_dashed_triplicate-dotted
 70
   64
  3
--------- --- --- --- ----------
 72
   65
 73
    8
 40
18.75
 49
12
 49
-1.5
 49
0.25
 49
-1.5
 49
0.25
 49
-1.5
 49
0.25
 49
-1.5
  0
LTYPE
  2
dotted
 70
   64
  3
   -       -       -       -    
 72
   65
 73
    2
 40
1.75
 49
0.25
 49
-1.5
  0
LTYPE
  2
chain
 70
   64
  3
-------------- -- --------------
 72
   65
 73
    4
 40
18.5
 49
12
 49
-1.5
 49
3.5
 49
-1.5
  0
LTYPE
  2
chain_double_dash
 70
   64
  3
------------ -- -- -------------
 72
   65
 73
    6
 40
23.5
 49
12
 49
-1.5
 49
3.5
 49
-1.5
 49
3.5
 49
-1.5
  0
LTYPE
  2
dashed_dotted
 70
   64
  3
-----------     -     ----------
 72
   65
 73
    4
 40
9.25
 49
6
 49
-1.5
 49
0.25
 49
-1.5
  0
LTYPE
  2
double-dashed_dotted
 70
   64
  3
------   -----------   -   -----
 72
   65
 73
    6
 40
16.75
 49
6
 49
-1.5
 49
6
 49
-1.5
 49
0.25
 49
-1.5
  0
LTYPE
  2
dashed_double-dotted
 70
   64
  3
---------    -    -    ---------
 72
   65
 73
    6
 40
11
 49
6
 49
-1.5
 49
0.25
 49
-1.5
 49
0.25
 49
-1.5
  0
LTYPE
  2
double-dashed_double-dotted
 70
   64
  3
-----   ---------   -   -   ----
 72
   65
 73
    8
 40
18.5
 49
6
 49
-1.5
 49
6
 49
-1.5
 49
0.25
 49
-1.5
 49
0.25
 49
-1.5
  0
LTYPE
  2
dashed_triplicate-dotted
 70
   64
  3
-------    -    -    -    ------
 72
   65
 73
    8
 40
12.75
 49
6
 49
-1.5
 49
0.25
 49
-1.5
 49
0.25
 49
-1.5
 49
0.25
 49
-1.5
  0
LTYPE
  2
double-dashed_triplicate-dotted
 70
   64
  3
-----  ---------  -  -  -  -----
 72
   65
 73
   10
 40
20.25
 49
6
 49
-1.5
 49
6
 49
-1.5
 49
0.25
 49
-1.5
 49
0.25
 49
-1.5
 49
0.25
 49
-1.5
  0
LTYPE
  2
undefined
 70
   64
  3
--------------------------------
 72
   65
 73
    0
 40
0
  0
ENDTAB
  0
TABLE
  2
STYLE
  5
3
100
AcDbSymbolTable
 70
     1
  0
STYLE
  5
10
100
AcDbSymbolTableRecord
100
AcDbTextStyleTableRecord
  2
STANDARD
 70
     0
 40
0.0
 41
1.0
 50
0.0
 71
     0
 42
0.2
  3
txt
  4
bigfont.shx
  0
STYLE
  5
26
100
AcDbSymbolTableRecord
100
AcDbTextStyleTableRecord
  2
TATEGAKI
 70
    68
 40
0.0
 41
1.0
 50
0.0
 71
     0
 42
1.0
  3
txt
  4
bigfont.shx
  0
ENDTAB
  0
TABLE
  2
LAYER
 70
    4
  0
LAYER
  2
_0-0_
 70
   64
 62
    7
  6
CONTINUOUS
  0
LAYER
  2
_0-1_
 70
   64
 62
    7
  6
CONTINUOUS
  0
LAYER
  2
_0-f_
 70
   64
 62
    7
  6
CONTINUOUS
  0
LAYER
  2
ADD_LINE
 70
   64
 62
    7
  6
CONTINUOUS
  0
ENDTAB
  0
ENDSEC
  0
SECTION
  2
BLOCKS
  0
ENDSEC
  0
SECTION
  2
ENTITIES
  0
TEXT
  8
_0-f_
 62
    7
 10
1.2933975420338584
 20
1.8416436909901108
 40
4.2999999999999998
 41
0.744186046511628
 50
0
  1
TL2X
  0
LINE
  8
_0-0_
  6
CONTINUOUS
 62
    7
 10
36.318039606501657
 20
27.546909436486544
 11
36.560678231002271
 21
27.546909436486544
  0
LINE
  8
_0-0_
  6
CONTINUOUS
 62
    7
 10
36.560678231002271
 20
27.546909436486544
 11
36.560678231002271
 21
26.808977671602861
  0
LINE
  8
_0-0_
  6
CONTINUOUS
 62
    7
 10
36.560678231002271
 20
26.808977671602861
 11
36.876307773628128
 21
26.808977671602861
  0
LINE
  8
_0-0_
  6
CONTINUOUS
 62
    7
 10
36.876307773628128
 20
26.808977671602861
 11
36.876307773628128
 21
27.476540611585165
  0
LINE
  8
_0-0_
  6
CONTINUOUS
 62
    7
 10
36.876307773628128
 20
27.476540611585165
 11
37.104075158948604
 21
27.476540611585165
  0
LINE
  8
_0-0_
  6
CONTINUOUS
 62
    7
 10
37.104075158948604
 20
27.476540611585165
 11
37.104075158948604
 21
26.808977671602861
  0
LINE
  8
_0-0_
  6
CONTINUOUS
 62
    7
 10
37.104075158948604
 20
26.808977671602861
 11
37.436441810381325
 21
26.808977671602861
  0
LINE
  8
_0-0_
  6
CONTINUOUS
 62
    7
 10
37.436441810381325
 20
26.808977671602861
 11
37.436441810381325
 21
27.546909436486544
  0
LINE
  8
_0-0_
  6
CONTINUOUS
 62
    7
 10
37.436441810381325
 20
27.546909436486544
 11
37.67908043490138
 21
27.546909436486544
  0
LINE
  8
_0-0_
  6
CONTINUOUS
 62
    7
 10
37.67908043490138
 20
27.546909436486544
 11
37.67908043490138
 21
26.403137603250798
  0
LINE
  8
_0-0_
  6
CONTINUOUS
 62
    7
 10
37.67908043490138
 20
26.403137603250798
 11
36.318039606501657
 21
26.403137603250798
  0
LINE
  8
_0-0_
  6
CONTINUOUS
 62
    7
 10
36.318039606501657
 20
26.403137603250798
 11
36.318039606501657
 21
27.546909436486544
  0
LINE
  8
_0-0_
  6
CONTINUOUS
 62
    7
 10
36.724515744181758
 20
28.589663065672539
 11
36.724515744181758
 21
29.00574358258234
  0
LINE
  8
_0-0_
  6
CONTINUOUS
 62
    7
 10
37.214956157541792
 20
29.01647917970331
 11
37.214956157541792
 21
28.59168765533343
  0
LINE
  8
_0-0_
  6
CONTINUOUS
 62
    7
 10
37.436441810381325
 20
26.08890055830841
 11
37.67908043490138
 21
26.08890055830841
  0
LINE
  8
_0-0_
  6
CONTINUOUS
 62
    7
 10
37.67908043490138
 20
26.08890055830841
 11
37.67908043490138
 21
24.94542633725689
  0
LINE
  8
_0-0_
  6
CONTINUOUS
 62
    7
 10
37.67908043490138
 20
24.94542633725689
 11
36.318039606501657
 21
24.94542633725689
  0
LINE
  8
_0-0_
  6
CONTINUOUS
 62
    7
 10
36.318039606501657
 20
24.94542633725689
 11
36.318039606501657
 21
25.352710759976958
  0
LINE
  8
_0-0_
  6
CONTINUOUS
 62
    7
 10
36.318039606501657
 20
25.352710759976958
 11
37.436441810381325
 21
25.352710759976958
  0
LINE
  8
_0-0_
  6
CONTINUOUS
 62
    7
 10
37.436441810381325
 20
25.352710759976958
 11
37.436441810381325
 21
26.08890055830841
  0
LINE
  8
_0-0_
  6
CONTINUOUS
 62
    7
 10
36.563525449374083
 20
27.917680072253688
 11
36.837382640334226
 21
27.85508592805536
  0
LINE
  8
_0-0_
  6
CONTINUOUS
 62
    7
 10
36.837382640334226
 20
27.85508592805536
 11
37.116137124437273
 21
27.850508492137124
  0
LINE
  8
_0-0_
  6
CONTINUOUS
 62
    7
 10
37.116137124437273
 20
27.850508492137124
 11
37.39131908773993
 21
27.904086847573012
  0
LINE
  8
_0-0_
  6
CONTINUOUS
 62
    7
 10
37.39131908773993
 20
27.904086847573012
 11
37.433594592029067
 21
27.917680072253688
  0
LINE
  8
_0-0_
  6
CONTINUOUS
 62
    7
 10
37.226062399501416
 20
28.287700962284987
 11
36.771057641907191
 21
28.287700962284987
  0
LINE
  8
_0-0_
  6
CONTINUOUS
 62
    7
 10
37.674914929676561
 20
28.222247055858702
 11
37.650838455827397
 21
28.147871706132037
  0
LINE
  8
_0-0_
  6
CONTINUOUS
 62
    7
 10
37.650838455827397
 20
28.147871706132037
 11
37.616365137762614
 21
28.079643288058492
  0
LINE
  8
_0-0_
  6
CONTINUOUS
 62
    7
 10
37.616365137762614
 20
28.079643288058492
 11
37.572542429807299
 21
28.019634887595998
  0
LINE
  8
_0-0_
  6
CONTINUOUS
 62
    7
 10
37.572542429807299
 20
28.019634887595998
 11
37.52070186276751
 21
27.969669829626866
  0
LINE
  8
_0-0_
  6
CONTINUOUS
 62
    7
 10
37.52070186276751
 20
27.969669829626866
 11
37.46241858604003
 21
27.931266277154009
  0
LINE
  8
_0-0_
  6
CONTINUOUS
 62
    7
 10
37.46241858604003
 20
27.931266277154009
 11
37.433594592029067
 21
27.917680072253688
  0
LINE
  8
_0-0_
  6
CONTINUOUS
 62
    7
 10
37.674914929676333
 20
28.657196059834632
 11
37.695559218274184
 21
28.505405413970095
  0
LINE
  8
_0-0_
  6
CONTINUOUS
 62
    7
 10
37.695559218274184
 20
28.505405413970095
 11
37.693924732873029
 21
28.351618997374885
  0
LINE
  8
_0-0_
  6
CONTINUOUS
 62
    7
 10
37.693924732873029
 20
28.351618997374885
 11
37.674914929676333
 21
28.222247055858645
  0
LINE
  8
_0-0_
  6
CONTINUOUS
 62
    7
 10
37.433594592029067
 20
28.961763043439646
 11
37.494281786428019
 21
28.929159366825957
  0
LINE
  8
_0-0_
  6
CONTINUOUS
 62
    7
 10
37.494281786428019
 20
28.929159366825957
 11
37.549329031789512
 21
28.884405148462065
  0
LINE
  8
_0-0_
  6
CONTINUOUS
 62
    7
 10
37.549329031789512
 20
28.884405148462065
 11
37.597063745418836
 21
28.82886022262619
  0
LINE
  8
_0-0_
  6
CONTINUOUS
 62
    7
 10
37.597063745418836
 20
28.82886022262619
 11
37.63603553219707
 21
28.764212293782634
  0
LINE
  8
_0-0_
  6
CONTINUOUS
 62
    7
 10
37.63603553219707
 20
28.764212293782634
 11
37.665060254103651
 21
28.692425656535988
  0
LINE
  8
_0-0_
  6
CONTINUOUS
 62
    7
 10
37.665060254103651
 20
28.692425656535988
 11
37.674914929676561
 21
28.657196059834632
  0
LINE
  8
_0-0_
  6
CONTINUOUS
 62
    7
 10
37.433594592029067
 20
28.961763043439646
 11
37.214956157541565
 21
29.016479179703367
  0
LINE
  8
_0-0_
  6
CONTINUOUS
 62
    7
 10
37.389260584470094
 20
28.565347038499681
 11
37.406898606656341
 21
28.556020296521694
  0
LINE
  8
_0-0_
  6
CONTINUOUS
 62
    7
 10
37.406898606656341
 20
28.556020296521694
 11
37.422919024529847
 21
28.543159876219079
  0
LINE
  8
_0-0_
  6
CONTINUOUS
 62
    7
 10
37.422919024529847
 20
28.543159876219079
 11
37.436835065800096
 21
28.527156534954997
  0
LINE
  8
_0-0_
  6
CONTINUOUS
 62
    7
 10
37.436835065800096
 20
28.527156534954997
 11
37.448223898595188
 21
28.508496526155739
  0
LINE
  8
_0-0_
  6
CONTINUOUS
 62
    7
 10
37.448223898595188
 20
28.508496526155739
 11
37.456739478993541
 21
28.487746824746182
  0
LINE
  8
_0-0_
  6
CONTINUOUS
 62
    7
 10
37.456739478993541
 20
28.487746824746182
 11
37.462123065393598
 21
28.465537899903893
  0
LINE
  8
_0-0_
  6
CONTINUOUS
 62
    7
 10
37.462123065393598
 20
28.465537899903893
 11
37.464211080247196
 21
28.442544558571853
  0
LINE
  8
_0-0_
  6
CONTINUOUS
 62
    7
 10
37.464211080247196
 20
28.442544558571853
 11
37.462940080279395
 21
28.419465441791317
  0
LINE
  8
_0-0_
  6
CONTINUOUS
 62
    7
 10
37.462940080279395
 20
28.419465441791317
 11
37.458348684181146
 21
28.397001796847007
  0
LINE
  8
_0-0_
  6
CONTINUOUS
 62
    7
 10
37.458348684181146
 20
28.397001796847007
 11
37.450576399199463
 21
28.375836170223465
  0
LINE
  8
_0-0_
  6
CONTINUOUS
 62
    7
 10
37.450576399199463
 20
28.375836170223465
 11
37.439859382280702
 21
28.356611668775258
  0
LINE
  8
_0-0_
  6
CONTINUOUS
 62
    7
 10
37.439859382280702
 20
28.356611668775258
 11
37.426523264560615
 21
28.339912419250822
  0
LINE
  8
_0-0_
  6
CONTINUOUS
 62
    7
 10
37.426523264560615
 20
28.339912419250822
 11
37.410973257227852
 21
28.326245819896826
  0
LINE
  8
_0-0_
  6
CONTINUOUS
 62
    7
 10
37.410973257227852
 20
28.326245819896826
 11
37.393681839386545
 21
28.316027123418905
  0
LINE
  8
_0-0_
  6
CONTINUOUS
 62
    7
 10
37.393681839386545
 20
28.316027123418905
 11
37.389260584470094
 21
28.314096077193597
  0
LINE
  8
_0-0_
  6
CONTINUOUS
 62
    7
 10
37.214956157541678
 20
28.591687655333601
 11
37.322337955100238
 21
28.58267718607442
  0
LINE
  8
_0-0_
  6
CONTINUOUS
 62
    7
 10
37.322337955100238
 20
28.58267718607442
 11
37.389260584470321
 21
28.565347038499681
  0
LINE
  8
_0-0_
  6
CONTINUOUS
 62
    7
 10
37.389260584470321
 20
28.31409607719354
 11
37.283369872251569
 21
28.29087713289033
  0
LINE
  8
_0-0_
  6
CONTINUOUS
 62
    7
 10
37.283369872251569
 20
28.29087713289033
 11
37.217982850126532
 21
28.287700962284873
  0
LINE
  8
_0-0_
  6
CONTINUOUS
 62
    7
 10
36.607859456933056
 20
28.314096077193597
 11
36.590221434746809
 21
28.323422819171583
  0
LINE
  8
_0-0_
  6
CONTINUOUS
 62
    7
 10
36.590221434746809
 20
28.323422819171583
 11
36.574201016873303
 21
28.336283239474255
  0
LINE
  8
_0-0_
  6
CONTINUOUS
 62
    7
 10
36.574201016873303
 20
28.336283239474255
 11
36.560284975602826
 21
28.35228658073828
  0
LINE
  8
_0-0_
  6
CONTINUOUS
 62
    7
 10
36.560284975602826
 20
28.35228658073828
 11
36.548896142807848
 21
28.370946589537539
  0
LINE
  8
_0-0_
  6
CONTINUOUS
 62
    7
 10
36.548896142807848
 20
28.370946589537539
 11
36.540380562409609
 21
28.391696290947039
  0
LINE
  8
_0-0_
  6
CONTINUOUS
 62
    7
 10
36.540380562409609
 20
28.391696290947039
 11
36.534996976009324
 21
28.413905215789384
  0
LINE
  8
_0-0_
  6
CONTINUOUS
 62
    7
 10
36.534996976009324
 20
28.413905215789384
 11
36.532908961155727
 21
28.436898557121424
  0
LINE
  8
_0-0_
  6
CONTINUOUS
 62
    7
 10
36.532908961155727
 20
28.436898557121424
 11
36.534179961123527
 21
28.45997767390196
  0
LINE
  8
_0-0_
  6
CONTINUOUS
 62
    7
 10
36.534179961123527
 20
28.45997767390196
 11
36.538771357221776
 21
28.48244131884627
  0
LINE
  8
_0-0_
  6
CONTINUOUS
 62
    7
 10
36.538771357221776
 20
28.48244131884627
 11
36.54654364220346
 21
28.503606945469869
  0
LINE
  8
_0-0_
  6
CONTINUOUS
 62
    7
 10
36.54654364220346
 20
28.503606945469869
 11
36.557260659122448
 21
28.522831446918019
  0
LINE
  8
_0-0_
  6
CONTINUOUS
 62
    7
 10
36.557260659122448
 20
28.522831446918019
 11
36.570596776842422
 21
28.539530696442398
  0
LINE
  8
_0-0_
  6
CONTINUOUS
 62
    7
 10
36.570596776842422
 20
28.539530696442398
 11
36.586146784175071
 21
28.553197295796451
  0
LINE
  8
_0-0_
  6
CONTINUOUS
 62
    7
 10
36.586146784175071
 20
28.553197295796451
 11
36.603438202016378
 21
28.563415992274372
  0
LINE
  8
_0-0_
  6
CONTINUOUS
 62
    7
 10
36.603438202016378
 20
28.563415992274372
 11
36.607859456933056
 21
28.565347038499681
  0
LINE
  8
_0-0_
  6
CONTINUOUS
 62
    7
 10
36.779137191276504
 20
28.287700962284873
 11
36.671793489736501
 21
28.297342955074328
  0
LINE
  8
_0-0_
  6
CONTINUOUS
 62
    7
 10
36.671793489736501
 20
28.297342955074328
 11
36.607859456932601
 21
28.31409607719354
  0
LINE
  8
_0-0_
  6
CONTINUOUS
 62
    7
 10
36.607859456932601
 20
28.565347038499681
 11
36.713750169151353
 21
28.588565982802947
  0
LINE
  8
_0-0_
  6
CONTINUOUS
 62
    7
 10
36.713750169151353
 20
28.588565982802947
 11
36.724515744181417
 21
28.589663065672653
  0
LINE
  8
_0-0_
  6
CONTINUOUS
 62
    7
 10
36.322205111726817
 20
28.657196059834632
 11
36.34628158557598
 21
28.731571409561298
  0
LINE
  8
_0-0_
  6
CONTINUOUS
 62
    7
 10
36.34628158557598
 20
28.731571409561298
 11
36.380754903640764
 21
28.799799827634843
  0
LINE
  8
_0-0_
  6
CONTINUOUS
 62
    7
 10
36.380754903640764
 20
28.799799827634843
 11
36.424577611596078
 21
28.859808228097336
  0
LINE
  8
_0-0_
  6
CONTINUOUS
 62
    7
 10
36.424577611596078
 20
28.859808228097336
 11
36.476418178635868
 21
28.909773286066468
  0
LINE
  8
_0-0_
  6
CONTINUOUS
 62
    7
 10
36.476418178635868
 20
28.909773286066468
 11
36.534701455363347
 21
28.948176838539325
  0
LINE
  8
_0-0_
  6
CONTINUOUS
 62
    7
 10
36.534701455363347
 20
28.948176838539325
 11
36.56352544937431
 21
28.961763043439646
  0
LINE
  8
_0-0_
  6
CONTINUOUS
 62
    7
 10
36.724515744181645
 20
29.005743582582284
 11
36.563525449374083
 21
28.961763043439646
  0
LINE
  8
_0-0_
  6
CONTINUOUS
 62
    7
 10
36.322205111726589
 20
28.222247055858645
 11
36.301560823128966
 21
28.374037701723182
  0
LINE
  8
_0-0_
  6
CONTINUOUS
 62
    7
 10
36.301560823128966
 20
28.374037701723182
 11
36.303195308530121
 21
28.527824118318335
  0
LINE
  8
_0-0_
  6
CONTINUOUS
 62
    7
 10
36.303195308530121
 20
28.527824118318335
 11
36.322205111726589
 21
28.657196059834632
  0
LINE
  8
_0-0_
  6
CONTINUOUS
 62
    7
 10
36.56352544937431
 20
27.917680072253688
 11
36.502838254975359
 21
27.950283748867378
  0
LINE
  8
_0-0_
  6
CONTINUOUS
 62
    7
 10
36.502838254975359
 20
27.950283748867378
 11
36.447791009613866
 21
27.995037967231269
  0
LINE
  8
_0-0_
  6
CONTINUOUS
 62
    7
 10
36.447791009613866
 20
27.995037967231269
 11
36.400056295984541
 21
28.050582893067144
  0
LINE
  8
_0-0_
  6
CONTINUOUS
 62
    7
 10
36.400056295984541
 20
28.050582893067144
 11
36.361084509206307
 21
28.1152308219107
  0
LINE
  8
_0-0_
  6
CONTINUOUS
 62
    7
 10
36.361084509206307
 20
28.1152308219107
 11
36.332059787299727
 21
28.187017459157346
  0
LINE
  8
_0-0_
  6
CONTINUOUS
 62
    7
 10
36.332059787299727
 20
28.187017459157346
 11
36.322205111726817
 21
28.222247055858702
  0
LINE
  8
_0-0_
  6
CONTINUOUS
 62
    7
 10
36.563525449374083
 20
29.349113912277403
 11
36.837382640334226
 21
29.286519768079074
  0
LINE
  8
_0-0_
  6
CONTINUOUS
 62
    7
 10
36.837382640334226
 20
29.286519768079074
 11
37.116137124437273
 21
29.281942332160838
  0
LINE
  8
_0-0_
  6
CONTINUOUS
 62
    7
 10
37.116137124437273
 20
29.281942332160838
 11
37.39131908773993
 21
29.335520687596727
  0
LINE
  8
_0-0_
  6
CONTINUOUS
 62
    7
 10
37.39131908773993
 20
29.335520687596727
 11
37.433594592029067
 21
29.349113912277403
  0
LINE
  8
_0-0_
  6
CONTINUOUS
 62
    7
 10
37.226062399501416
 20
29.719134802308588
 11
36.771057641907191
 21
29.719134802308588
  0
LINE
  8
_0-0_
  6
CONTINUOUS
 62
    7
 10
36.771057641907191
 20
30.023175993432119
 11
37.226062399501416
 21
30.023175993432119
  0
LINE
  8
_0-0_
  6
CONTINUOUS
 62
    7
 10
37.389260584470094
 20
29.996780878523282
 11
37.406898606656341
 21
29.987454136545296
  0
LINE
  8
_0-0_
  6
CONTINUOUS
 62
    7
 10
37.406898606656341
 20
29.987454136545296
 11
37.422919024529847
 21
29.97459371624268
  0
LINE
  8
_0-0_
  6
CONTINUOUS
 62
    7
 10
37.422919024529847
 20
29.97459371624268
 11
37.436835065800096
 21
29.958590374978598
  0
LINE
  8
_0-0_
  6
CONTINUOUS
 62
    7
 10
37.436835065800096
 20
29.958590374978598
 11
37.448223898595188
 21
29.93993036617934
  0
LINE
  8
_0-0_
  6
CONTINUOUS
 62
    7
 10
37.448223898595188
 20
29.93993036617934
 11
37.456739478993541
 21
29.919180664769783
  0
LINE
  8
_0-0_
  6
CONTINUOUS
 62
    7
 10
37.456739478993541
 20
29.919180664769783
 11
37.462123065393598
 21
29.896971739927494
  0
LINE
  8
_0-0_
  6
CONTINUOUS
 62
    7
 10
37.462123065393598
 20
29.896971739927494
 11
37.464211080247196
 21
29.873978398595455
  0
LINE
  8
_0-0_
  6
CONTINUOUS
 62
    7
 10
37.464211080247196
 20
29.873978398595455
 11
37.462940080279395
 21
29.850899281814918
  0
LINE
  8
_0-0_
  6
CONTINUOUS
 62
    7
 10
37.462940080279395
 20
29.850899281814918
 11
37.458348684181146
 21
29.828435636870609
  0
LINE
  8
_0-0_
  6
CONTINUOUS
 62
    7
 10
37.458348684181146
 20
29.828435636870609
 11
37.450576399199463
 21
29.807270010247066
  0
LINE
  8
_0-0_
  6
CONTINUOUS
 62
    7
 10
37.450576399199463
 20
29.807270010247066
 11
37.439859382280702
 21
29.788045508798859
  0
LINE
  8
_0-0_
  6
CONTINUOUS
 62
    7
 10
37.439859382280702
 20
29.788045508798859
 11
37.426523264560615
 21
29.771346259274424
  0
LINE
  8
_0-0_
  6
CONTINUOUS
 62
    7
 10
37.426523264560615
 20
29.771346259274424
 11
37.410973257227852
 21
29.757679659920427
  0
LINE
  8
_0-0_
  6
CONTINUOUS
 62
    7
 10
37.410973257227852
 20
29.757679659920427
 11
37.393681839386545
 21
29.747460963442506
  0
LINE
  8
_0-0_
  6
CONTINUOUS
 62
    7
 10
37.393681839386545
 20
29.747460963442506
 11
37.389260584470094
 21
29.745529917217198
  0
LINE
  8
_0-0_
  6
CONTINUOUS
 62
    7
 10
37.674914929676333
 20
30.088629899858233
 11
37.695559218274184
 21
29.936839253993696
  0
LINE
  8
_0-0_
  6
CONTINUOUS
 62
    7
 10
37.695559218274184
 20
29.936839253993696
 11
37.693924732873029
 21
29.783052837398486
  0
LINE
  8
_0-0_
  6
CONTINUOUS
 62
    7
 10
37.693924732873029
 20
29.783052837398486
 11
37.674914929676333
 21
29.653680895882246
  0
LINE
  8
_0-0_
  6
CONTINUOUS
 62
    7
 10
37.433594592029067
 20
30.393196883463247
 11
37.494281786428019
 21
30.360593206849558
  0
LINE
  8
_0-0_
  6
CONTINUOUS
 62
    7
 10
37.494281786428019
 20
30.360593206849558
 11
37.549329031789512
 21
30.315838988485666
  0
LINE
  8
_0-0_
  6
CONTINUOUS
 62
    7
 10
37.549329031789512
 20
30.315838988485666
 11
37.597063745418836
 21
30.260294062649791
  0
LINE
  8
_0-0_
  6
CONTINUOUS
 62
    7
 10
37.597063745418836
 20
30.260294062649791
 11
37.63603553219707
 21
30.195646133806235
  0
LINE
  8
_0-0_
  6
CONTINUOUS
 62
    7
 10
37.63603553219707
 20
30.195646133806235
 11
37.665060254103651
 21
30.123859496559589
  0
LINE
  8
_0-0_
  6
CONTINUOUS
 62
    7
 10
37.665060254103651
 20
30.123859496559589
 11
37.674914929676561
 21
30.088629899858233
  0
LINE
  8
_0-0_
  6
CONTINUOUS
 62
    7
 10
37.674914929676561
 20
29.653680895882303
 11
37.650838455827397
 21
29.579305546155638
  0
LINE
  8
_0-0_
  6
CONTINUOUS
 62
    7
 10
37.650838455827397
 20
29.579305546155638
 11
37.616365137762614
 21
29.511077128082093
  0
LINE
  8
_0-0_
  6
CONTINUOUS
 62
    7
 10
37.616365137762614
 20
29.511077128082093
 11
37.572542429807299
 21
29.451068727619599
  0
LINE
  8
_0-0_
  6
CONTINUOUS
 62
    7
 10
37.572542429807299
 20
29.451068727619599
 11
37.52070186276751
 21
29.401103669650468
  0
LINE
  8
_0-0_
  6
CONTINUOUS
 62
    7
 10
37.52070186276751
 20
29.401103669650468
 11
37.46241858604003
 21
29.36270011717761
  0
LINE
  8
_0-0_
  6
CONTINUOUS
 62
    7
 10
37.46241858604003
 20
29.36270011717761
 11
37.433594592029067
 21
29.349113912277289
  0
LINE
  8
_0-0_
  6
CONTINUOUS
 62
    7
 10
37.433594592029067
 20
30.393196883463247
 11
37.159737401068924
 21
30.455791027661576
  0
LINE
  8
_0-0_
  6
CONTINUOUS
 62
    7
 10
37.159737401068924
 20
30.455791027661576
 11
36.880982916965877
 21
30.460368463579812
  0
LINE
  8
_0-0_
  6
CONTINUOUS
 62
    7
 10
36.880982916965877
 20
30.460368463579812
 11
36.60580095366322
 21
30.406790108143923
  0
LINE
  8
_0-0_
  6
CONTINUOUS
 62
    7
 10
36.60580095366322
 20
30.406790108143923
 11
36.563525449374083
 21
30.393196883463247
  0
LINE
  8
_0-0_
  6
CONTINUOUS
 62
    7
 10
37.217982850126532
 20
30.023175993432005
 11
37.325326551666421
 21
30.013534000642608
  0
LINE
  8
_0-0_
  6
CONTINUOUS
 62
    7
 10
37.325326551666421
 20
30.013534000642608
 11
37.389260584470321
 21
29.996780878523282
  0
LINE
  8
_0-0_
  6
CONTINUOUS
 62
    7
 10
37.389260584470321
 20
29.745529917217141
 11
37.283369872251569
 21
29.722310972913931
  0
LINE
  8
_0-0_
  6
CONTINUOUS
 62
    7
 10
37.283369872251569
 20
29.722310972913931
 11
37.217982850126532
 21
29.719134802308474
  0
LINE
  8
_0-0_
  6
CONTINUOUS
 62
    7
 10
36.779137191276504
 20
29.719134802308474
 11
36.671793489736501
 21
29.728776795097929
  0
LINE
  8
_0-0_
  6
CONTINUOUS
 62
    7
 10
36.671793489736501
 20
29.728776795097929
 11
36.607859456932601
 21
29.745529917217141
  0
LINE
  8
_0-0_
  6
CONTINUOUS
 62
    7
 10
36.607859456933056
 20
29.745529917217198
 11
36.590221434746809
 21
29.754856659195184
  0
LINE
  8
_0-0_
  6
CONTINUOUS
 62
    7
 10
36.590221434746809
 20
29.754856659195184
 11
36.574201016873303
 21
29.767717079497857
  0
LINE
  8
_0-0_
  6
CONTINUOUS
 62
    7
 10
36.574201016873303
 20
29.767717079497857
 11
36.560284975602826
 21
29.783720420761881
  0
LINE
  8
_0-0_
  6
CONTINUOUS
 62
    7
 10
36.560284975602826
 20
29.783720420761881
 11
36.548896142807848
 21
29.80238042956114
  0
LINE
  8
_0-0_
  6
CONTINUOUS
 62
    7
 10
36.548896142807848
 20
29.80238042956114
 11
36.540380562409609
 21
29.82313013097064
  0
LINE
  8
_0-0_
  6
CONTINUOUS
 62
    7
 10
36.540380562409609
 20
29.82313013097064
 11
36.534996976009324
 21
29.845339055812985
  0
LINE
  8
_0-0_
  6
CONTINUOUS
 62
    7
 10
36.534996976009324
 20
29.845339055812985
 11
36.532908961155727
 21
29.868332397145025
  0
LINE
  8
_0-0_
  6
CONTINUOUS
 62
    7
 10
36.532908961155727
 20
29.868332397145025
 11
36.534179961123527
 21
29.891411513925561
  0
LINE
  8
_0-0_
  6
CONTINUOUS
 62
    7
 10
36.534179961123527
 20
29.891411513925561
 11
36.538771357221776
 21
29.913875158869871
  0
LINE
  8
_0-0_
  6
CONTINUOUS
 62
    7
 10
36.538771357221776
 20
29.913875158869871
 11
36.54654364220346
 21
29.93504078549347
  0
LINE
  8
_0-0_
  6
CONTINUOUS
 62
    7
 10
36.54654364220346
 20
29.93504078549347
 11
36.557260659122448
 21
29.95426528694162
  0
LINE
  8
_0-0_
  6
CONTINUOUS
 62
    7
 10
36.557260659122448
 20
29.95426528694162
 11
36.570596776842422
 21
29.970964536465999
  0
LINE
  8
_0-0_
  6
CONTINUOUS
 62
    7
 10
36.570596776842422
 20
29.970964536465999
 11
36.586146784175071
 21
29.984631135820052
  0
LINE
  8
_0-0_
  6
CONTINUOUS
 62
    7
 10
36.586146784175071
 20
29.984631135820052
 11
36.603438202016378
 21
29.994849832297973
  0
LINE
  8
_0-0_
  6
CONTINUOUS
 62
    7
 10
36.603438202016378
 20
29.994849832297973
 11
36.607859456933056
 21
29.996780878523282
  0
LINE
  8
_0-0_
  6
CONTINUOUS
 62
    7
 10
36.607859456932601
 20
29.996780878523282
 11
36.713750169151353
 21
30.019999822826549
  0
LINE
  8
_0-0_
  6
CONTINUOUS
 62
    7
 10
36.713750169151353
 20
30.019999822826549
 11
36.779137191276504
 21
30.023175993432005
  0
LINE
  8
_0-0_
  6
CONTINUOUS
 62
    7
 10
36.322205111726589
 20
29.653680895882246
 11
36.301560823128966
 21
29.805471541746783
  0
LINE
  8
_0-0_
  6
CONTINUOUS
 62
    7
 10
36.301560823128966
 20
29.805471541746783
 11
36.303195308530121
 21
29.959257958341937
  0
LINE
  8
_0-0_
  6
CONTINUOUS
 62
    7
 10
36.303195308530121
 20
29.959257958341937
 11
36.322205111726589
 21
30.088629899858233
  0
LINE
  8
_0-0_
  6
CONTINUOUS
 62
    7
 10
36.56352544937431
 20
29.349113912277289
 11
36.502838254975359
 21
29.381717588890979
  0
LINE
  8
_0-0_
  6
CONTINUOUS
 62
    7
 10
36.502838254975359
 20
29.381717588890979
 11
36.447791009613866
 21
29.42647180725487
  0
LINE
  8
_0-0_
  6
CONTINUOUS
 62
    7
 10
36.447791009613866
 20
29.42647180725487
 11
36.400056295984541
 21
29.482016733090745
  0
LINE
  8
_0-0_
  6
CONTINUOUS
 62
    7
 10
36.400056295984541
 20
29.482016733090745
 11
36.361084509206307
 21
29.546664661934301
  0
LINE
  8
_0-0_
  6
CONTINUOUS
 62
    7
 10
36.361084509206307
 20
29.546664661934301
 11
36.332059787299727
 21
29.618451299180947
  0
LINE
  8
_0-0_
  6
CONTINUOUS
 62
    7
 10
36.332059787299727
 20
29.618451299180947
 11
36.322205111726817
 21
29.653680895882303
  0
LINE
  8
_0-0_
  6
CONTINUOUS
 62
    7
 10
36.322205111726817
 20
30.088629899858233
 11
36.34628158557598
 21
30.163005249584899
  0
LINE
  8
_0-0_
  6
CONTINUOUS
 62
    7
 10
36.34628158557598
 20
30.163005249584899
 11
36.380754903640764
 21
30.231233667658444
  0
LINE
  8
_0-0_
  6
CONTINUOUS
 62
    7
 10
36.380754903640764
 20
30.231233667658444
 11
36.424577611596078
 21
30.291242068120937
  0
LINE
  8
_0-0_
  6
CONTINUOUS
 62
    7
 10
36.424577611596078
 20
30.291242068120937
 11
36.476418178635868
 21
30.341207126090069
  0
LINE
  8
_0-0_
  6
CONTINUOUS
 62
    7
 10
36.476418178635868
 20
30.341207126090069
 11
36.534701455363347
 21
30.379610678562926
  0
LINE
  8
_0-0_
  6
CONTINUOUS
 62
    7
 10
36.534701455363347
 20
30.379610678562926
 11
36.56352544937431
 21
30.393196883463247
  0
LINE
  8
_0-0_
  6
CONTINUOUS
 62
    7
 10
47.74586656240001
 20
32.455426337256995
 11
35.99586656240001
 21
32.455426337256995
  0
LINE
  8
_0-0_
  6
CONTINUOUS
 62
    7
 10
35.99586656240001
 20
32.455426337256995
 11
34.545866562399965
 21
31.005426337256949
  0
LINE
  8
_0-0_
  6
CONTINUOUS
 62
    7
 10
34.545866562399965
 20
31.005426337256949
 11
32.34586656239992
 21
31.005426337256949
  0
LINE
  8
_0-0_
  6
CONTINUOUS
 62
    7
 10
32.34586656239992
 20
31.005426337256949
 11
32.247101326683378
 21
31.013610970597824
  0
LINE
  8
_0-0_
  6
CONTINUOUS
 62
    7
 10
32.247101326683378
 20
31.013610970597824
 11
32.148336090966836
 21
31.038873857026488
  0
LINE
  8
_0-0_
  6
CONTINUOUS
 62
    7
 10
32.148336090966836
 20
31.038873857026488
 11
32.05787418579223
 21
31.079061073380331
  0
LINE
  8
_0-0_
  6
CONTINUOUS
 62
    7
 10
32.05787418579223
 20
31.079061073380331
 11
31.973083834282875
 21
31.135284829179227
  0
LINE
  8
_0-0_
  6
CONTINUOUS
 62
    7
 10
31.973083834282875
 20
31.135284829179227
 11
31.900762731218492
 21
31.203079994577365
  0
LINE
  8
_0-0_
  6
CONTINUOUS
 62
    7
 10
31.900762731218492
 20
31.203079994577365
 11
31.839120710080124
 21
31.28416532008157
  0
LINE
  8
_0-0_
  6
CONTINUOUS
 62
    7
 10
31.839120710080124
 20
31.28416532008157
 11
31.792954219056242
 21
31.372428610705356
  0
LINE
  8
_0-0_
  6
CONTINUOUS
 62
    7
 10
31.792954219056242
 20
31.372428610705356
 11
31.761387283248723
 21
31.469838829562377
  0
LINE
  8
_0-0_
  6
CONTINUOUS
 62
    7
 10
31.761387283248723
 20
31.469838829562377
 11
31.745955449473968
 21
31.595098869617232
  0
LINE
  8
_0-0_
  6
CONTINUOUS
 62
    7
 10
31.745955449473968
 20
31.595098869617232
 11
31.74586656240001
 21
31.605426337256972
  0
LINE
  8
_0-0_
  6
CONTINUOUS
 62
    7
 10
31.74586656240001
 20
31.59955583586634
 11
31.758405441860873
 21
31.428166459013823
  0
LINE
  8
_0-0_
  6
CONTINUOUS
 62
    7
 10
31.758405441860873
 20
31.428166459013823
 11
31.792505455751552
 21
31.258143302038434
  0
LINE
  8
_0-0_
  6
CONTINUOUS
 62
    7
 10
31.792505455751552
 20
31.258143302038434
 11
31.842387713755102
 21
31.093318744232533
  0
LINE
  8
_0-0_
  6
CONTINUOUS
 62
    7
 10
31.842387713755102
 20
31.093318744232533
 11
31.905179414279701
 21
30.930674608298773
  0
LINE
  8
_0-0_
  6
CONTINUOUS
 62
    7
 10
31.905179414279701
 20
30.930674608298773
 11
32.000788343135582
 21
30.723634380509452
  0
LINE
  8
_0-0_
  6
CONTINUOUS
 62
    7
 10
32.000788343135582
 20
30.723634380509452
 11
32.10824516315995
 21
30.519471969442407
  0
LINE
  8
_0-0_
  6
CONTINUOUS
 62
    7
 10
32.10824516315995
 20
30.519471969442407
 11
32.341349958476144
 21
30.117192033917945
  0
LINE
  8
_0-0_
  6
CONTINUOUS
 62
    7
 10
32.341349958476144
 20
30.117192033917945
 11
32.34586656239992
 21
30.10958939329123
  0
LINE
  8
_0-0_
  6
CONTINUOUS
 62
    7
 10
32.34586656239992
 20
30.10958939329123
 11
32.341349958476258
 21
30.101986752664629
  0
LINE
  8
_0-0_
  6
CONTINUOUS
 62
    7
 10
32.341349958476258
 20
30.101986752664629
 11
32.107608574132541
 21
29.698551380671915
  0
LINE
  8
_0-0_
  6
CONTINUOUS
 62
    7
 10
32.107608574132541
 20
29.698551380671915
 11
32.000497536930197
 21
29.49495966459051
  0
LINE
  8
_0-0_
  6
CONTINUOUS
 62
    7
 10
32.000497536930197
 20
29.49495966459051
 11
31.905179414279701
 21
29.288504178283688
  0
LINE
  8
_0-0_
  6
CONTINUOUS
 62
    7
 10
31.905179414279701
 20
29.288504178283688
 11
31.841194331033421
 21
29.122419083713226
  0
LINE
  8
_0-0_
  6
CONTINUOUS
 62
    7
 10
31.841194331033421
 20
29.122419083713226
 11
31.790738875745205
 21
28.954063564499961
  0
LINE
  8
_0-0_
  6
CONTINUOUS
 62
    7
 10
31.790738875745205
 20
28.954063564499961
 11
31.757914575611949
 21
28.787490701312322
  0
LINE
  8
_0-0_
  6
CONTINUOUS
 62
    7
 10
31.757914575611949
 20
28.787490701312322
 11
31.74586656240001
 21
28.619622950716121
  0
LINE
  8
_0-0_
  6
CONTINUOUS
 62
    7
 10
31.74586656240001
 20
28.619622950716121
 11
31.74586656240001
 21
22.705426337256995
  0
LINE
  8
_0-0_
  6
CONTINUOUS
 62
    7
 10
31.657998596755988
 20
22.493294302901063
 11
31.445866562399942
 21
22.705426337256995
  0
LINE
  8
_0-0_
  6
CONTINUOUS
 62
    7
 10
31.445866562399942
 20
22.705426337256995
 11
29.445866562399942
 21
22.705426337256995
  0
LINE
  8
_0-0_
  6
CONTINUOUS
 62
    7
 10
29.445866562399942
 20
22.705426337256995
 11
29.445866562399942
 21
27.213752449325511
  0
LINE
  8
_0-0_
  6
CONTINUOUS
 62
    7
 10
29.445866562399942
 20
27.213752449325511
 11
28.545866562399965
 21
28.113752449325489
  0
LINE
  8
_0-0_
  6
CONTINUOUS
 62
    7
 10
28.545866562399965
 20
28.113752449325489
 11
28.487339465795117
 21
28.164127430815029
  0
LINE
  8
_0-0_
  6
CONTINUOUS
 62
    7
 10
28.487339465795117
 20
28.164127430815029
 11
28.431061532690478
 21
28.196262299785985
  0
LINE
  8
_0-0_
  6
CONTINUOUS
 62
    7
 10
28.431061532690478
 20
28.196262299785985
 11
28.379195492494091
 21
28.208922131245231
  0
LINE
  8
_0-0_
  6
CONTINUOUS
 62
    7
 10
28.379195492494091
 20
28.208922131245231
 11
28.333734528044033
 21
28.201620414969511
  0
LINE
  8
_0-0_
  6
CONTINUOUS
 62
    7
 10
28.333734528044033
 20
28.201620414969511
 11
28.29642567870917
 21
28.182789866935764
  0
LINE
  8
_0-0_
  6
CONTINUOUS
 62
    7
 10
28.29642567870917
 20
28.182789866935764
 11
28.268702702646578
 21
28.161306249659788
  0
LINE
  8
_0-0_
  6
CONTINUOUS
 62
    7
 10
28.268702702646578
 20
28.161306249659788
 11
28.251630978278968
 21
28.137995166505561
  0
LINE
  8
_0-0_
  6
CONTINUOUS
 62
    7
 10
28.251630978278968
 20
28.137995166505561
 11
28.24586656240001
 21
28.113752449325489
  0
LINE
  8
_0-0_
  6
CONTINUOUS
 62
    7
 10
28.333734528044033
 20
28.201620414969511
 11
28.333734528044033
 21
23.729690405968881
  0
LINE
  8
_0-0_
  6
CONTINUOUS
 62
    7
 10
28.333734528044033
 20
23.729690405968881
 11
28.24586656240001
 21
23.729690405968881
  0
LINE
  8
_0-0_
  6
CONTINUOUS
 62
    7
 10
28.24586656240001
 20
23.729690405968881
 11
28.24586656240001
 21
31.681162268545108
  0
LINE
  8
_0-0_
  6
CONTINUOUS
 62
    7
 10
28.333734528044033
 20
31.89329430290104
 11
29.445866562399942
 21
33.005426337256949
  0
LINE
  8
_0-0_
  6
CONTINUOUS
 62
    7
 10
29.445866562399942
 20
33.005426337256949
 11
31.445866562399942
 21
33.005426337256949
  0
LINE
  8
_0-0_
  6
CONTINUOUS
 62
    7
 10
31.74586656240001
 20
32.705426337256995
 11
31.74586656240001
 21
31.59955583586634
  0
LINE
  8
_0-0_
  6
CONTINUOUS
 62
    7
 10
32.345866562400033
 20
31.005426337256949
 11
32.345866562400033
 21
24.40542633725704
  0
LINE
  8
_0-0_
  6
CONTINUOUS
 62
    7
 10
32.34586656239992
 20
24.40542633725704
 11
34.545866562399965
 21
24.40542633725704
  0
LINE
  8
_0-0_
  6
CONTINUOUS
 62
    7
 10
34.545866562399965
 20
24.40542633725704
 11
35.99586656240001
 21
22.955426337256995
  0
LINE
  8
_0-0_
  6
CONTINUOUS
 62
    7
 10
35.99586656240001
 20
22.955426337256995
 11
47.74586656240001
 21
22.955426337256995
  0
LINE
  8
_0-0_
  6
CONTINUOUS
 62
    7
 10
49.74586656240001
 20
24.955426337256995
 11
49.74586656240001
 21
30.455426337256995
  0
LINE
  8
_0-0_
  6
CONTINUOUS
 62
    7
 10
45.026217412598271
 20
29.805426337257018
 11
40.46551571220175
 21
29.805426337257018
  0
LINE
  8
_0-0_
  6
CONTINUOUS
 62
    7
 10
40.46551571220175
 20
25.605426337256972
 11
45.026217412598271
 21
25.605426337256972
  0
LINE
  8
_0-0_
  6
CONTINUOUS
 62
    7
 10
33.03868688377338
 20
24.40542633725704
 11
33.03868688377338
 21
29.480250270626357
  0
LINE
  8
_0-0_
  6
CONTINUOUS
 62
    7
 10
33.03868688377338
 20
29.480250270626357
 11
34.545866562399965
 21
29.480250270626357
  0
LINE
  8
_0-0_
  6
CONTINUOUS
 62
    7
 10
34.545866562399965
 20
29.480250270626357
 11
34.545866562399965
 21
31.005426337256949
  0
LINE
  8
_0-0_
  6
CONTINUOUS
 62
    7
 10
33.03868688377338
 20
29.480250270626357
 11
32.628783594022934
 21
29.017439293958887
  0
LINE
  8
_0-0_
  6
CONTINUOUS
 62
    7
 10
32.628783594022934
 20
29.017439293958887
 11
32.345866562400033
 21
28.523961614444147
  0
LINE
  8
_0-0_
  6
CONTINUOUS
 62
    7
 10
32.345866562400033
 20
28.523961614444147
 11
32.244250914496547
 21
28.5250198201785
  0
LINE
  8
_0-0_
  6
CONTINUOUS
 62
    7
 10
32.244250914496547
 20
28.5250198201785
 11
32.148336090966836
 21
28.528037730293704
  0
LINE
  8
_0-0_
  6
CONTINUOUS
 62
    7
 10
32.148336090966836
 20
28.528037730293704
 11
32.055370289457642
 21
28.533075110791401
  0
LINE
  8
_0-0_
  6
CONTINUOUS
 62
    7
 10
32.055370289457642
 20
28.533075110791401
 11
31.973083834282875
 21
28.539675519686512
  0
LINE
  8
_0-0_
  6
CONTINUOUS
 62
    7
 10
31.973083834282875
 20
28.539675519686512
 11
31.898862051819719
 21
28.548013586013212
  0
LINE
  8
_0-0_
  6
CONTINUOUS
 62
    7
 10
31.898862051819719
 20
28.548013586013212
 11
31.839120710080124
 21
28.557334663642337
  0
LINE
  8
_0-0_
  6
CONTINUOUS
 62
    7
 10
31.839120710080124
 20
28.557334663642337
 11
31.791848498542095
 21
28.567939384913757
  0
LINE
  8
_0-0_
  6
CONTINUOUS
 62
    7
 10
31.791848498542095
 20
28.567939384913757
 11
31.761387283248723
 21
28.578857787607262
  0
LINE
  8
_0-0_
  6
CONTINUOUS
 62
    7
 10
31.761387283248723
 20
28.578857787607262
 11
31.745955449473968
 21
28.593083087623882
  0
LINE
  8
_0-0_
  6
CONTINUOUS
 62
    7
 10
31.745955449473968
 20
28.593083087623882
 11
31.74586656240001
 21
28.594245779000403
  0
LINE
  8
_0-0_
  6
CONTINUOUS
 62
    7
 10
31.445866562399942
 20
27.213752449325511
 11
31.445866562399942
 21
22.705426337256995
  0
LINE
  8
_0-0_
  6
CONTINUOUS
 62
    7
 10
31.445866562399942
 20
22.40542633725704
 11
29.445866562399942
 21
22.40542633725704
  0
LINE
  8
_0-0_
  6
CONTINUOUS
 62
    7
 10
29.445866562399942
 20
22.40542633725704
 11
28.333734528044033
 21
23.517558371612949
  0
LINE
  8
_0-0_
  6
CONTINUOUS
 62
    7
 10
28.333734528044033
 20
23.517558371612949
 11
28.312906244252758
 21
23.547657843227967
  0
LINE
  8
_0-0_
  6
CONTINUOUS
 62
    7
 10
28.312906244252758
 20
23.547657843227967
 11
28.302259444232163
 21
23.585713011323946
  0
LINE
  8
_0-0_
  6
CONTINUOUS
 62
    7
 10
28.302259444232163
 20
23.585713011323946
 11
28.302259444232163
 21
23.630060682446128
  0
LINE
  8
_0-0_
  6
CONTINUOUS
 62
    7
 10
28.302259444232163
 20
23.630060682446128
 11
28.312906244252758
 21
23.678762650562589
  0
LINE
  8
_0-0_
  6
CONTINUOUS
 62
    7
 10
28.312906244252758
 20
23.678762650562589
 11
28.333734528044033
 21
23.729690405968881
  0
LINE
  8
_0-0_
  6
CONTINUOUS
 62
    7
 10
28.333734528044033
 20
23.729690405968881
 11
29.435644310286648
 21
22.627780623726267
  0
LINE
  8
_0-0_
  6
CONTINUOUS
 62
    7
 10
29.435644310286762
 20
22.627780623726267
 11
29.422439707480294
 21
22.569229187335168
  0
LINE
  8
_0-0_
  6
CONTINUOUS
 62
    7
 10
29.422439707480294
 20
22.569229187335168
 11
29.415689906736247
 21
22.516630219942044
  0
LINE
  8
_0-0_
  6
CONTINUOUS
 62
    7
 10
29.415689906736247
 20
22.516630219942044
 11
29.415689906736247
 21
22.472282548819862
  0
LINE
  8
_0-0_
  6
CONTINUOUS
 62
    7
 10
29.415689906736247
 20
22.472282548819862
 11
29.422439707480294
 21
22.438124380000545
  0
LINE
  8
_0-0_
  6
CONTINUOUS
 62
    7
 10
29.422439707480294
 20
22.438124380000545
 11
29.435644310286648
 21
22.415648589370221
  0
LINE
  8
_0-0_
  6
CONTINUOUS
 62
    7
 10
29.445866562399942
 20
27.213752449325511
 11
31.445866562399942
 21
27.213752449325511
  0
LINE
  8
_0-0_
  6
CONTINUOUS
 62
    7
 10
28.545866562399965
 20
28.113752449325489
 11
28.545866562399965
 21
32.105426337256972
  0
LINE
  8
_0-0_
  6
CONTINUOUS
 62
    7
 10
29.445866562399942
 20
12.888691756512003
 11
31.445866562399942
 21
12.888691756512003
  0
LINE
  8
_0-0_
  6
CONTINUOUS
 62
    7
 10
31.74586656240001
 20
12.588691756512048
 11
31.74586656240001
 21
6.6744951430529227
  0
LINE
  8
_0-0_
  6
CONTINUOUS
 62
    7
 10
31.74586656240001
 20
6.6744951430529227
 11
31.758405441860873
 21
6.5031057662002922
  0
LINE
  8
_0-0_
  6
CONTINUOUS
 62
    7
 10
31.758405441860873
 20
6.5031057662002922
 11
31.792505455751552
 21
6.3330826092249026
  0
LINE
  8
_0-0_
  6
CONTINUOUS
 62
    7
 10
31.792505455751552
 20
6.3330826092249026
 11
31.842387713755102
 21
6.1682580514190022
  0
LINE
  8
_0-0_
  6
CONTINUOUS
 62
    7
 10
31.842387713755102
 20
6.1682580514190022
 11
31.905179414279701
 21
6.0056139154853554
  0
LINE
  8
_0-0_
  6
CONTINUOUS
 62
    7
 10
31.905179414279701
 20
6.0056139154853554
 11
32.000788343135696
 21
5.7985736876959209
  0
LINE
  8
_0-0_
  6
CONTINUOUS
 62
    7
 10
32.000788343135696
 20
5.7985736876959209
 11
32.108245163160063
 21
5.5944112766287617
  0
LINE
  8
_0-0_
  6
CONTINUOUS
 62
    7
 10
32.108245163160063
 20
5.5944112766287617
 11
32.341349958476371
 21
5.1921313411045276
  0
LINE
  8
_0-0_
  6
CONTINUOUS
 62
    7
 10
32.341349958476371
 20
5.1921313411045276
 11
32.345866562400033
 21
5.1845287004778129
  0
LINE
  8
_0-0_
  6
CONTINUOUS
 62
    7
 10
32.345866562400033
 20
5.1845287004778129
 11
32.341349958476371
 21
5.1769260598509845
  0
LINE
  8
_0-0_
  6
CONTINUOUS
 62
    7
 10
32.341349958476371
 20
5.1769260598509845
 11
32.107608574132541
 21
4.7734906878584979
  0
LINE
  8
_0-0_
  6
CONTINUOUS
 62
    7
 10
32.107608574132541
 20
4.7734906878584979
 11
32.000497536930197
 21
4.5698989717770928
  0
LINE
  8
_0-0_
  6
CONTINUOUS
 62
    7
 10
32.000497536930197
 20
4.5698989717770928
 11
31.905179414279701
 21
4.3634434854702704
  0
LINE
  8
_0-0_
  6
CONTINUOUS
 62
    7
 10
31.905179414279701
 20
4.3634434854702704
 11
31.841194331033421
 21
4.197358390899808
  0
LINE
  8
_0-0_
  6
CONTINUOUS
 62
    7
 10
31.841194331033421
 20
4.197358390899808
 11
31.790738875745205
 21
4.0290028716864299
  0
LINE
  8
_0-0_
  6
CONTINUOUS
 62
    7
 10
31.790738875745205
 20
4.0290028716864299
 11
31.757914575611949
 21
3.8624300084987908
  0
LINE
  8
_0-0_
  6
CONTINUOUS
 62
    7
 10
31.757914575611949
 20
3.8624300084987908
 11
31.74586656240001
 21
3.6945622579025894
  0
LINE
  8
_0-0_
  6
CONTINUOUS
 62
    7
 10
31.74586656240001
 20
3.6945622579027031
 11
31.74586656240001
 21
2.5886917565120484
  0
LINE
  8
_0-0_
  6
CONTINUOUS
 62
    7
 10
31.445866562399942
 20
2.2886917565120939
 11
29.445866562399942
 21
2.2886917565120939
  0
LINE
  8
_0-0_
  6
CONTINUOUS
 62
    7
 10
29.445866562399942
 20
2.2886917565120939
 11
28.333734528044033
 21
3.400823790868003
  0
LINE
  8
_0-0_
  6
CONTINUOUS
 62
    7
 10
28.24586656240001
 20
3.6129558252239349
 11
28.24586656240001
 21
11.564427687800162
  0
LINE
  8
_0-0_
  6
CONTINUOUS
 62
    7
 10
28.333734528044033
 20
11.776559722156094
 11
29.435644310286762
 21
12.878469504398822
  0
LINE
  8
_0-0_
  6
CONTINUOUS
 62
    7
 10
29.445866562399942
 20
12.888691756512003
 11
29.445866562399942
 21
8.0803656444435319
  0
LINE
  8
_0-0_
  6
CONTINUOUS
 62
    7
 10
29.445866562399942
 20
8.0803656444435319
 11
31.445866562399942
 21
8.0803656444435319
  0
LINE
  8
_0-0_
  6
CONTINUOUS
 62
    7
 10
31.745955449473968
 20
6.7010350061451618
 11
31.761387283248723
 21
6.715260306161781
  0
LINE
  8
_0-0_
  6
CONTINUOUS
 62
    7
 10
31.761387283248723
 20
6.715260306161781
 11
31.791848498542095
 21
6.7261787088552865
  0
LINE
  8
_0-0_
  6
CONTINUOUS
 62
    7
 10
31.791848498542095
 20
6.7261787088552865
 11
31.839120710080124
 21
6.736783430126593
  0
LINE
  8
_0-0_
  6
CONTINUOUS
 62
    7
 10
31.839120710080124
 20
6.736783430126593
 11
31.898862051819833
 21
6.746104507755831
  0
LINE
  8
_0-0_
  6
CONTINUOUS
 62
    7
 10
31.898862051819833
 20
6.746104507755831
 11
31.973083834282875
 21
6.7544425740825318
  0
LINE
  8
_0-0_
  6
CONTINUOUS
 62
    7
 10
31.973083834282875
 20
6.7544425740825318
 11
32.055370289457642
 21
6.7610429829776422
  0
LINE
  8
_0-0_
  6
CONTINUOUS
 62
    7
 10
32.055370289457642
 20
6.7610429829776422
 11
32.148336090966836
 21
6.7660803634753393
  0
LINE
  8
_0-0_
  6
CONTINUOUS
 62
    7
 10
32.148336090966836
 20
6.7660803634753393
 11
32.244250914496547
 21
6.7690982735905436
  0
LINE
  8
_0-0_
  6
CONTINUOUS
 62
    7
 10
32.244250914496547
 20
6.7690982735905436
 11
32.345866562400033
 21
6.7701564793248963
  0
LINE
  8
_0-0_
  6
CONTINUOUS
 62
    7
 10
32.345866562400033
 20
6.7701564793248963
 11
34.545866562399965
 21
6.7701564793248963
  0
LINE
  8
_0-0_
  6
CONTINUOUS
 62
    7
 10
34.545866562399965
 20
4.5886917565120484
 11
34.545866562399965
 21
10.188691757467041
  0
LINE
  8
_0-0_
  6
CONTINUOUS
 62
    7
 10
34.545866562399965
 20
10.188691757467041
 11
34.548254261636203
 21
10.247218854071889
  0
LINE
  8
_0-0_
  6
CONTINUOUS
 62
    7
 10
34.548254261636203
 20
10.247218854071889
 11
34.555325601402387
 21
10.303496787176641
  0
LINE
  8
_0-0_
  6
CONTINUOUS
 62
    7
 10
34.555325601402387
 20
10.303496787176641
 11
34.566808834076937
 21
10.355362827372915
  0
LINE
  8
_0-0_
  6
CONTINUOUS
 62
    7
 10
34.566808834076937
 20
10.355362827372915
 11
34.582262665467852
 21
10.400823791822972
  0
LINE
  8
_0-0_
  6
CONTINUOUS
 62
    7
 10
34.582262665467852
 20
10.400823791822972
 11
34.601093213501713
 21
10.438132641157836
  0
LINE
  8
_0-0_
  6
CONTINUOUS
 62
    7
 10
34.601093213501713
 20
10.438132641157836
 11
34.622576830777575
 21
10.465855617220427
  0
LINE
  8
_0-0_
  6
CONTINUOUS
 62
    7
 10
34.622576830777575
 20
10.465855617220427
 11
34.645887913931915
 21
10.482927341588038
  0
LINE
  8
_0-0_
  6
CONTINUOUS
 62
    7
 10
34.645887913931915
 20
10.482927341588038
 11
34.670130631111988
 21
10.488691757467109
  0
LINE
  8
_0-0_
  6
CONTINUOUS
 62
    7
 10
36.072576830777621
 20
10.465855617220427
 11
36.051093213501645
 21
10.438132641157836
  0
LINE
  8
_0-0_
  6
CONTINUOUS
 62
    7
 10
36.051093213501645
 20
10.438132641157836
 11
36.032262665467897
 21
10.400823791822972
  0
LINE
  8
_0-0_
  6
CONTINUOUS
 62
    7
 10
36.032262665467897
 20
10.400823791822972
 11
36.016808834076869
 21
10.355362827372915
  0
LINE
  8
_0-0_
  6
CONTINUOUS
 62
    7
 10
36.016808834076869
 20
10.355362827372915
 11
36.005325601402319
 21
10.303496787176641
  0
LINE
  8
_0-0_
  6
CONTINUOUS
 62
    7
 10
36.005325601402319
 20
10.303496787176641
 11
35.998254261636248
 21
10.247218854071889
  0
LINE
  8
_0-0_
  6
CONTINUOUS
 62
    7
 10
35.998254261636248
 20
10.247218854071889
 11
35.99586656240001
 21
10.188691757467041
  0
LINE
  8
_0-0_
  6
CONTINUOUS
 62
    7
 10
35.99586656240001
 20
10.188691757467041
 11
35.99586656240001
 21
4.5886917565120484
  0
LINE
  8
_0-0_
  6
CONTINUOUS
 62
    7
 10
35.99586656240001
 20
4.5886917565120484
 11
35.998254261636248
 21
4.5301646599072001
  0
LINE
  8
_0-0_
  6
CONTINUOUS
 62
    7
 10
35.998254261636248
 20
4.5301646599072001
 11
36.005325601402433
 21
4.4738867268025615
  0
LINE
  8
_0-0_
  6
CONTINUOUS
 62
    7
 10
36.005325601402433
 20
4.4738867268025615
 11
36.016808834076869
 21
4.4220206866061744
  0
LINE
  8
_0-0_
  6
CONTINUOUS
 62
    7
 10
36.016808834076869
 20
4.4220206866061744
 11
36.032262665467897
 21
4.3765597221561165
  0
LINE
  8
_0-0_
  6
CONTINUOUS
 62
    7
 10
36.032262665467897
 20
4.3765597221561165
 11
36.051093213501645
 21
4.3392508728212533
  0
LINE
  8
_0-0_
  6
CONTINUOUS
 62
    7
 10
36.051093213501645
 20
4.3392508728212533
 11
36.072576830777621
 21
4.3115278967586619
  0
LINE
  8
_0-0_
  6
CONTINUOUS
 62
    7
 10
36.072576830777621
 20
4.3115278967586619
 11
36.095887913931847
 21
4.294456172391051
  0
LINE
  8
_0-0_
  6
CONTINUOUS
 62
    7
 10
36.095887913931847
 20
4.294456172391051
 11
36.12013063111192
 21
4.2886917565120939
  0
LINE
  8
_0-0_
  6
CONTINUOUS
 62
    7
 10
32.345866562400033
 20
4.2886917565120939
 11
49.445866562399942
 21
4.2886917565120939
  0
LINE
  8
_0-0_
  6
CONTINUOUS
 62
    7
 10
49.74586656240001
 20
4.5886917565120484
 11
49.74586656240001
 21
10.188691757467041
  0
LINE
  8
_0-0_
  6
CONTINUOUS
 62
    7
 10
49.445866562399942
 20
10.488691757467109
 11
33.03868688377338
 21
10.488691757467109
  0
LINE
  8
_0-0_
  6
CONTINUOUS
 62
    7
 10
33.03868688377338
 20
10.488691757467109
 11
32.350405286331011
 21
10.886071323028659
  0
LINE
  8
_0-0_
  6
CONTINUOUS
 62
    7
 10
32.345866562400033
 20
10.888691756512117
 11
32.345866562400033
 21
4.2886917565120939
  0
LINE
  8
_0-0_
  6
CONTINUOUS
 62
    7
 10
32.345866562400033
 20
4.2886917565120939
 11
32.247101326683378
 21
4.2805071231712191
  0
LINE
  8
_0-0_
  6
CONTINUOUS
 62
    7
 10
32.247101326683378
 20
4.2805071231712191
 11
32.148336090966836
 21
4.2552442367425556
  0
LINE
  8
_0-0_
  6
CONTINUOUS
 62
    7
 10
32.148336090966836
 20
4.2552442367425556
 11
32.057874185792343
 21
4.2150570203887128
  0
LINE
  8
_0-0_
  6
CONTINUOUS
 62
    7
 10
32.057874185792343
 20
4.2150570203887128
 11
31.973083834282875
 21
4.1588332645898163
  0
LINE
  8
_0-0_
  6
CONTINUOUS
 62
    7
 10
31.973083834282875
 20
4.1588332645898163
 11
31.900762731218492
 21
4.0910380991916782
  0
LINE
  8
_0-0_
  6
CONTINUOUS
 62
    7
 10
31.900762731218492
 20
4.0910380991916782
 11
31.839120710080124
 21
4.0099527736874734
  0
LINE
  8
_0-0_
  6
CONTINUOUS
 62
    7
 10
31.839120710080124
 20
4.0099527736874734
 11
31.792954219056242
 21
3.9216894830636875
  0
LINE
  8
_0-0_
  6
CONTINUOUS
 62
    7
 10
31.792954219056242
 20
3.9216894830636875
 11
31.761387283248723
 21
3.8242792642066661
  0
LINE
  8
_0-0_
  6
CONTINUOUS
 62
    7
 10
31.761387283248723
 20
3.8242792642066661
 11
31.745955449473968
 21
3.6990192241518116
  0
LINE
  8
_0-0_
  6
CONTINUOUS
 62
    7
 10
31.745955449473968
 20
3.6990192241518116
 11
31.74586656240001
 21
3.6886917565120712
  0
LINE
  8
_0-0_
  6
CONTINUOUS
 62
    7
 10
31.74586656240001
 20
6.6998723147686405
 11
31.745955449473968
 21
6.7010350061451618
  0
LINE
  8
_0-0_
  6
CONTINUOUS
 62
    7
 10
28.24586656240001
 20
6.8803656444434864
 11
29.445866562399942
 21
8.0803656444435319
  0
LINE
  8
_0-0_
  6
CONTINUOUS
 62
    7
 10
36.072576830777621
 20
10.465855617220427
 11
36.095887913931847
 21
10.482927341588038
  0
LINE
  8
_0-0_
  6
CONTINUOUS
 62
    7
 10
36.095887913931847
 20
10.482927341588038
 11
36.12013063111192
 21
10.488691757467109
  0
ARC
  8
_0-0_
  6
CONTINUOUS
 62
    7
 10
29.145866562399988
 20
22.705426337256995
 40
0.2999999999999998
 50
344.99999999999733
 51
359.99999999999733
  0
ARC
  8
_0-0_
  6
CONTINUOUS
 62
    7
 10
31.445866562399942
 20
22.705426337256995
 40
0.2999999999999998
 50
270
 51
315
  0
ARC
  8
_0-0_
  6
CONTINUOUS
 62
    7
 10
31.445866562399942
 20
27.513752449325466
 40
0.2999999999999998
 50
270
 51
0.0000000000027352
  0
ARC
  8
_0-0_
  6
CONTINUOUS
 62
    7
 10
31.445866562399942
 20
22.705426337256995
 40
0.2999999999999998
 50
314.99999999999898
 51
0
  0
ARC
  8
_0-0_
  6
CONTINUOUS
 62
    7
 10
31.445866562399942
 20
32.705426337256995
 40
0.2999999999999998
 50
0.0000000000027141
 51
89.999999999999986
  0
ARC
  8
_0-0_
  6
CONTINUOUS
 62
    7
 10
28.545866562399965
 20
31.681162268545108
 40
0.2999999999999998
 50
134.99999999999901
 51
179.99999999999869
  0
ARC
  8
_0-0_
  6
CONTINUOUS
 62
    7
 10
28.545866562399965
 20
23.729690405968881
 40
0.2999999999999998
 50
180
 51
224.99999999999949
  0
CIRCLE
  8
_0-0_
  6
CONTINUOUS
 62
    7
 10
42.74586656240001
 20
27.705426337256995
 40
3.8500000000000001
  0
CIRCLE
  8
_0-0_
  6
CONTINUOUS
 62
    7
 10
42.74586656240001
 20
27.705426337256995
 40
3.1000000000000005
  0
ARC
  8
_0-0_
  6
CONTINUOUS
 62
    7
 10
47.74586656240001
 20
30.455426337256995
 40
2
 50
0
 51
90
  0
ARC
  8
_0-0_
  6
CONTINUOUS
 62
    7
 10
47.74586656240001
 20
24.955426337256995
 40
2
 50
270
 51
0.0000000000003943
  0
ARC
  8
_0-0_
  6
CONTINUOUS
 62
    7
 10
32.34586656239992
 20
23.805426337257018
 40
0.5999999999999999
 50
90
 51
180
  0
ARC
  8
_0-0_
  6
CONTINUOUS
 62
    7
 10
31.445866562399942
 20
12.588691756512048
 40
0.2999999999999998
 50
45.000000000003347
 51
90
  0
ARC
  8
_0-0_
  6
CONTINUOUS
 62
    7
 10
31.445866562399942
 20
12.588691756512048
 40
0.2999999999999998
 50
0
 51
44.999999999999517
  0
ARC
  8
_0-0_
  6
CONTINUOUS
 62
    7
 10
31.445866562399942
 20
7.7803656444434637
 40
0.2999999999999998
 50
359.99999999999858
 51
90
  0
ARC
  8
_0-0_
  6
CONTINUOUS
 62
    7
 10
31.445866562399942
 20
2.5886917565120484
 40
0.2999999999999998
 50
270
 51
0
  0
ARC
  8
_0-0_
  6
CONTINUOUS
 62
    7
 10
49.445866562399942
 20
10.188691757467041
 40
0.2999999999999998
 50
0.0000000000027141
 51
89.999999999999986
  0
ARC
  8
_0-0_
  6
CONTINUOUS
 62
    7
 10
34.845866562400033
 20
4.5886917565120484
 40
0.2999999999999998
 50
180
 51
270
  0
ARC
  8
_0-0_
  6
CONTINUOUS
 62
    7
 10
49.445866562399942
 20
4.5886917565120484
 40
0.2999999999999998
 50
270
 51
0.0000000000013612
  0
ARC
  8
_0-0_
  6
CONTINUOUS
 62
    7
 10
28.545866562399965
 20
3.6129558252239349
 40
0.2999999999999998
 50
179.9999999999973
 51
224.99999999999949
  0
ARC
  8
_0-0_
  6
CONTINUOUS
 62
    7
 10
28.545866562399965
 20
11.564427687800162
 40
0.2999999999999998
 50
134.99999999999764
 51
179.99999999999733
  0
ARC
  8
_0-0_
  6
CONTINUOUS
 62
    7
 10
32.345866562400033
 20
11.488691756512026
 40
0.5999999999999999
 50
222.15124416280608
 51
270
  0
LINE
  8
_0-0_
  6
CONTINUOUS
 62
    7
 10
13.975985710878604
 20
22.405426337256927
 11
9.4676595988100871
 21
22.405426337256927
  0
LINE
  8
_0-0_
  6
CONTINUOUS
 62
    7
 10
9.4676595988100871
 20
22.405426337256927
 11
3.6759857108786491
 21
28.197100225188478
  0
LINE
  8
_0-0_
  6
CONTINUOUS
 62
    7
 10
3.6759857108786491
 20
28.197100225188478
 11
3.6759857108786491
 21
32.705426337256995
  0
LINE
  8
_0-0_
  6
CONTINUOUS
 62
    7
 10
3.6862079629919435
 20
32.783072050787723
 11
4.7881177452345582
 21
31.681162268544995
  0
LINE
  8
_0-0_
  6
CONTINUOUS
 62
    7
 10
4.7881177452345582
 20
31.681162268544995
 11
4.7881177452345582
 21
27.209232259544365
  0
LINE
  8
_0-0_
  6
CONTINUOUS
 62
    7
 10
4.7881177452345582
 20
27.209232259544365
 11
5.0002497795904901
 21
27.297100225188501
  0
LINE
  8
_0-0_
  6
CONTINUOUS
 62
    7
 10
5.0002497795904901
 20
27.297100225188501
 11
8.5676595988101099
 21
23.729690405968881
  0
LINE
  8
_0-0_
  6
CONTINUOUS
 62
    7
 10
8.5676595988101099
 20
23.729690405968881
 11
8.4797916331660872
 21
23.517558371612949
  0
LINE
  8
_0-0_
  6
CONTINUOUS
 62
    7
 10
8.4797916331660872
 20
23.517558371612949
 11
12.951721642166717
 21
23.517558371612949
  0
LINE
  8
_0-0_
  6
CONTINUOUS
 62
    7
 10
12.951721642166717
 20
23.517558371612949
 11
12.951721642166717
 21
28.113752449325489
  0
LINE
  8
_0-0_
  6
CONTINUOUS
 62
    7
 10
12.951721642166717
 20
28.113752449325489
 11
9.3843118229470974
 21
31.681162268544995
  0
LINE
  8
_0-0_
  6
CONTINUOUS
 62
    7
 10
9.3843118229470974
 20
31.681162268544995
 11
9.4721797885912338
 21
31.893294302900927
  0
LINE
  8
_0-0_
  6
CONTINUOUS
 62
    7
 10
9.4721797885912338
 20
31.893294302900927
 11
9.4794815048668397
 21
31.938755267351098
  0
LINE
  8
_0-0_
  6
CONTINUOUS
 62
    7
 10
9.4794815048668397
 20
31.938755267351098
 11
9.4668216734077077
 21
31.990621307547485
  0
LINE
  8
_0-0_
  6
CONTINUOUS
 62
    7
 10
9.4668216734077077
 20
31.990621307547485
 11
9.4346868044366374
 21
32.046899240652124
  0
LINE
  8
_0-0_
  6
CONTINUOUS
 62
    7
 10
9.4346868044366374
 20
32.046899240652124
 11
9.3843118229470974
 21
32.105426337256972
  0
LINE
  8
_0-0_
  6
CONTINUOUS
 62
    7
 10
9.4721797885912338
 20
31.893294302900927
 11
5.0002497795904901
 21
31.893294302900927
  0
LINE
  8
_0-0_
  6
CONTINUOUS
 62
    7
 10
5.0002497795904901
 20
31.893294302900927
 11
3.8983399973478754
 21
32.995204085143655
  0
LINE
  8
_0-0_
  6
CONTINUOUS
 62
    7
 10
3.9759857108786036
 20
33.005426337256949
 11
8.4843118229472338
 21
33.005426337256949
  0
LINE
  8
_0-0_
  6
CONTINUOUS
 62
    7
 10
8.4843118229472338
 20
33.005426337256949
 11
14.275985710878672
 21
27.213752449325398
  0
LINE
  8
_0-0_
  6
CONTINUOUS
 62
    7
 10
14.275985710878672
 20
27.213752449325398
 11
14.275985710878672
 21
22.705426337256881
  0
LINE
  8
_0-0_
  6
CONTINUOUS
 62
    7
 10
14.265763458765377
 20
22.627780623726153
 11
13.163853676522649
 21
23.729690405968881
  0
LINE
  8
_0-0_
  6
CONTINUOUS
 62
    7
 10
13.163853676522649
 20
23.729690405968881
 11
13.133754204907632
 21
23.678762650562589
  0
LINE
  8
_0-0_
  6
CONTINUOUS
 62
    7
 10
13.133754204907632
 20
23.678762650562589
 11
13.095699036811652
 21
23.630060682446015
  0
LINE
  8
_0-0_
  6
CONTINUOUS
 62
    7
 10
13.095699036811652
 20
23.630060682446015
 11
13.05135136568947
 21
23.585713011323946
  0
LINE
  8
_0-0_
  6
CONTINUOUS
 62
    7
 10
13.05135136568947
 20
23.585713011323946
 11
13.002649397573009
 21
23.547657843227967
  0
LINE
  8
_0-0_
  6
CONTINUOUS
 62
    7
 10
13.002649397573009
 20
23.547657843227967
 11
12.951721642166717
 21
23.517558371612949
  0
LINE
  8
_0-0_
  6
CONTINUOUS
 62
    7
 10
12.951721642166717
 20
23.517558371612949
 11
14.053631424409446
 21
22.415648589370221
  0
LINE
  8
_0-0_
  6
CONTINUOUS
 62
    7
 10
13.163853676522649
 20
23.729690405968881
 11
13.163853676522649
 21
28.201620414969511
  0
LINE
  8
_0-0_
  6
CONTINUOUS
 62
    7
 10
13.163853676522649
 20
28.201620414969511
 11
12.951721642166717
 21
28.113752449325489
  0
LINE
  8
_0-0_
  6
CONTINUOUS
 62
    7
 10
13.163853676522649
 20
28.201620414969511
 11
13.209314640972821
 21
28.208922131245231
  0
LINE
  8
_0-0_
  6
CONTINUOUS
 62
    7
 10
13.209314640972821
 20
28.208922131245231
 11
13.261180681169094
 21
28.196262299785985
  0
LINE
  8
_0-0_
  6
CONTINUOUS
 62
    7
 10
13.261180681169094
 20
28.196262299785985
 11
13.317458614273733
 21
28.164127430815029
  0
LINE
  8
_0-0_
  6
CONTINUOUS
 62
    7
 10
13.317458614273733
 20
28.164127430815029
 11
13.375985710878581
 21
28.113752449325489
  0
LINE
  8
_0-0_
  6
CONTINUOUS
 62
    7
 10
11.875985711833664
 20
29.613752448370406
 11
11.875985711833664
 21
32.155426337256927
  0
LINE
  8
_0-0_
  6
CONTINUOUS
 62
    7
 10
11.575985711833596
 20
32.455426337256995
 11
9.0343118229471884
 21
32.455426337256995
  0
LINE
  8
_0-0_
  6
CONTINUOUS
 62
    7
 10
9.3843118229470974
 20
31.681162268544995
 11
4.7881177452345582
 21
31.681162268544995
  0
LINE
  8
_0-0_
  6
CONTINUOUS
 62
    7
 10
4.7881177452345582
 20
31.681162268544995
 11
4.8182172168495754
 21
31.732090023951287
  0
LINE
  8
_0-0_
  6
CONTINUOUS
 62
    7
 10
4.8182172168495754
 20
31.732090023951287
 11
4.8562723849455551
 21
31.780791992067861
  0
LINE
  8
_0-0_
  6
CONTINUOUS
 62
    7
 10
4.8562723849455551
 20
31.780791992067861
 11
4.9006200560677371
 21
31.825139663190043
  0
LINE
  8
_0-0_
  6
CONTINUOUS
 62
    7
 10
4.9006200560677371
 20
31.825139663190043
 11
4.9493220241841982
 21
31.863194831285909
  0
LINE
  8
_0-0_
  6
CONTINUOUS
 62
    7
 10
4.9493220241841982
 20
31.863194831285909
 11
5.0002497795904901
 21
31.893294302900927
  0
LINE
  8
_0-0_
  6
CONTINUOUS
 62
    7
 10
5.0002497795904901
 20
31.893294302900927
 11
5.0002497795904901
 21
27.297100225188501
  0
LINE
  8
_0-0_
  6
CONTINUOUS
 62
    7
 10
4.7881177452345582
 20
27.209232259544365
 11
4.7426567807845004
 21
27.201930543268645
  0
LINE
  8
_0-0_
  6
CONTINUOUS
 62
    7
 10
4.7426567807845004
 20
27.201930543268645
 11
4.6907907405881133
 21
27.214590374727891
  0
LINE
  8
_0-0_
  6
CONTINUOUS
 62
    7
 10
4.6907907405881133
 20
27.214590374727891
 11
4.6345128074834747
 21
27.246725243698847
  0
LINE
  8
_0-0_
  6
CONTINUOUS
 62
    7
 10
4.6345128074834747
 20
27.246725243698847
 11
4.5759857108786264
 21
27.297100225188501
  0
LINE
  8
_0-0_
  6
CONTINUOUS
 62
    7
 10
5.6759857108786491
 20
26.197100225188365
 11
5.6759857108786491
 21
23.255426337256949
  0
LINE
  8
_0-0_
  6
CONTINUOUS
 62
    7
 10
5.9759857108786036
 20
22.955426337256995
 11
8.9176595988100189
 21
22.955426337256995
  0
LINE
  8
_0-0_
  6
CONTINUOUS
 62
    7
 10
8.5676595988101099
 20
23.305426337257018
 11
8.5172845972832647
 21
23.363953461741744
  0
LINE
  8
_0-0_
  6
CONTINUOUS
 62
    7
 10
8.5172845972832647
 20
23.363953461741744
 11
8.4851497265931357
 21
23.420231419491188
  0
LINE
  8
_0-0_
  6
CONTINUOUS
 62
    7
 10
8.4851497265931357
 20
23.420231419491188
 11
8.4724899129868163
 21
23.472097478069372
  0
LINE
  8
_0-0_
  6
CONTINUOUS
 62
    7
 10
8.4724899129868163
 20
23.472097478069372
 11
8.4797916664693958
 21
23.517558452014327
  0
LINE
  8
_0-0_
  6
CONTINUOUS
 62
    7
 10
8.5676595988101099
 20
23.729690405968881
 11
13.163853676522649
 21
23.729690405968881
  0
LINE
  8
_0-0_
  6
CONTINUOUS
 62
    7
 10
7.4676595988100871
 20
24.405426337256927
 11
5.9759857108786036
 21
24.405426337256927
  0
LINE
  8
_0-0_
  6
CONTINUOUS
 62
    7
 10
5.9759857108786036
 20
24.405426337256927
 11
5.9174586307996151
 21
24.407814035131651
  0
LINE
  8
_0-0_
  6
CONTINUOUS
 62
    7
 10
5.9174586307996151
 20
24.407814035131651
 11
5.861180712303053
 21
24.414885370917659
  0
LINE
  8
_0-0_
  6
CONTINUOUS
 62
    7
 10
5.861180712303053
 20
24.414885370917659
 11
5.8093146830025262
 21
24.426368597301348
  0
LINE
  8
_0-0_
  6
CONTINUOUS
 62
    7
 10
5.8093146830025262
 20
24.426368597301348
 11
5.7638537241805352
 21
24.441822420584344
  0
LINE
  8
_0-0_
  6
CONTINUOUS
 62
    7
 10
5.7638537241805352
 20
24.441822420584344
 11
5.7265448739934754
 21
24.460652959343179
  0
LINE
  8
_0-0_
  6
CONTINUOUS
 62
    7
 10
5.7265448739934754
 20
24.460652959343179
 11
5.6988218898135301
 21
24.482136566946224
  0
LINE
  8
_0-0_
  6
CONTINUOUS
 62
    7
 10
5.6988218898135301
 20
24.482136566946224
 11
5.6817501497680496
 21
24.505447640872262
  0
LINE
  8
_0-0_
  6
CONTINUOUS
 62
    7
 10
5.6817501497680496
 20
24.505447640872262
 11
5.6759857108786491
 21
24.529690350134274
  0
LINE
  8
_0-0_
  6
CONTINUOUS
 62
    7
 10
5.9759857108786036
 20
25.89710022518841
 11
5.9759857108786036
 21
22.955426337256995
  0
LINE
  8
_0-0_
  6
CONTINUOUS
 62
    7
 10
10.48431182294712
 20
31.005426337256949
 11
11.575985711833596
 21
31.005426337256949
  0
LINE
  8
_0-0_
  6
CONTINUOUS
 62
    7
 10
11.575985711833596
 20
31.005426337256949
 11
11.634512791912698
 21
31.003038639382339
  0
LINE
  8
_0-0_
  6
CONTINUOUS
 62
    7
 10
11.634512791912698
 20
31.003038639382339
 11
11.690790710409146
 21
30.995967303596331
  0
LINE
  8
_0-0_
  6
CONTINUOUS
 62
    7
 10
11.690790710409146
 20
30.995967303596331
 11
11.742656739709787
 21
30.984484077212642
  0
LINE
  8
_0-0_
  6
CONTINUOUS
 62
    7
 10
11.742656739709787
 20
30.984484077212642
 11
11.788117698531778
 21
30.969030253929645
  0
LINE
  8
_0-0_
  6
CONTINUOUS
 62
    7
 10
11.788117698531778
 20
30.969030253929645
 11
11.825426548718724
 21
30.950199715170811
  0
LINE
  8
_0-0_
  6
CONTINUOUS
 62
    7
 10
11.825426548718724
 20
30.950199715170811
 11
11.853149532898669
 21
30.928716107567766
  0
LINE
  8
_0-0_
  6
CONTINUOUS
 62
    7
 10
11.853149532898669
 20
30.928716107567766
 11
11.870221272944264
 21
30.905405033641614
  0
LINE
  8
_0-0_
  6
CONTINUOUS
 62
    7
 10
11.870221272944264
 20
30.905405033641614
 11
11.87598571183355
 21
30.881162324379716
  0
LINE
  8
_0-0_
  6
CONTINUOUS
 62
    7
 10
11.575985711833596
 20
29.913752448370474
 11
11.575985711833596
 21
32.455426337256995
  0
ARC
  8
_0-0_
  6
CONTINUOUS
 62
    7
 10
13.975985710878604
 20
22.705426337256881
 40
0.2999999999999998
 50
284.99999999999955
 51
344.99999999999977
  0
ARC
  8
_0-0_
  6
CONTINUOUS
 62
    7
 10
3.9759857108786036
 20
32.705426337256995
 40
0.2999999999999998
 50
104.99999999999766
 51
165.00000000000077
  0
ARC
  8
_0-0_
  6
CONTINUOUS
 62
    7
 10
3.9759857108786036
 20
32.705426337256995
 40
0.2999999999999998
 50
165.00000000000105
 51
179.99999999999994
  0
ARC
  8
_0-0_
  6
CONTINUOUS
 62
    7
 10
3.9759857108786036
 20
32.705426337256995
 40
0.2999999999999998
 50
90
 51
105.00000000000031
  0
ARC
  8
_0-0_
  6
CONTINUOUS
 62
    7
 10
13.975985710878604
 20
22.705426337256881
 40
0.2999999999999998
 50
344.99999999999898
 51
359.99999999999994
  0
ARC
  8
_0-0_
  6
CONTINUOUS
 62
    7
 10
13.975985710878604
 20
22.705426337256881
 40
0.2999999999999998
 50
270
 51
285.00000000000028
  0
ARC
  8
_0-0_
  6
CONTINUOUS
 62
    7
 10
5.9759857108786036
 20
23.255426337256949
 40
0.2999999999999998
 50
180
 51
270
  0
ARC
  8
_0-0_
  6
CONTINUOUS
 62
    7
 10
11.575985711833596
 20
32.155426337256927
 40
0.2999999999999998
 50
0
 51
90
  0
LINE
  8
_0-0_
  6
CONTINUOUS
 62
    7
 10
62.295866562400079
 20
22.955426337256995
 11
67.895866563354957
 21
22.955426337256995
  0
LINE
  8
_0-0_
  6
CONTINUOUS
 62
    7
 10
68.195866563355139
 20
23.255426337256949
 11
68.195866563355139
 21
32.155426337256927
  0
LINE
  8
_0-0_
  6
CONTINUOUS
 62
    7
 10
67.895866563355185
 20
32.455426337256995
 11
62.295866562400079
 21
32.455426337256995
  0
LINE
  8
_0-0_
  6
CONTINUOUS
 62
    7
 10
61.99586656240001
 20
32.15542633725704
 11
61.99586656240001
 21
23.255426337257063
  0
ARC
  8
_0-0_
  6
CONTINUOUS
 62
    7
 10
62.295866562400079
 20
32.15542633725704
 40
0.2999999999999998
 50
90
 51
180
  0
ARC
  8
_0-0_
  6
CONTINUOUS
 62
    7
 10
67.895866563355185
 20
32.155426337256927
 40
0.2999999999999998
 50
0
 51
90
  0
ARC
  8
_0-0_
  6
CONTINUOUS
 62
    7
 10
67.895866563354957
 20
23.255426337256949
 40
0.2999999999999998
 50
270.00000000000142
 51
0
  0
ARC
  8
_0-0_
  6
CONTINUOUS
 62
    7
 10
62.295866562400079
 20
23.255426337257063
 40
0.2999999999999998
 50
180
 51
269.99999999999733
  0
LINE
  8
_0-1_
  6
DASHED2
 62
  152
 10
45.845866562400261
 20
9.1896536513376077
 11
46.595866562400261
 21
10.48869175701418
  0
LINE
  8
_0-1_
  6
DASHED2
 62
  152
 10
45.845866562852962
 20
9.1896536521217058
 11
45.845866562853075
 21
4.5886917560592337
  0
LINE
  8
_0-1_
  6
DASHED2
 62
  152
 10
45.845866562853075
 20
4.5886917560592337
 11
46.14586656285303
 21
4.2886917560592792
  0
LINE
  8
_0-1_
  6
CENTER2
 62
  152
 10
42.74586656240001
 20
4.2886917565120939
 11
42.74586656240001
 21
10.488691757467109
  0
LINE
  8
_0-1_
  6
DASHED2
 62
  152
 10
38.895866562400215
 20
10.488691757919923
 11
39.645866562400215
 21
9.1896536513376077
  0
LINE
  8
_0-1_
  6
DASHED2
 62
  152
 10
39.645866561947514
 20
9.1896536521217058
 11
39.645866561947514
 21
4.5886917560592337
  0
LINE
  8
_0-1_
  6
DASHED2
 62
  152
 10
39.645866561947514
 20
4.5886917560592337
 11
39.34586656194756
 21
4.2886917560592792
  0
LINE
  8
_0-1_
  6
DASHED2
 62
  152
 10
39.645866561947514
 20
9.1896536521217058
 11
45.845866562400261
 21
9.1896536521217058
  0
LINE
  8
_0-1_
  6
CENTER1
 62
  152
 10
1.9914222040296181
 20
27.705426337256995
 11
15.402341858450427
 21
27.705426337256995
  0
LINE
  8
_0-1_
  6
CENTER1
 62
  152
 10
8.9759857108786036
 20
34.306369884550691
 11
8.9759857108786036
 21
20.895450230129995
  0
LINE
  8
_0-1_
  6
DASHED2
 62
  152
 10
63.294904668076697
 20
24.605426337256972
 11
63.294904668076697
 21
30.805426337257018
  0
LINE
  8
_0-1_
  6
DASHED2
 62
  152
 10
63.294904668076697
 20
30.805426337257018
 11
63.663815755786118
 21
30.805426337257018
  0
LINE
  8
_0-1_
  6
DASHED2
 62
  152
 10
63.663815755786118
 20
30.805426337257018
 11
65.395866563354957
 21
29.805426337257018
  0
LINE
  8
_0-1_
  6
DASHED2
 62
  152
 10
65.395866563354957
 20
29.805426337257018
 11
67.895866563354957
 21
29.805426337257018
  0
LINE
  8
_0-1_
  6
DASHED2
 62
  152
 10
67.895866563354957
 20
29.805426337256904
 11
67.895866563354957
 21
25.605426337256972
  0
LINE
  8
_0-1_
  6
DASHED2
 62
  152
 10
67.895866563354957
 20
25.605426337256972
 11
68.195866563355139
 21
25.305426337257018
  0
LINE
  8
_0-1_
  6
DASHED2
 62
  152
 10
67.895866563354957
 20
25.605426337256972
 11
65.395866563354957
 21
25.605426337256972
  0
LINE
  8
_0-1_
  6
DASHED2
 62
  152
 10
65.395866563354957
 20
25.605426337256972
 11
63.663815755786118
 21
24.605426337256972
  0
LINE
  8
_0-1_
  6
DASHED2
 62
  152
 10
63.663815755786118
 20
24.605426337256972
 11
63.294904668076697
 21
24.605426337256972
  0
LINE
  8
_0-1_
  6
DASHED2
 62
  152
 10
63.294904668076697
 20
24.605426337256972
 11
61.995866561494267
 21
23.855426337256972
  0
LINE
  8
_0-1_
  6
CENTER1
 62
  152
 10
60.901618320207717
 20
27.705426337256995
 11
69.013240335849105
 21
27.705426337256995
  0
LINE
  8
_0-1_
  6
DASHED2
 62
  152
 10
68.195866563355139
 20
30.105426337256972
 11
67.895866563354957
 21
29.805426337257018
  0
LINE
  8
_0-1_
  6
DASHED2
 62
  152
 10
63.294904668076697
 20
30.805426337257018
 11
61.995866562400124
 21
31.555426337257018
  0
LINE
  8
_0-1_
  6
CENTER1
 62
  152
 10
49.74586656240001
 20
27.705426337256995
 11
28.24586656240001
 21
27.705426337256995
  0
LINE
  8
_0-1_
  6
CENTER1
 62
  152
 10
42.74586656240001
 20
22.955426337256995
 11
42.74586656240001
 21
32.455426337256995
  0
LINE
  8
_0-1_
  6
CENTER1
 62
  152
 10
28.24586656240001
 20
7.3886917564670966
 11
49.74586656240001
 21
7.3886917564670966
  0
ENDSEC
  0
EOF
