  0
SECTION
  2
HEADER
  9
$ACADVER
  1
AC1009
  9
$INSBASE
 10
0
 20
0
 30
0
  9
$EXTMIN
 10
0
 20
0
  9
$EXTMAX
 10
1189
 20
841
  9
$LIMMIN
 10
0
 20
0
  9
$LIMMAX
 10
1189
 20
841
  9
$LTSCALE
 40
1
  0
ENDSEC
  0
SECTION
  2
TABLES
  0
TABLE
  2
LTYPE
 70
     9
  0
LTYPE
  2
CONTINUOUS
 70
    64
  3
実線
 72
    65
 73
     0
 40
0.0
  0
LTYPE
  2
DASHED1
 70
    64
  3
--  --  --  --  --  --  --  --  
 72
    65
 73
     2
 40
2.5
 49
1.25
 49
-1.25
  0
LTYPE
  2
DASHED2
 70
    64
  3
----    ----    ----    ----    
 72
    65
 73
     2
 40
5.0
 49
2.5
 49
-2.5
  0
LTYPE
  2
DASHED3
 70
    64
  3
------  ------  ------  ------  
 72
    65
 73
     2
 40
5.0
 49
3.75
 49
-1.25
  0
LTYPE
  2
CENTER1
 70
    64
  3
----- - ----- - ----- - ----- - 
 72
    65
 73
     4
 40
10.0
 49
6.25
 49
-1.25
 49
1.25
 49
-1.25
  0
LTYPE
  2
CENTER2
 70
    64
  3
----------  --  ----------  --  
 72
    65
 73
     4
 40
20.0
 49
12.5
 49
-2.5
 49
2.5
 49
-2.5
  0
LTYPE
  2
PHANTOM1
 70
    64
  3
--- - - --- - - --- - - --- - - 
 72
    65
 73
     6
 40
10.0
 49
3.25
 49
-1.25
 49
1.25
 49
-1.25
 49
1.25
 49
-1.25
  0
LTYPE
  2
PHANTOM2
 70
    64
  3
--------  -  -  --------  -  -  
 72
    65
 73
     6
 40
20.0
 49
10.0
 49
-2.5
 49
1.25
 49
-2.5
 49
1.25
 49
-2.5
  0
LTYPE
  2
DOT
 70
    64
  3
-   -   -   -   -   -   -   -   
 72
    65
 73
     2
 40
2.5
 49
0.625
 49
-1.875
  0
LTYPE
  2
DUMMY
 70
    64
  3
ダミー
 72
    65
 73
     0
 40
0.0
  0
LTYPE
  2
RAND1
 70
    64
  3
ランダム線1
 72
    65
 73
     4
 40
10.0
 49
1.0
 49
-2.0
 49
3.0
 49
-4.0
  0
LTYPE
  2
RAND2
 70
    64
  3
ランダム線2
 72
    65
 73
     4
 40
14.0
 49
2.0
 49
-3.0
 49
4.0
 49
-5.0
  0
LTYPE
  2
RAND3
 70
    64
  3
ランダム線3
 72
    65
 73
     4
 40
18.0
 49
3.0
 49
-4.0
 49
5.0
 49
-6.0
  0
LTYPE
  2
RAND4
 70
    64
  3
ランダム線4
 72
    65
 73
     4
 40
22.0
 49
4.0
 49
-5.0
 49
6.0
 49
-7.0
  0
LTYPE
  2
RAND5
 70
    64
  3
ランダム線5
 72
    65
 73
     4
 40
26.0
 49
5.0
 49
-6.0
 49
7.0
 49
-8.0
  0
LTYPE
  2
LONG1
 70
    64
  3
----------  --  ----------  --  
 72
    65
 73
     4
 40
40.0
 49
32.5
 49
-2.5
 49
2.5
 49
-2.5
  0
LTYPE
  2
LONG2
 70
    64
  3
--------  -  -  --------  -  -  
 72
    65
 73
     6
 40
40.0
 49
30.0
 49
-2.5
 49
1.25
 49
-2.5
 49
1.25
 49
-2.5
  0
LTYPE
  2
LONG3
 70
    64
  3
+++++++++++++++..+++++++++++++++
 72
    65
 73
     2
 40
40.0
 49
37.5
 49
-2.5
  0
LTYPE
  2
LONG4
 70
    64
  3
+++++++++++++++..+++++++++++++++
 72
    65
 73
     2
 40
80.0
 49
75.0
 49
-5.0
  0
LTYPE
  2
LONG5
 70
    64
  3
----------  --  ----------  --  
 72
    65
 73
     4
 40
60.0
 49
37.5
 49
-7.5
 49
7.5
 49
-7.5
  0
LTYPE
  2
dashed
 70
   64
  3
-------   -------------   ------
 72
   65
 73
    2
 40
7.5
 49
6
 49
-1.5
  0
LTYPE
  2
dashed_spaced
 70
   64
  3
----        --------        ----
 72
   65
 73
    2
 40
12
 49
6
 49
-6
  0
LTYPE
  2
long_dashed_dotted
 70
   64
  3
------------- --- --------------
 72
   65
 73
    4
 40
15.25
 49
12
 49
-1.5
 49
0.25
 49
-1.5
  0
LTYPE
  2
long_dashed_double-dotted
 70
   64
  3
----------- --- --- ------------
 72
   65
 73
    6
 40
17
 49
12
 49
-1.5
 49
0.25
 49
-1.5
 49
0.25
 49
-1.5
  0
LTYPE
  2
long_dashed_triplicate-dotted
 70
   64
  3
--------- --- --- --- ----------
 72
   65
 73
    8
 40
18.75
 49
12
 49
-1.5
 49
0.25
 49
-1.5
 49
0.25
 49
-1.5
 49
0.25
 49
-1.5
  0
LTYPE
  2
dotted
 70
   64
  3
   -       -       -       -    
 72
   65
 73
    2
 40
1.75
 49
0.25
 49
-1.5
  0
LTYPE
  2
chain
 70
   64
  3
-------------- -- --------------
 72
   65
 73
    4
 40
18.5
 49
12
 49
-1.5
 49
3.5
 49
-1.5
  0
LTYPE
  2
chain_double_dash
 70
   64
  3
------------ -- -- -------------
 72
   65
 73
    6
 40
23.5
 49
12
 49
-1.5
 49
3.5
 49
-1.5
 49
3.5
 49
-1.5
  0
LTYPE
  2
dashed_dotted
 70
   64
  3
-----------     -     ----------
 72
   65
 73
    4
 40
9.25
 49
6
 49
-1.5
 49
0.25
 49
-1.5
  0
LTYPE
  2
double-dashed_dotted
 70
   64
  3
------   -----------   -   -----
 72
   65
 73
    6
 40
16.75
 49
6
 49
-1.5
 49
6
 49
-1.5
 49
0.25
 49
-1.5
  0
LTYPE
  2
dashed_double-dotted
 70
   64
  3
---------    -    -    ---------
 72
   65
 73
    6
 40
11
 49
6
 49
-1.5
 49
0.25
 49
-1.5
 49
0.25
 49
-1.5
  0
LTYPE
  2
double-dashed_double-dotted
 70
   64
  3
-----   ---------   -   -   ----
 72
   65
 73
    8
 40
18.5
 49
6
 49
-1.5
 49
6
 49
-1.5
 49
0.25
 49
-1.5
 49
0.25
 49
-1.5
  0
LTYPE
  2
dashed_triplicate-dotted
 70
   64
  3
-------    -    -    -    ------
 72
   65
 73
    8
 40
12.75
 49
6
 49
-1.5
 49
0.25
 49
-1.5
 49
0.25
 49
-1.5
 49
0.25
 49
-1.5
  0
LTYPE
  2
double-dashed_triplicate-dotted
 70
   64
  3
-----  ---------  -  -  -  -----
 72
   65
 73
   10
 40
20.25
 49
6
 49
-1.5
 49
6
 49
-1.5
 49
0.25
 49
-1.5
 49
0.25
 49
-1.5
 49
0.25
 49
-1.5
  0
LTYPE
  2
undefined
 70
   64
  3
--------------------------------
 72
   65
 73
    0
 40
0
  0
ENDTAB
  0
TABLE
  2
STYLE
  5
3
100
AcDbSymbolTable
 70
     1
  0
STYLE
  5
10
100
AcDbSymbolTableRecord
100
AcDbTextStyleTableRecord
  2
STANDARD
 70
     0
 40
0.0
 41
1.0
 50
0.0
 71
     0
 42
0.2
  3
txt
  4
bigfont.shx
  0
STYLE
  5
26
100
AcDbSymbolTableRecord
100
AcDbTextStyleTableRecord
  2
TATEGAKI
 70
    68
 40
0.0
 41
1.0
 50
0.0
 71
     0
 42
1.0
  3
txt
  4
bigfont.shx
  0
ENDTAB
  0
TABLE
  2
LAYER
 70
    4
  0
LAYER
  2
_0-0_
 70
   64
 62
    7
  6
CONTINUOUS
  0
LAYER
  2
_0-1_
 70
   64
 62
    7
  6
CONTINUOUS
  0
LAYER
  2
_0-f_
 70
   64
 62
    7
  6
CONTINUOUS
  0
LAYER
  2
ADD_LINE
 70
   64
 62
    7
  6
CONTINUOUS
  0
ENDTAB
  0
ENDSEC
  0
SECTION
  2
BLOCKS
  0
ENDSEC
  0
SECTION
  2
ENTITIES
  0
TEXT
  8
_0-f_
 62
    7
 10
1.0358410288505411
 20
1.1979965374280823
 40
4.2999999999999998
 41
0.744186046511628
 50
0
  1
TL25_TL2F
  0
LINE
  8
_0-0_
  6
CONTINUOUS
 62
    7
 10
33.68824756109143
 20
3.0235211910889461
 11
33.68824756109143
 21
9.223521191089219
  0
LINE
  8
_0-0_
  6
CONTINUOUS
 62
    7
 10
35.138247561091703
 20
9.223521191089219
 11
35.138247561091703
 21
3.0235211910889461
  0
LINE
  8
_0-0_
  6
CONTINUOUS
 62
    7
 10
36.691709561091557
 20
29.734416295904509
 11
36.739444561091659
 21
29.678866295904243
  0
LINE
  8
_0-0_
  6
CONTINUOUS
 62
    7
 10
36.739444561091659
 20
29.678866295904243
 11
36.77841656109149
 21
29.614216295904441
  0
LINE
  8
_0-0_
  6
CONTINUOUS
 62
    7
 10
36.77841656109149
 20
29.614216295904441
 11
36.807440561091425
 21
29.542436295904224
  0
LINE
  8
_0-0_
  6
CONTINUOUS
 62
    7
 10
36.807440561091425
 20
29.542436295904224
 11
36.817295561091669
 21
29.507206295904268
  0
LINE
  8
_0-0_
  6
CONTINUOUS
 62
    7
 10
36.817295561091669
 20
29.507206295904268
 11
36.837939561091389
 21
29.355416295904377
  0
LINE
  8
_0-0_
  6
CONTINUOUS
 62
    7
 10
36.837939561091389
 20
29.355416295904377
 11
36.836305561091194
 21
29.201626295904532
  0
LINE
  8
_0-0_
  6
CONTINUOUS
 62
    7
 10
36.836305561091194
 20
29.201626295904532
 11
36.817295561091669
 21
29.072256295904197
  0
LINE
  8
_0-0_
  6
CONTINUOUS
 62
    7
 10
36.817295561091669
 20
29.072256295904197
 11
36.793218561091635
 21
28.997876295904405
  0
LINE
  8
_0-0_
  6
CONTINUOUS
 62
    7
 10
36.793218561091635
 20
28.997876295904405
 11
36.758745561091473
 21
28.929646295904547
  0
LINE
  8
_0-0_
  6
CONTINUOUS
 62
    7
 10
36.758745561091473
 20
28.929646295904547
 11
36.714922561091498
 21
28.869646295904602
  0
LINE
  8
_0-0_
  6
CONTINUOUS
 62
    7
 10
36.714922561091498
 20
28.869646295904602
 11
36.663082561091414
 21
28.819676295904571
  0
LINE
  8
_0-0_
  6
CONTINUOUS
 62
    7
 10
36.663082561091414
 20
28.819676295904571
 11
36.604799561091568
 21
28.781276295904433
  0
LINE
  8
_0-0_
  6
CONTINUOUS
 62
    7
 10
36.604799561091568
 20
28.781276295904433
 11
36.575975561091582
 21
28.767686295904639
  0
LINE
  8
_0-0_
  6
CONTINUOUS
 62
    7
 10
36.575975561091582
 20
28.767686295904639
 11
36.533699561091453
 21
28.754096295904617
  0
LINE
  8
_0-0_
  6
CONTINUOUS
 62
    7
 10
36.533699561091453
 20
28.754096295904617
 11
36.258517561091594
 21
28.700516295904379
  0
LINE
  8
_0-0_
  6
CONTINUOUS
 62
    7
 10
36.258517561091594
 20
28.700516295904379
 11
35.979763561091204
 21
28.705096295904639
  0
LINE
  8
_0-0_
  6
CONTINUOUS
 62
    7
 10
35.979763561091204
 20
28.705096295904639
 11
35.70590556109164
 21
28.767686295904639
  0
LINE
  8
_0-0_
  6
CONTINUOUS
 62
    7
 10
35.70590556109164
 20
28.767686295904639
 11
35.645218561091497
 21
28.800286295904641
  0
LINE
  8
_0-0_
  6
CONTINUOUS
 62
    7
 10
35.645218561091497
 20
28.800286295904641
 11
35.590171561091211
 21
28.84504629590441
  0
LINE
  8
_0-0_
  6
CONTINUOUS
 62
    7
 10
35.590171561091211
 20
28.84504629590441
 11
35.542436561091563
 21
28.900586295904475
  0
LINE
  8
_0-0_
  6
CONTINUOUS
 62
    7
 10
35.542436561091563
 20
28.900586295904475
 11
35.503465561091616
 21
28.965236295904504
  0
LINE
  8
_0-0_
  6
CONTINUOUS
 62
    7
 10
35.503465561091616
 20
28.965236295904504
 11
35.474440561091342
 21
29.037026295904468
  0
LINE
  8
_0-0_
  6
CONTINUOUS
 62
    7
 10
35.474440561091342
 20
29.037026295904468
 11
35.464585561091553
 21
29.072256295904197
  0
LINE
  8
_0-0_
  6
CONTINUOUS
 62
    7
 10
35.464585561091553
 20
29.072256295904197
 11
35.443941561091378
 21
29.224046295904088
  0
LINE
  8
_0-0_
  6
CONTINUOUS
 62
    7
 10
35.443941561091378
 20
29.224046295904088
 11
35.445575561091573
 21
29.377836295904615
  0
LINE
  8
_0-0_
  6
CONTINUOUS
 62
    7
 10
35.445575561091573
 20
29.377836295904615
 11
35.464585561091553
 21
29.507206295904268
  0
LINE
  8
_0-0_
  6
CONTINUOUS
 62
    7
 10
35.464585561091553
 20
29.507206295904268
 11
35.488662561091587
 21
29.58157629590454
  0
LINE
  8
_0-0_
  6
CONTINUOUS
 62
    7
 10
35.488662561091587
 20
29.58157629590454
 11
35.523135561091749
 21
29.649806295904398
  0
LINE
  8
_0-0_
  6
CONTINUOUS
 62
    7
 10
35.523135561091749
 20
29.649806295904398
 11
35.566958561091269
 21
29.709816295904318
  0
LINE
  8
_0-0_
  6
CONTINUOUS
 62
    7
 10
35.566958561091269
 20
29.709816295904318
 11
35.618798561091353
 21
29.759776295904373
  0
LINE
  8
_0-0_
  6
CONTINUOUS
 62
    7
 10
35.618798561091353
 20
29.759776295904373
 11
35.6770815610912
 21
29.798186295904486
  0
LINE
  8
_0-0_
  6
CONTINUOUS
 62
    7
 10
35.6770815610912
 20
29.798186295904486
 11
35.70590556109164
 21
29.811766295904306
  0
LINE
  8
_0-0_
  6
CONTINUOUS
 62
    7
 10
35.70590556109164
 20
29.811766295904306
 11
35.748181561091315
 21
29.82536629590453
  0
LINE
  8
_0-0_
  6
CONTINUOUS
 62
    7
 10
35.748181561091315
 20
29.82536629590453
 11
36.023363561091628
 21
29.878946295904314
  0
LINE
  8
_0-0_
  6
CONTINUOUS
 62
    7
 10
36.023363561091628
 20
29.878946295904314
 11
36.302117561091563
 21
29.874366295904508
  0
LINE
  8
_0-0_
  6
CONTINUOUS
 62
    7
 10
36.302117561091563
 20
29.874366295904508
 11
36.575975561091582
 21
29.811766295904306
  0
LINE
  8
_0-0_
  6
CONTINUOUS
 62
    7
 10
36.575975561091582
 20
29.811766295904306
 11
36.636662561091725
 21
29.779166295904304
  0
LINE
  8
_0-0_
  6
CONTINUOUS
 62
    7
 10
36.636662561091725
 20
29.779166295904304
 11
36.691709561091557
 21
29.734416295904509
  0
LINE
  8
_0-0_
  6
CONTINUOUS
 62
    7
 10
36.565299561091251
 20
29.393166295904336
 11
36.579215561091587
 21
29.37716629590426
  0
LINE
  8
_0-0_
  6
CONTINUOUS
 62
    7
 10
36.579215561091587
 20
29.37716629590426
 11
36.590604561091368
 21
29.358506295904533
  0
LINE
  8
_0-0_
  6
CONTINUOUS
 62
    7
 10
36.590604561091368
 20
29.358506295904533
 11
36.599119561091811
 21
29.337756295904398
  0
LINE
  8
_0-0_
  6
CONTINUOUS
 62
    7
 10
36.599119561091811
 20
29.337756295904398
 11
36.604503561091406
 21
29.315546295904312
  0
LINE
  8
_0-0_
  6
CONTINUOUS
 62
    7
 10
36.604503561091406
 20
29.315546295904312
 11
36.606591561091591
 21
29.292556295904376
  0
LINE
  8
_0-0_
  6
CONTINUOUS
 62
    7
 10
36.606591561091591
 20
29.292556295904376
 11
36.605320561091503
 21
29.269476295904212
  0
LINE
  8
_0-0_
  6
CONTINUOUS
 62
    7
 10
36.605320561091503
 20
29.269476295904212
 11
36.600729561091612
 21
29.247006295904555
  0
LINE
  8
_0-0_
  6
CONTINUOUS
 62
    7
 10
36.600729561091612
 20
29.247006295904555
 11
36.592956561091341
 21
29.225846295904091
  0
LINE
  8
_0-0_
  6
CONTINUOUS
 62
    7
 10
36.592956561091341
 20
29.225846295904091
 11
36.582239561091228
 21
29.206616295904439
  0
LINE
  8
_0-0_
  6
CONTINUOUS
 62
    7
 10
36.582239561091228
 20
29.206616295904439
 11
36.568903561091702
 21
29.189916295904311
  0
LINE
  8
_0-0_
  6
CONTINUOUS
 62
    7
 10
36.568903561091702
 20
29.189916295904311
 11
36.553353561091626
 21
29.176256295904238
  0
LINE
  8
_0-0_
  6
CONTINUOUS
 62
    7
 10
36.553353561091626
 20
29.176256295904238
 11
36.536062561091512
 21
29.166036295904576
  0
LINE
  8
_0-0_
  6
CONTINUOUS
 62
    7
 10
36.536062561091512
 20
29.166036295904576
 11
36.531641561091419
 21
29.164106295904219
  0
LINE
  8
_0-0_
  6
CONTINUOUS
 62
    7
 10
36.531641561091419
 20
29.164106295904219
 11
36.425750561091718
 21
29.140886295904636
  0
LINE
  8
_0-0_
  6
CONTINUOUS
 62
    7
 10
36.425750561091718
 20
29.140886295904636
 11
36.360363561091617
 21
29.137706295904479
  0
LINE
  8
_0-0_
  6
CONTINUOUS
 62
    7
 10
36.368442561091342
 20
29.137706295904479
 11
35.913438561091425
 21
29.137706295904479
  0
LINE
  8
_0-0_
  6
CONTINUOUS
 62
    7
 10
35.921517561091605
 20
29.137706295904479
 11
35.814174561091477
 21
29.14734629590447
  0
LINE
  8
_0-0_
  6
CONTINUOUS
 62
    7
 10
35.814174561091477
 20
29.14734629590447
 11
35.750239561091348
 21
29.164106295904219
  0
LINE
  8
_0-0_
  6
CONTINUOUS
 62
    7
 10
35.750239561091348
 20
29.164106295904219
 11
35.732601561091542
 21
29.173426295904335
  0
LINE
  8
_0-0_
  6
CONTINUOUS
 62
    7
 10
35.732601561091542
 20
29.173426295904335
 11
35.716581561091516
 21
29.186286295904608
  0
LINE
  8
_0-0_
  6
CONTINUOUS
 62
    7
 10
35.716581561091516
 20
29.186286295904608
 11
35.702665561091635
 21
29.202296295904432
  0
LINE
  8
_0-0_
  6
CONTINUOUS
 62
    7
 10
35.702665561091635
 20
29.202296295904432
 11
35.691276561091399
 21
29.220956295904614
  0
LINE
  8
_0-0_
  6
CONTINUOUS
 62
    7
 10
35.691276561091399
 20
29.220956295904614
 11
35.682761561091411
 21
29.241706295904521
  0
LINE
  8
_0-0_
  6
CONTINUOUS
 62
    7
 10
35.682761561091411
 20
29.241706295904521
 11
35.677377561091362
 21
29.26391629590438
  0
LINE
  8
_0-0_
  6
CONTINUOUS
 62
    7
 10
35.677377561091362
 20
29.26391629590438
 11
35.675289561091631
 21
29.286906295904316
  0
LINE
  8
_0-0_
  6
CONTINUOUS
 62
    7
 10
35.675289561091631
 20
29.286906295904316
 11
35.676560561091264
 21
29.309986295904253
  0
LINE
  8
_0-0_
  6
CONTINUOUS
 62
    7
 10
35.676560561091264
 20
29.309986295904253
 11
35.68115156109161
 21
29.33244629590439
  0
LINE
  8
_0-0_
  6
CONTINUOUS
 62
    7
 10
35.68115156109161
 20
29.33244629590439
 11
35.688924561091426
 21
29.353616295904374
  0
LINE
  8
_0-0_
  6
CONTINUOUS
 62
    7
 10
35.688924561091426
 20
29.353616295904374
 11
35.699641561091539
 21
29.372836295904506
  0
LINE
  8
_0-0_
  6
CONTINUOUS
 62
    7
 10
35.699641561091539
 20
29.372836295904506
 11
35.71297756109152
 21
29.389536295904634
  0
LINE
  8
_0-0_
  6
CONTINUOUS
 62
    7
 10
35.71297756109152
 20
29.389536295904634
 11
35.728527561091596
 21
29.403206295904226
  0
LINE
  8
_0-0_
  6
CONTINUOUS
 62
    7
 10
35.728527561091596
 20
29.403206295904226
 11
35.745818561091255
 21
29.413426295904571
  0
LINE
  8
_0-0_
  6
CONTINUOUS
 62
    7
 10
35.745818561091255
 20
29.413426295904571
 11
35.750239561091348
 21
29.415356295904246
  0
LINE
  8
_0-0_
  6
CONTINUOUS
 62
    7
 10
35.750239561091348
 20
29.415356295904246
 11
35.856130561091504
 21
29.438576295904511
  0
LINE
  8
_0-0_
  6
CONTINUOUS
 62
    7
 10
35.856130561091504
 20
29.438576295904511
 11
35.921517561091605
 21
29.441746295904466
  0
LINE
  8
_0-0_
  6
CONTINUOUS
 62
    7
 10
35.913438561091425
 20
29.441746295904466
 11
36.368442561091342
 21
29.441746295904466
  0
LINE
  8
_0-0_
  6
CONTINUOUS
 62
    7
 10
36.360363561091617
 20
29.441746295904466
 11
36.467707561091629
 21
29.432106295904248
  0
LINE
  8
_0-0_
  6
CONTINUOUS
 62
    7
 10
36.467707561091629
 20
29.432106295904248
 11
36.531641561091419
 21
29.415356295904246
  0
LINE
  8
_0-0_
  6
CONTINUOUS
 62
    7
 10
36.531641561091419
 20
29.415356295904246
 11
36.54927956109168
 21
29.40602629590461
  0
LINE
  8
_0-0_
  6
CONTINUOUS
 62
    7
 10
36.54927956109168
 20
29.40602629590461
 11
36.565299561091251
 21
29.393166295904336
  0
LINE
  8
_0-0_
  6
CONTINUOUS
 62
    7
 10
36.575975561091582
 20
28.380336295904442
 11
36.357336561091415
 21
28.435056295904303
  0
LINE
  8
_0-0_
  6
CONTINUOUS
 62
    7
 10
36.357336561091415
 20
28.435056295904303
 11
36.357336561091415
 21
28.010266295904501
  0
LINE
  8
_0-0_
  6
CONTINUOUS
 62
    7
 10
36.357336561091415
 20
28.010266295904501
 11
36.464718561091559
 21
28.001246295904309
  0
LINE
  8
_0-0_
  6
CONTINUOUS
 62
    7
 10
36.464718561091559
 20
28.001246295904309
 11
36.531641561091419
 21
27.983916295904635
  0
LINE
  8
_0-0_
  6
CONTINUOUS
 62
    7
 10
36.531641561091419
 20
27.983916295904635
 11
36.54927956109168
 21
27.974596295904519
  0
LINE
  8
_0-0_
  6
CONTINUOUS
 62
    7
 10
36.54927956109168
 20
27.974596295904519
 11
36.565299561091251
 21
27.961736295904473
  0
LINE
  8
_0-0_
  6
CONTINUOUS
 62
    7
 10
36.565299561091251
 20
27.961736295904473
 11
36.579215561091587
 21
27.945726295904421
  0
LINE
  8
_0-0_
  6
CONTINUOUS
 62
    7
 10
36.579215561091587
 20
27.945726295904421
 11
36.590604561091368
 21
27.927066295904467
  0
LINE
  8
_0-0_
  6
CONTINUOUS
 62
    7
 10
36.590604561091368
 20
27.927066295904467
 11
36.599119561091811
 21
27.90631629590456
  0
LINE
  8
_0-0_
  6
CONTINUOUS
 62
    7
 10
36.599119561091811
 20
27.90631629590456
 11
36.604503561091406
 21
27.884116295904448
  0
LINE
  8
_0-0_
  6
CONTINUOUS
 62
    7
 10
36.604503561091406
 20
27.884116295904448
 11
36.606591561091591
 21
27.861116295904537
  0
LINE
  8
_0-0_
  6
CONTINUOUS
 62
    7
 10
36.606591561091591
 20
27.861116295904537
 11
36.605320561091503
 21
27.838036295904601
  0
LINE
  8
_0-0_
  6
CONTINUOUS
 62
    7
 10
36.605320561091503
 20
27.838036295904601
 11
36.600729561091612
 21
27.815576295904464
  0
LINE
  8
_0-0_
  6
CONTINUOUS
 62
    7
 10
36.600729561091612
 20
27.815576295904464
 11
36.592956561091341
 21
27.79440629590448
  0
LINE
  8
_0-0_
  6
CONTINUOUS
 62
    7
 10
36.592956561091341
 20
27.79440629590448
 11
36.582239561091228
 21
27.775186295904348
  0
LINE
  8
_0-0_
  6
CONTINUOUS
 62
    7
 10
36.582239561091228
 20
27.775186295904348
 11
36.568903561091702
 21
27.758486295904447
  0
LINE
  8
_0-0_
  6
CONTINUOUS
 62
    7
 10
36.568903561091702
 20
27.758486295904447
 11
36.553353561091626
 21
27.744816295904172
  0
LINE
  8
_0-0_
  6
CONTINUOUS
 62
    7
 10
36.553353561091626
 20
27.744816295904172
 11
36.536062561091512
 21
27.73459629590451
  0
LINE
  8
_0-0_
  6
CONTINUOUS
 62
    7
 10
36.536062561091512
 20
27.73459629590451
 11
36.531641561091419
 21
27.732666295904153
  0
LINE
  8
_0-0_
  6
CONTINUOUS
 62
    7
 10
36.531641561091419
 20
27.732666295904153
 11
36.425750561091718
 21
27.709446295904343
  0
LINE
  8
_0-0_
  6
CONTINUOUS
 62
    7
 10
36.425750561091718
 20
27.709446295904343
 11
36.360363561091617
 21
27.706276295904388
  0
LINE
  8
_0-0_
  6
CONTINUOUS
 62
    7
 10
36.368442561091342
 20
27.706276295904388
 11
35.913438561091425
 21
27.706276295904388
  0
LINE
  8
_0-0_
  6
CONTINUOUS
 62
    7
 10
35.921517561091605
 20
27.706276295904388
 11
35.814174561091477
 21
27.715916295904378
  0
LINE
  8
_0-0_
  6
CONTINUOUS
 62
    7
 10
35.814174561091477
 20
27.715916295904378
 11
35.750239561091348
 21
27.732666295904153
  0
LINE
  8
_0-0_
  6
CONTINUOUS
 62
    7
 10
35.750239561091348
 20
27.732666295904153
 11
35.732601561091542
 21
27.741996295904471
  0
LINE
  8
_0-0_
  6
CONTINUOUS
 62
    7
 10
35.732601561091542
 20
27.741996295904471
 11
35.716581561091516
 21
27.754856295904517
  0
LINE
  8
_0-0_
  6
CONTINUOUS
 62
    7
 10
35.716581561091516
 20
27.754856295904517
 11
35.702665561091635
 21
27.770856295904366
  0
LINE
  8
_0-0_
  6
CONTINUOUS
 62
    7
 10
35.702665561091635
 20
27.770856295904366
 11
35.691276561091399
 21
27.78951629590432
  0
LINE
  8
_0-0_
  6
CONTINUOUS
 62
    7
 10
35.691276561091399
 20
27.78951629590432
 11
35.682761561091411
 21
27.810266295904455
  0
LINE
  8
_0-0_
  6
CONTINUOUS
 62
    7
 10
35.682761561091411
 20
27.810266295904455
 11
35.677377561091362
 21
27.832476295904542
  0
LINE
  8
_0-0_
  6
CONTINUOUS
 62
    7
 10
35.677377561091362
 20
27.832476295904542
 11
35.675289561091631
 21
27.855476295904452
  0
LINE
  8
_0-0_
  6
CONTINUOUS
 62
    7
 10
35.675289561091631
 20
27.855476295904452
 11
35.676560561091264
 21
27.878556295904616
  0
LINE
  8
_0-0_
  6
CONTINUOUS
 62
    7
 10
35.676560561091264
 20
27.878556295904616
 11
35.68115156109161
 21
27.901016295904299
  0
LINE
  8
_0-0_
  6
CONTINUOUS
 62
    7
 10
35.68115156109161
 20
27.901016295904299
 11
35.688924561091426
 21
27.922176295904308
  0
LINE
  8
_0-0_
  6
CONTINUOUS
 62
    7
 10
35.688924561091426
 20
27.922176295904308
 11
35.699641561091539
 21
27.941406295904414
  0
LINE
  8
_0-0_
  6
CONTINUOUS
 62
    7
 10
35.699641561091539
 20
27.941406295904414
 11
35.71297756109152
 21
27.958106295904543
  0
LINE
  8
_0-0_
  6
CONTINUOUS
 62
    7
 10
35.71297756109152
 20
27.958106295904543
 11
35.728527561091596
 21
27.971766295904615
  0
LINE
  8
_0-0_
  6
CONTINUOUS
 62
    7
 10
35.728527561091596
 20
27.971766295904615
 11
35.745818561091255
 21
27.981986295904505
  0
LINE
  8
_0-0_
  6
CONTINUOUS
 62
    7
 10
35.745818561091255
 20
27.981986295904505
 11
35.750239561091348
 21
27.983916295904635
  0
LINE
  8
_0-0_
  6
CONTINUOUS
 62
    7
 10
35.750239561091348
 20
27.983916295904635
 11
35.856130561091504
 21
28.007136295904445
  0
LINE
  8
_0-0_
  6
CONTINUOUS
 62
    7
 10
35.856130561091504
 20
28.007136295904445
 11
35.86689656109138
 21
28.008236295904624
  0
LINE
  8
_0-0_
  6
CONTINUOUS
 62
    7
 10
35.86689656109138
 20
28.008236295904624
 11
35.86689656109138
 21
28.424316295904589
  0
LINE
  8
_0-0_
  6
CONTINUOUS
 62
    7
 10
35.86689656109138
 20
28.424316295904589
 11
35.70590556109164
 21
28.380336295904442
  0
LINE
  8
_0-0_
  6
CONTINUOUS
 62
    7
 10
35.70590556109164
 20
28.380336295904442
 11
35.6770815610912
 21
28.366746295904193
  0
LINE
  8
_0-0_
  6
CONTINUOUS
 62
    7
 10
35.6770815610912
 20
28.366746295904193
 11
35.618798561091353
 21
28.328346295904282
  0
LINE
  8
_0-0_
  6
CONTINUOUS
 62
    7
 10
35.618798561091353
 20
28.328346295904282
 11
35.566958561091269
 21
28.278386295904227
  0
LINE
  8
_0-0_
  6
CONTINUOUS
 62
    7
 10
35.566958561091269
 20
28.278386295904227
 11
35.523135561091749
 21
28.218376295904307
  0
LINE
  8
_0-0_
  6
CONTINUOUS
 62
    7
 10
35.523135561091749
 20
28.218376295904307
 11
35.488662561091587
 21
28.150146295904449
  0
LINE
  8
_0-0_
  6
CONTINUOUS
 62
    7
 10
35.488662561091587
 20
28.150146295904449
 11
35.464585561091553
 21
28.075766295904202
  0
LINE
  8
_0-0_
  6
CONTINUOUS
 62
    7
 10
35.464585561091553
 20
28.075766295904202
 11
35.445575561091573
 21
27.946396295904322
  0
LINE
  8
_0-0_
  6
CONTINUOUS
 62
    7
 10
35.445575561091573
 20
27.946396295904322
 11
35.443941561091378
 21
27.792616295904224
  0
LINE
  8
_0-0_
  6
CONTINUOUS
 62
    7
 10
35.443941561091378
 20
27.792616295904224
 11
35.464585561091553
 21
27.640816295904585
  0
LINE
  8
_0-0_
  6
CONTINUOUS
 62
    7
 10
35.464585561091553
 20
27.640816295904585
 11
35.474440561091342
 21
27.605586295904402
  0
LINE
  8
_0-0_
  6
CONTINUOUS
 62
    7
 10
35.474440561091342
 20
27.605586295904402
 11
35.503465561091616
 21
27.533806295904412
  0
LINE
  8
_0-0_
  6
CONTINUOUS
 62
    7
 10
35.503465561091616
 20
27.533806295904412
 11
35.542436561091563
 21
27.469156295904384
  0
LINE
  8
_0-0_
  6
CONTINUOUS
 62
    7
 10
35.542436561091563
 20
27.469156295904384
 11
35.590171561091211
 21
27.413616295904319
  0
LINE
  8
_0-0_
  6
CONTINUOUS
 62
    7
 10
35.590171561091211
 20
27.413616295904319
 11
35.645218561091497
 21
27.36885629590455
  0
LINE
  8
_0-0_
  6
CONTINUOUS
 62
    7
 10
35.645218561091497
 20
27.36885629590455
 11
35.70590556109164
 21
27.336256295904548
  0
LINE
  8
_0-0_
  6
CONTINUOUS
 62
    7
 10
35.70590556109164
 20
27.336256295904548
 11
35.979763561091204
 21
27.273656295904345
  0
LINE
  8
_0-0_
  6
CONTINUOUS
 62
    7
 10
35.979763561091204
 20
27.273656295904345
 11
36.258517561091594
 21
27.269086295904515
  0
LINE
  8
_0-0_
  6
CONTINUOUS
 62
    7
 10
36.258517561091594
 20
27.269086295904515
 11
36.533699561091453
 21
27.322656295904324
  0
LINE
  8
_0-0_
  6
CONTINUOUS
 62
    7
 10
36.533699561091453
 20
27.322656295904324
 11
36.575975561091582
 21
27.336256295904548
  0
LINE
  8
_0-0_
  6
CONTINUOUS
 62
    7
 10
36.575975561091582
 20
27.336256295904548
 11
36.604799561091568
 21
27.349836295904367
  0
LINE
  8
_0-0_
  6
CONTINUOUS
 62
    7
 10
36.604799561091568
 20
27.349836295904367
 11
36.663082561091414
 21
27.38824629590448
  0
LINE
  8
_0-0_
  6
CONTINUOUS
 62
    7
 10
36.663082561091414
 20
27.38824629590448
 11
36.714922561091498
 21
27.438206295904081
  0
LINE
  8
_0-0_
  6
CONTINUOUS
 62
    7
 10
36.714922561091498
 20
27.438206295904081
 11
36.758745561091473
 21
27.498216295904456
  0
LINE
  8
_0-0_
  6
CONTINUOUS
 62
    7
 10
36.758745561091473
 20
27.498216295904456
 11
36.793218561091635
 21
27.566446295904314
  0
LINE
  8
_0-0_
  6
CONTINUOUS
 62
    7
 10
36.793218561091635
 20
27.566446295904314
 11
36.817295561091669
 21
27.640816295904585
  0
LINE
  8
_0-0_
  6
CONTINUOUS
 62
    7
 10
36.817295561091669
 20
27.640816295904585
 11
36.836305561091194
 21
27.770196295904441
  0
LINE
  8
_0-0_
  6
CONTINUOUS
 62
    7
 10
36.836305561091194
 20
27.770196295904441
 11
36.837939561091389
 21
27.923976295904311
  0
LINE
  8
_0-0_
  6
CONTINUOUS
 62
    7
 10
36.837939561091389
 20
27.923976295904311
 11
36.817295561091669
 21
28.075766295904202
  0
LINE
  8
_0-0_
  6
CONTINUOUS
 62
    7
 10
36.817295561091669
 20
28.075766295904202
 11
36.807440561091425
 21
28.110996295904386
  0
LINE
  8
_0-0_
  6
CONTINUOUS
 62
    7
 10
36.807440561091425
 20
28.110996295904386
 11
36.77841656109149
 21
28.18278629590435
  0
LINE
  8
_0-0_
  6
CONTINUOUS
 62
    7
 10
36.77841656109149
 20
28.18278629590435
 11
36.739444561091659
 21
28.247436295904606
  0
LINE
  8
_0-0_
  6
CONTINUOUS
 62
    7
 10
36.739444561091659
 20
28.247436295904606
 11
36.691709561091557
 21
28.302976295904443
  0
LINE
  8
_0-0_
  6
CONTINUOUS
 62
    7
 10
36.691709561091557
 20
28.302976295904443
 11
36.636662561091725
 21
28.347736295904213
  0
LINE
  8
_0-0_
  6
CONTINUOUS
 62
    7
 10
36.636662561091725
 20
28.347736295904213
 11
36.575975561091582
 21
28.380336295904442
  0
LINE
  8
_0-0_
  6
CONTINUOUS
 62
    7
 10
36.578822561091329
 20
26.965486295904554
 11
36.578822561091329
 21
26.227556295904321
  0
LINE
  8
_0-0_
  6
CONTINUOUS
 62
    7
 10
36.578822561091329
 20
26.227556295904321
 11
36.246455561091352
 21
26.227556295904321
  0
LINE
  8
_0-0_
  6
CONTINUOUS
 62
    7
 10
36.246455561091352
 20
26.227556295904321
 11
36.246455561091352
 21
26.895116295904643
  0
LINE
  8
_0-0_
  6
CONTINUOUS
 62
    7
 10
36.246455561091352
 20
26.895116295904643
 11
36.018688561091494
 21
26.895116295904643
  0
LINE
  8
_0-0_
  6
CONTINUOUS
 62
    7
 10
36.018688561091494
 20
26.895116295904643
 11
36.018688561091494
 21
26.227556295904321
  0
LINE
  8
_0-0_
  6
CONTINUOUS
 62
    7
 10
36.018688561091494
 20
26.227556295904321
 11
35.703058561091439
 21
26.227556295904321
  0
LINE
  8
_0-0_
  6
CONTINUOUS
 62
    7
 10
35.703058561091439
 20
26.227556295904321
 11
35.703058561091439
 21
26.965486295904554
  0
LINE
  8
_0-0_
  6
CONTINUOUS
 62
    7
 10
35.703058561091439
 20
26.965486295904554
 11
35.460420561091269
 21
26.965486295904554
  0
LINE
  8
_0-0_
  6
CONTINUOUS
 62
    7
 10
35.460420561091269
 20
26.965486295904554
 11
35.460420561091269
 21
25.821706295903994
  0
LINE
  8
_0-0_
  6
CONTINUOUS
 62
    7
 10
35.460420561091269
 20
25.821706295903994
 11
36.821460561091499
 21
25.821706295903994
  0
LINE
  8
_0-0_
  6
CONTINUOUS
 62
    7
 10
36.821460561091499
 20
25.821706295903994
 11
36.821460561091499
 21
26.965486295904554
  0
LINE
  8
_0-0_
  6
CONTINUOUS
 62
    7
 10
36.821460561091499
 20
26.965486295904554
 11
36.578822561091329
 21
26.965486295904554
  0
LINE
  8
_0-0_
  6
CONTINUOUS
 62
    7
 10
36.578822561091329
 20
25.507476295904496
 11
36.578822561091329
 21
24.771286295904417
  0
LINE
  8
_0-0_
  6
CONTINUOUS
 62
    7
 10
36.578822561091329
 20
24.771286295904417
 11
35.460420561091269
 21
24.771286295904417
  0
LINE
  8
_0-0_
  6
CONTINUOUS
 62
    7
 10
35.460420561091269
 20
24.771286295904417
 11
35.460420561091269
 21
24.363996295904315
  0
LINE
  8
_0-0_
  6
CONTINUOUS
 62
    7
 10
35.460420561091269
 20
24.363996295904315
 11
36.821460561091499
 21
24.363996295904315
  0
LINE
  8
_0-0_
  6
CONTINUOUS
 62
    7
 10
36.821460561091499
 20
24.363996295904315
 11
36.821460561091499
 21
25.507476295904496
  0
LINE
  8
_0-0_
  6
CONTINUOUS
 62
    7
 10
36.821460561091499
 20
25.507476295904496
 11
36.578822561091329
 21
25.507476295904496
  0
LINE
  8
_0-0_
  6
CONTINUOUS
 62
    7
 10
27.388247561091248
 20
2.2235211910887642
 11
28.588247561091521
 21
1.0235211910889461
  0
LINE
  8
_0-0_
  6
CONTINUOUS
 62
    7
 10
28.588247561091521
 20
1.0235211910889461
 11
30.588247561091521
 21
1.0235211910889461
  0
LINE
  8
_0-0_
  6
CONTINUOUS
 62
    7
 10
30.888247561091248
 20
1.323521191089128
 11
30.888247561091248
 21
11.323521191089128
  0
LINE
  8
_0-0_
  6
CONTINUOUS
 62
    7
 10
30.588247561091521
 20
11.623521191088855
 11
28.588247561091521
 21
11.623521191088855
  0
LINE
  8
_0-0_
  6
CONTINUOUS
 62
    7
 10
28.588247561091521
 20
11.623521191088855
 11
27.388247561091248
 21
10.423521191089037
  0
LINE
  8
_0-0_
  6
CONTINUOUS
 62
    7
 10
27.388247561091248
 20
10.423521191089037
 11
27.388247561091248
 21
2.2235211910887642
  0
LINE
  8
_0-0_
  6
CONTINUOUS
 62
    7
 10
28.588247561091521
 20
1.0235211910889461
 11
28.588247561091521
 21
11.623521191088855
  0
LINE
  8
_0-0_
  6
CONTINUOUS
 62
    7
 10
31.488247561091612
 20
9.6235211910888552
 11
31.888247561091248
 21
9.6235211910888552
  0
LINE
  8
_0-0_
  6
CONTINUOUS
 62
    7
 10
31.888247561091248
 20
9.6235211910888552
 11
32.581067561091459
 21
9.223521191089219
  0
LINE
  8
_0-0_
  6
CONTINUOUS
 62
    7
 10
32.581067561091459
 20
9.223521191089219
 11
48.388247561091248
 21
9.223521191089219
  0
LINE
  8
_0-0_
  6
CONTINUOUS
 62
    7
 10
48.888247561091703
 20
8.7235211910887642
 11
48.888247561091703
 21
3.5235211910889461
  0
LINE
  8
_0-0_
  6
CONTINUOUS
 62
    7
 10
48.388247561091248
 20
3.0235211910889461
 11
31.488247561091612
 21
3.0235211910889461
  0
LINE
  8
_0-0_
  6
CONTINUOUS
 62
    7
 10
36.888247561091248
 20
3.0235211910889461
 11
38.18824756109143
 21
1.723521191089219
  0
LINE
  8
_0-0_
  6
CONTINUOUS
 62
    7
 10
38.18824756109143
 20
1.723521191089219
 11
45.588247561091521
 21
1.723521191089219
  0
LINE
  8
_0-0_
  6
CONTINUOUS
 62
    7
 10
45.588247561091521
 20
1.723521191089219
 11
46.888247561091248
 21
3.0235211910889461
  0
LINE
  8
_0-0_
  6
CONTINUOUS
 62
    7
 10
46.888247561091248
 20
22.373996295904078
 11
35.345353561091542
 21
22.373996295904078
  0
LINE
  8
_0-0_
  6
CONTINUOUS
 62
    7
 10
34.991800561091623
 20
22.520446295904264
 11
33.834693561091626
 21
23.677556295904367
  0
LINE
  8
_0-0_
  6
CONTINUOUS
 62
    7
 10
33.481140561091252
 20
23.823996295904351
 11
31.488247561091612
 21
23.823996295904351
  0
LINE
  8
_0-0_
  6
CONTINUOUS
 62
    7
 10
31.888247561091248
 20
23.823996295904351
 11
31.888247561091248
 21
30.42399629590426
  0
LINE
  8
_0-0_
  6
CONTINUOUS
 62
    7
 10
31.488247561091612
 20
30.42399629590426
 11
33.481140561091252
 21
30.42399629590426
  0
LINE
  8
_0-0_
  6
CONTINUOUS
 62
    7
 10
33.834693561091626
 20
30.570446295904219
 11
34.991800561091623
 21
31.727556295904321
  0
LINE
  8
_0-0_
  6
CONTINUOUS
 62
    7
 10
35.345353561091542
 20
31.873996295904078
 11
46.888247561091248
 21
31.873996295904078
  0
LINE
  8
_0-0_
  6
CONTINUOUS
 62
    7
 10
48.888247561091703
 20
29.873996295904305
 11
48.888247561091703
 21
24.373996295904078
  0
LINE
  8
_0-0_
  6
CONTINUOUS
 62
    7
 10
44.168597561091246
 20
25.023996295904169
 11
39.60789656109182
 21
25.023996295904169
  0
LINE
  8
_0-0_
  6
CONTINUOUS
 62
    7
 10
39.60789656109182
 20
29.223996295904215
 11
44.168597561091246
 21
29.223996295904215
  0
LINE
  8
_0-0_
  6
CONTINUOUS
 62
    7
 10
32.581067561091459
 20
30.42399629590426
 11
32.581067561091459
 21
23.823996295904351
  0
LINE
  8
_0-0_
  6
CONTINUOUS
 62
    7
 10
30.888247561091248
 20
22.123996295904078
 11
30.888247561091248
 21
32.123996295904305
  0
LINE
  8
_0-0_
  6
CONTINUOUS
 62
    7
 10
30.588247561091521
 20
32.423996295904487
 11
28.588247561091521
 21
32.423996295904487
  0
LINE
  8
_0-0_
  6
CONTINUOUS
 62
    7
 10
28.588247561091521
 20
32.423996295904487
 11
27.388247561091248
 21
31.223996295904442
  0
LINE
  8
_0-0_
  6
CONTINUOUS
 62
    7
 10
27.388247561091248
 20
31.223996295904442
 11
27.388247561091248
 21
23.023996295904169
  0
LINE
  8
_0-0_
  6
CONTINUOUS
 62
    7
 10
27.388247561091248
 20
23.023996295904169
 11
28.588247561091521
 21
21.823996295904351
  0
LINE
  8
_0-0_
  6
CONTINUOUS
 62
    7
 10
28.588247561091521
 20
21.823996295904351
 11
30.588247561091521
 21
21.823996295904351
  0
LINE
  8
_0-0_
  6
CONTINUOUS
 62
    7
 10
28.588247561091521
 20
21.823996295904351
 11
28.588247561091521
 21
32.423996295904487
  0
ARC
  8
_0-0_
  6
CONTINUOUS
 62
    7
 10
31.488247561091612
 20
31.023996295904396
 40
0.5999999999999996
 50
180
 51
270
  0
ARC
  8
_0-0_
  6
CONTINUOUS
 62
    7
 10
31.488247561091612
 20
23.223996295903987
 40
0.5999999999999996
 50
90
 51
180
  0
ARC
  8
_0-0_
  6
CONTINUOUS
 62
    7
 10
46.888247561091248
 20
29.873996295904305
 40
2
 50
0
 51
90
  0
ARC
  8
_0-0_
  6
CONTINUOUS
 62
    7
 10
46.888247561091248
 20
24.373996295904078
 40
2
 50
270
 51
0
  0
CIRCLE
  8
_0-0_
  6
CONTINUOUS
 62
    7
 10
41.888247561091248
 20
27.123996295904305
 40
3.8500000000000001
  0
CIRCLE
  8
_0-0_
  6
CONTINUOUS
 62
    7
 10
41.888247561091248
 20
27.123996295904305
 40
3.1000000000000005
  0
ARC
  8
_0-0_
  6
CONTINUOUS
 62
    7
 10
30.588247561091521
 20
32.123996295904305
 40
0.2999999999999998
 50
0
 51
90
  0
ARC
  8
_0-0_
  6
CONTINUOUS
 62
    7
 10
30.588247561091521
 20
22.123996295904078
 40
0.2999999999999998
 50
270
 51
0
  0
ARC
  8
_0-0_
  6
CONTINUOUS
 62
    7
 10
33.481140561091252
 20
30.923996295904487
 40
0.5
 50
270
 51
315
  0
ARC
  8
_0-0_
  6
CONTINUOUS
 62
    7
 10
35.345353561091542
 20
31.373996295904305
 40
0.5
 50
90
 51
135
  0
ARC
  8
_0-0_
  6
CONTINUOUS
 62
    7
 10
33.481140561091252
 20
23.323996295904351
 40
0.5
 50
45
 51
90
  0
ARC
  8
_0-0_
  6
CONTINUOUS
 62
    7
 10
35.345353561091542
 20
22.873996295904078
 40
0.5
 50
225
 51
270
  0
ARC
  8
_0-0_
  6
CONTINUOUS
 62
    7
 10
31.488247561091612
 20
10.223521191089219
 40
0.5999999999999996
 50
180
 51
270
  0
ARC
  8
_0-0_
  6
CONTINUOUS
 62
    7
 10
31.488247561091612
 20
2.4235211910890371
 40
0.5999999999999996
 50
90
 51
180
  0
ARC
  8
_0-0_
  6
CONTINUOUS
 62
    7
 10
48.388247561091248
 20
8.7235211910887642
 40
0.5
 50
0
 51
90
  0
ARC
  8
_0-0_
  6
CONTINUOUS
 62
    7
 10
48.388247561091248
 20
3.5235211910889461
 40
0.5
 50
270
 51
0
  0
ARC
  8
_0-0_
  6
CONTINUOUS
 62
    7
 10
30.588247561091521
 20
11.323521191089128
 40
0.2999999999999998
 50
0
 51
90
  0
ARC
  8
_0-0_
  6
CONTINUOUS
 62
    7
 10
30.588247561091521
 20
1.323521191089128
 40
0.2999999999999998
 50
270
 51
0
  0
ARC
  8
_0-0_
  6
CONTINUOUS
 62
    7
 10
72.168908559513739
 20
24.654194392297939
 40
0.2999999999999998
 50
180
 51
255.00000000000028
  0
LINE
  8
_0-0_
  6
CONTINUOUS
 62
    7
 10
65.668908559513739
 20
31.573996295904294
 11
65.668908559513739
 21
22.673996295904374
  0
ARC
  8
_0-0_
  6
CONTINUOUS
 62
    7
 10
65.968908559513807
 20
31.573996295904294
 40
0.2999999999999998
 50
90
 51
180
  0
ARC
  8
_0-0_
  6
CONTINUOUS
 62
    7
 10
65.968908559513807
 20
22.673996295904374
 40
0.2999999999999998
 50
180
 51
270
  0
LINE
  8
_0-0_
  6
CONTINUOUS
 62
    7
 10
71.868908559513784
 20
24.654194392297939
 11
71.868908559513784
 21
29.593798199510388
  0
ARC
  8
_0-0_
  6
CONTINUOUS
 62
    7
 10
72.168908559513739
 20
29.593798199510388
 40
0.2999999999999998
 50
105.00000000000009
 51
180
  0
LINE
  8
_0-0_
  6
CONTINUOUS
 62
    7
 10
72.868908559513784
 20
22.373996295904476
 11
65.968908559513807
 21
22.373996295904476
  0
ARC
  8
_0-0_
  6
CONTINUOUS
 62
    7
 10
72.868908559513784
 20
22.673996295904487
 40
0.2999999999999998
 50
270
 51
0
  0
LINE
  8
_0-0_
  6
CONTINUOUS
 62
    7
 10
73.168908559513739
 20
23.845464249350186
 11
73.168908559513739
 21
22.673996295904487
  0
LINE
  8
_0-0_
  6
CONTINUOUS
 62
    7
 10
72.946554273044512
 20
24.135241997236903
 11
72.091262845982897
 21
24.364416644411392
  0
ARC
  8
_0-0_
  6
CONTINUOUS
 62
    7
 10
72.868908559513784
 20
23.845464249350186
 40
0.2999999999999998
 50
0
 51
74.999999999995055
  0
LINE
  8
_0-0_
  6
CONTINUOUS
 62
    7
 10
72.946554273044399
 20
30.112750594571764
 11
72.09126284598301
 21
29.88357594739756
  0
ARC
  8
_0-0_
  6
CONTINUOUS
 62
    7
 10
72.868908559513784
 20
30.402528342458425
 40
0.2999999999999998
 50
284.99999999998636
 51
0
  0
LINE
  8
_0-0_
  6
CONTINUOUS
 62
    7
 10
73.168908559513739
 20
31.573996295904465
 11
73.168908559513739
 21
30.402528342458425
  0
LINE
  8
_0-0_
  6
CONTINUOUS
 62
    7
 10
72.868908559513784
 20
31.873996295904476
 11
65.968908559513807
 21
31.873996295904476
  0
ARC
  8
_0-0_
  6
CONTINUOUS
 62
    7
 10
72.868908559513784
 20
31.573996295904465
 40
0.2999999999999998
 50
0
 51
90
  0
ARC
  8
_0-0_
  6
CONTINUOUS
 62
    7
 10
11.381818246589432
 20
22.123996295904305
 40
0.2999999999999998
 50
270
 51
0
  0
ARC
  8
_0-0_
  6
CONTINUOUS
 62
    7
 10
1.3818182465897735
 20
32.123996295904305
 40
0.2999999999999998
 50
90
 51
180
  0
LINE
  8
_0-0_
  6
CONTINUOUS
 62
    7
 10
11.381818246589432
 20
32.423996295904317
 11
1.3818182465897735
 21
32.423996295904317
  0
ARC
  8
_0-0_
  6
CONTINUOUS
 62
    7
 10
11.381818246589432
 20
32.123996295904305
 40
0.2999999999999998
 50
0
 51
90.000000000000028
  0
LINE
  8
_0-0_
  6
CONTINUOUS
 62
    7
 10
11.681818246589501
 20
22.123996295904305
 11
11.681818246589501
 21
32.123996295904305
  0
LINE
  8
_0-0_
  6
CONTINUOUS
 62
    7
 10
1.0818182465897053
 20
22.123996295904305
 11
1.0818182465897053
 21
32.123996295904305
  0
ARC
  8
_0-0_
  6
CONTINUOUS
 62
    7
 10
1.3818182465897735
 20
22.123996295904305
 40
0.2999999999999998
 50
180
 51
270
  0
ARC
  8
_0-0_
  6
CONTINUOUS
 62
    7
 10
2.5818182465897053
 20
23.323996295904408
 40
0.2999999999999998
 50
180
 51
270
  0
LINE
  8
_0-0_
  6
CONTINUOUS
 62
    7
 10
2.2818182465896371
 20
30.923996295904203
 11
2.2818182465896371
 21
23.323996295904408
  0
ARC
  8
_0-0_
  6
CONTINUOUS
 62
    7
 10
2.5818182465897053
 20
30.923996295904203
 40
0.2999999999999998
 50
90
 51
180
  0
LINE
  8
_0-0_
  6
CONTINUOUS
 62
    7
 10
10.181818246589728
 20
31.223996295904215
 11
2.5818182465897053
 21
31.223996295904215
  0
ARC
  8
_0-0_
  6
CONTINUOUS
 62
    7
 10
10.181818246589728
 20
30.923996295904203
 40
0.2999999999999998
 50
0
 51
90.000000000000028
  0
LINE
  8
_0-0_
  6
CONTINUOUS
 62
    7
 10
10.481818246589796
 20
23.323996295904408
 11
10.481818246589796
 21
30.923996295904203
  0
LINE
  8
_0-0_
  6
CONTINUOUS
 62
    7
 10
10.181818246589728
 20
23.023996295904396
 11
2.5818182465897053
 21
23.023996295904396
  0
ARC
  8
_0-0_
  6
CONTINUOUS
 62
    7
 10
10.181818246589728
 20
23.323996295904408
 40
0.2999999999999998
 50
270
 51
0
  0
LINE
  8
_0-0_
  6
CONTINUOUS
 62
    7
 10
2.3696862122337734
 20
31.136128330260192
 11
1.1696862122337279
 21
32.336128330260181
  0
LINE
  8
_0-0_
  6
CONTINUOUS
 62
    7
 10
10.393950280945774
 20
31.136128330260192
 11
11.593950280945705
 21
32.336128330260067
  0
LINE
  8
_0-0_
  6
CONTINUOUS
 62
    7
 10
2.3696862122337734
 20
23.111864261548419
 11
1.1696862122337279
 21
21.91186426154843
  0
LINE
  8
_0-0_
  6
CONTINUOUS
 62
    7
 10
10.393950280945774
 20
23.111864261548419
 11
11.593950280945705
 21
21.911864261548601
  0
LINE
  8
_0-0_
  6
CONTINUOUS
 62
    7
 10
1.3818182465897735
 20
21.823996295904294
 11
11.381818246589432
 21
21.823996295904294
  0
LINE
  8
_0-1_
  6
CENTER1
 62
  152
 10
27.388247561091248
 20
27.123996295904305
 11
48.888247561091703
 21
27.123996295904305
  0
LINE
  8
_0-1_
  6
CENTER1
 62
  152
 10
41.888247561091248
 20
1.723521191089219
 11
41.888247561091248
 21
9.223521191089219
  0
LINE
  8
_0-1_
  6
CENTER1
 62
  152
 10
41.888247561091248
 20
22.373996295904078
 11
41.888247561091248
 21
31.873996295904078
  0
LINE
  8
_0-1_
  6
DASHED2
 62
  152
 10
67.36794666519063
 20
30.223996295904385
 11
69.099997472759924
 21
29.223996295904215
  0
LINE
  8
_0-1_
  6
DASHED2
 62
  152
 10
71.568908559513829
 20
25.023996295904112
 11
71.568908559513829
 21
29.223996295904215
  0
LINE
  8
_0-1_
  6
DASHED2
 62
  152
 10
71.568908559513829
 20
25.023996295904112
 11
71.868908559513784
 21
24.723996295904215
  0
LINE
  8
_0-1_
  6
DASHED2
 62
  152
 10
71.568908559513829
 20
29.223996295904215
 11
71.868908559513784
 21
29.523996295904112
  0
LINE
  8
_0-1_
  6
DASHED2
 62
  152
 10
66.967946665190539
 20
24.023996295904567
 11
66.967946665190539
 21
30.223996295904385
  0
LINE
  8
_0-1_
  6
DASHED2
 62
  152
 10
65.668908559513739
 20
30.973996295904385
 11
66.967946665190539
 21
30.223996295904385
  0
LINE
  8
_0-1_
  6
DASHED2
 62
  152
 10
66.967946665190539
 20
24.023996295904567
 11
67.367946665190402
 21
24.023996295904567
  0
LINE
  8
_0-1_
  6
DASHED2
 62
  152
 10
66.967946665190539
 20
30.223996295904385
 11
67.36794666519063
 21
30.223996295904385
  0
LINE
  8
_0-1_
  6
DASHED2
 62
  152
 10
69.099997472759924
 20
29.223996295904215
 11
71.568908559513829
 21
29.223996295904215
  0
LINE
  8
_0-1_
  6
DASHED2
 62
  152
 10
67.367946665190402
 20
24.023996295904567
 11
69.099997472758787
 21
25.023996295904112
  0
LINE
  8
_0-1_
  6
DASHED2
 62
  152
 10
69.099997472758787
 20
25.023996295904112
 11
71.568908559513829
 21
25.023996295904112
  0
LINE
  8
_0-1_
  6
DASHED2
 62
  152
 10
65.668908559513739
 20
23.273996295904567
 11
66.967946665190539
 21
24.023996295904567
  0
LINE
  8
_0-1_
  6
CENTER1
 62
  152
 10
63.747789499849318
 20
27.123996295904476
 11
74.342513884676691
 21
27.123996295904476
  0
ENDSEC
  0
EOF
