  0
SECTION
  2
HEADER
  9
$ACADVER
  1
AC1009
  9
$INSBASE
 10
0
 20
0
 30
0
  9
$EXTMIN
 10
0
 20
0
  9
$EXTMAX
 10
1189
 20
841
  9
$LIMMIN
 10
0
 20
0
  9
$LIMMAX
 10
1189
 20
841
  9
$LTSCALE
 40
1
  0
ENDSEC
  0
SECTION
  2
TABLES
  0
TABLE
  2
LTYPE
 70
     9
  0
LTYPE
  2
CONTINUOUS
 70
    64
  3
実線
 72
    65
 73
     0
 40
0.0
  0
LTYPE
  2
DASHED1
 70
    64
  3
--  --  --  --  --  --  --  --  
 72
    65
 73
     2
 40
2.5
 49
1.25
 49
-1.25
  0
LTYPE
  2
DASHED2
 70
    64
  3
----    ----    ----    ----    
 72
    65
 73
     2
 40
5.0
 49
2.5
 49
-2.5
  0
LTYPE
  2
DASHED3
 70
    64
  3
------  ------  ------  ------  
 72
    65
 73
     2
 40
5.0
 49
3.75
 49
-1.25
  0
LTYPE
  2
CENTER1
 70
    64
  3
----- - ----- - ----- - ----- - 
 72
    65
 73
     4
 40
10.0
 49
6.25
 49
-1.25
 49
1.25
 49
-1.25
  0
LTYPE
  2
CENTER2
 70
    64
  3
----------  --  ----------  --  
 72
    65
 73
     4
 40
20.0
 49
12.5
 49
-2.5
 49
2.5
 49
-2.5
  0
LTYPE
  2
PHANTOM1
 70
    64
  3
--- - - --- - - --- - - --- - - 
 72
    65
 73
     6
 40
10.0
 49
3.25
 49
-1.25
 49
1.25
 49
-1.25
 49
1.25
 49
-1.25
  0
LTYPE
  2
PHANTOM2
 70
    64
  3
--------  -  -  --------  -  -  
 72
    65
 73
     6
 40
20.0
 49
10.0
 49
-2.5
 49
1.25
 49
-2.5
 49
1.25
 49
-2.5
  0
LTYPE
  2
DOT
 70
    64
  3
-   -   -   -   -   -   -   -   
 72
    65
 73
     2
 40
2.5
 49
0.625
 49
-1.875
  0
LTYPE
  2
DUMMY
 70
    64
  3
ダミー
 72
    65
 73
     0
 40
0.0
  0
LTYPE
  2
RAND1
 70
    64
  3
ランダム線1
 72
    65
 73
     4
 40
10.0
 49
1.0
 49
-2.0
 49
3.0
 49
-4.0
  0
LTYPE
  2
RAND2
 70
    64
  3
ランダム線2
 72
    65
 73
     4
 40
14.0
 49
2.0
 49
-3.0
 49
4.0
 49
-5.0
  0
LTYPE
  2
RAND3
 70
    64
  3
ランダム線3
 72
    65
 73
     4
 40
18.0
 49
3.0
 49
-4.0
 49
5.0
 49
-6.0
  0
LTYPE
  2
RAND4
 70
    64
  3
ランダム線4
 72
    65
 73
     4
 40
22.0
 49
4.0
 49
-5.0
 49
6.0
 49
-7.0
  0
LTYPE
  2
RAND5
 70
    64
  3
ランダム線5
 72
    65
 73
     4
 40
26.0
 49
5.0
 49
-6.0
 49
7.0
 49
-8.0
  0
LTYPE
  2
LONG1
 70
    64
  3
----------  --  ----------  --  
 72
    65
 73
     4
 40
40.0
 49
32.5
 49
-2.5
 49
2.5
 49
-2.5
  0
LTYPE
  2
LONG2
 70
    64
  3
--------  -  -  --------  -  -  
 72
    65
 73
     6
 40
40.0
 49
30.0
 49
-2.5
 49
1.25
 49
-2.5
 49
1.25
 49
-2.5
  0
LTYPE
  2
LONG3
 70
    64
  3
+++++++++++++++..+++++++++++++++
 72
    65
 73
     2
 40
40.0
 49
37.5
 49
-2.5
  0
LTYPE
  2
LONG4
 70
    64
  3
+++++++++++++++..+++++++++++++++
 72
    65
 73
     2
 40
80.0
 49
75.0
 49
-5.0
  0
LTYPE
  2
LONG5
 70
    64
  3
----------  --  ----------  --  
 72
    65
 73
     4
 40
60.0
 49
37.5
 49
-7.5
 49
7.5
 49
-7.5
  0
LTYPE
  2
dashed
 70
   64
  3
-------   -------------   ------
 72
   65
 73
    2
 40
7.5
 49
6
 49
-1.5
  0
LTYPE
  2
dashed_spaced
 70
   64
  3
----        --------        ----
 72
   65
 73
    2
 40
12
 49
6
 49
-6
  0
LTYPE
  2
long_dashed_dotted
 70
   64
  3
------------- --- --------------
 72
   65
 73
    4
 40
15.25
 49
12
 49
-1.5
 49
0.25
 49
-1.5
  0
LTYPE
  2
long_dashed_double-dotted
 70
   64
  3
----------- --- --- ------------
 72
   65
 73
    6
 40
17
 49
12
 49
-1.5
 49
0.25
 49
-1.5
 49
0.25
 49
-1.5
  0
LTYPE
  2
long_dashed_triplicate-dotted
 70
   64
  3
--------- --- --- --- ----------
 72
   65
 73
    8
 40
18.75
 49
12
 49
-1.5
 49
0.25
 49
-1.5
 49
0.25
 49
-1.5
 49
0.25
 49
-1.5
  0
LTYPE
  2
dotted
 70
   64
  3
   -       -       -       -    
 72
   65
 73
    2
 40
1.75
 49
0.25
 49
-1.5
  0
LTYPE
  2
chain
 70
   64
  3
-------------- -- --------------
 72
   65
 73
    4
 40
18.5
 49
12
 49
-1.5
 49
3.5
 49
-1.5
  0
LTYPE
  2
chain_double_dash
 70
   64
  3
------------ -- -- -------------
 72
   65
 73
    6
 40
23.5
 49
12
 49
-1.5
 49
3.5
 49
-1.5
 49
3.5
 49
-1.5
  0
LTYPE
  2
dashed_dotted
 70
   64
  3
-----------     -     ----------
 72
   65
 73
    4
 40
9.25
 49
6
 49
-1.5
 49
0.25
 49
-1.5
  0
LTYPE
  2
double-dashed_dotted
 70
   64
  3
------   -----------   -   -----
 72
   65
 73
    6
 40
16.75
 49
6
 49
-1.5
 49
6
 49
-1.5
 49
0.25
 49
-1.5
  0
LTYPE
  2
dashed_double-dotted
 70
   64
  3
---------    -    -    ---------
 72
   65
 73
    6
 40
11
 49
6
 49
-1.5
 49
0.25
 49
-1.5
 49
0.25
 49
-1.5
  0
LTYPE
  2
double-dashed_double-dotted
 70
   64
  3
-----   ---------   -   -   ----
 72
   65
 73
    8
 40
18.5
 49
6
 49
-1.5
 49
6
 49
-1.5
 49
0.25
 49
-1.5
 49
0.25
 49
-1.5
  0
LTYPE
  2
dashed_triplicate-dotted
 70
   64
  3
-------    -    -    -    ------
 72
   65
 73
    8
 40
12.75
 49
6
 49
-1.5
 49
0.25
 49
-1.5
 49
0.25
 49
-1.5
 49
0.25
 49
-1.5
  0
LTYPE
  2
double-dashed_triplicate-dotted
 70
   64
  3
-----  ---------  -  -  -  -----
 72
   65
 73
   10
 40
20.25
 49
6
 49
-1.5
 49
6
 49
-1.5
 49
0.25
 49
-1.5
 49
0.25
 49
-1.5
 49
0.25
 49
-1.5
  0
LTYPE
  2
undefined
 70
   64
  3
--------------------------------
 72
   65
 73
    0
 40
0
  0
ENDTAB
  0
TABLE
  2
STYLE
  5
3
100
AcDbSymbolTable
 70
     1
  0
STYLE
  5
10
100
AcDbSymbolTableRecord
100
AcDbTextStyleTableRecord
  2
STANDARD
 70
     0
 40
0.0
 41
1.0
 50
0.0
 71
     0
 42
0.2
  3
txt
  4
bigfont.shx
  0
STYLE
  5
26
100
AcDbSymbolTableRecord
100
AcDbTextStyleTableRecord
  2
TATEGAKI
 70
    68
 40
0.0
 41
1.0
 50
0.0
 71
     0
 42
1.0
  3
txt
  4
bigfont.shx
  0
ENDTAB
  0
TABLE
  2
LAYER
 70
    4
  0
LAYER
  2
_0-0_
 70
   64
 62
    7
  6
CONTINUOUS
  0
LAYER
  2
_0-1_
 70
   64
 62
    7
  6
CONTINUOUS
  0
LAYER
  2
_0-f_
 70
   64
 62
    7
  6
CONTINUOUS
  0
LAYER
  2
ADD_LINE
 70
   64
 62
    7
  6
CONTINUOUS
  0
ENDTAB
  0
ENDSEC
  0
SECTION
  2
BLOCKS
  0
ENDSEC
  0
SECTION
  2
ENTITIES
  0
TEXT
  8
_0-f_
 62
    7
 10
1.276796743079899
 20
1.5651671495867845
 40
4.2999999999999998
 41
0.744186046511628
 50
0
  1
TB40
  0
LINE
  8
_0-0_
  6
CONTINUOUS
 62
    7
 10
18.696175146277369
 20
37.794184350252692
 11
17.252799473303298
 21
35.294184350252692
  0
LINE
  8
_0-0_
  6
CONTINUOUS
 62
    7
 10
17.252799473303298
 20
35.294184350252692
 11
14.366048127355157
 21
35.294184350252692
  0
LINE
  8
_0-0_
  6
CONTINUOUS
 62
    7
 10
14.366048127355157
 20
35.294184350252692
 11
12.922672454381086
 21
37.794184350252692
  0
LINE
  8
_0-0_
  6
CONTINUOUS
 62
    7
 10
12.922672454381086
 20
37.794184350252692
 11
14.366048127355157
 21
40.294184350252692
  0
LINE
  8
_0-0_
  6
CONTINUOUS
 62
    7
 10
14.366048127355157
 20
40.294184350252692
 11
17.252799473303298
 21
40.294184350252692
  0
LINE
  8
_0-0_
  6
CONTINUOUS
 62
    7
 10
17.252799473303298
 20
40.294184350252692
 11
18.696175146277369
 21
37.794184350252692
  0
LINE
  8
_0-0_
  6
CONTINUOUS
 62
    7
 10
18.309423800329228
 20
1.7953143502530793
 11
13.309423800329228
 21
1.7953143502530793
  0
LINE
  8
_0-0_
  6
CONTINUOUS
 62
    7
 10
13.309423800329228
 20
1.7953143502530793
 11
12.809423800329228
 21
2.2953143502530793
  0
LINE
  8
_0-0_
  6
CONTINUOUS
 62
    7
 10
12.809423800329228
 20
2.2953143502530793
 11
12.809423800329228
 21
11.331212735115287
  0
LINE
  8
_0-0_
  6
CONTINUOUS
 62
    7
 10
12.809423800329228
 20
11.331212735115287
 11
10.809423800329228
 21
14.795314350253193
  0
LINE
  8
_0-0_
  6
CONTINUOUS
 62
    7
 10
10.809423800329228
 20
14.795314350253193
 11
10.809423800329228
 21
20.395314350253159
  0
LINE
  8
_0-0_
  6
CONTINUOUS
 62
    7
 10
10.809423800329228
 20
20.395314350253159
 11
11.50224412335649
 21
20.79531435025325
  0
LINE
  8
_0-0_
  6
CONTINUOUS
 62
    7
 10
11.50224412335649
 20
20.79531435025325
 11
20.11660347730151
 21
20.79531435025325
  0
LINE
  8
_0-0_
  6
CONTINUOUS
 62
    7
 10
20.11660347730151
 20
20.79531435025325
 11
20.809423800329228
 21
20.395314350253159
  0
LINE
  8
_0-0_
  6
CONTINUOUS
 62
    7
 10
20.809423800329228
 20
20.395314350253159
 11
20.809423800329228
 21
14.795314350253193
  0
LINE
  8
_0-0_
  6
CONTINUOUS
 62
    7
 10
20.809423800329228
 20
14.795314350253193
 11
18.809423800329228
 21
11.331212735115287
  0
LINE
  8
_0-0_
  6
CONTINUOUS
 62
    7
 10
18.809423800329228
 20
11.331212735115287
 11
18.809423800329228
 21
2.2953143502530793
  0
LINE
  8
_0-0_
  6
CONTINUOUS
 62
    7
 10
18.809423800329228
 20
2.2953143502530793
 11
18.309423800329228
 21
1.7953143502530793
  0
LINE
  8
_0-0_
  6
CONTINUOUS
 62
    7
 10
18.809423800329228
 20
11.331212735115287
 11
12.809423800329228
 21
11.331212735115287
  0
LINE
  8
_0-0_
  6
CONTINUOUS
 62
    7
 10
10.809423800329228
 20
14.795314350253193
 11
20.809423800329228
 21
14.795314350253193
  0
LINE
  8
_0-0_
  6
CONTINUOUS
 62
    7
 10
20.809423800329228
 20
20.395314350253159
 11
10.809423800329228
 21
20.395314350253159
  0
CIRCLE
  8
_0-0_
  6
CONTINUOUS
 62
    7
 10
15.809423800329228
 20
37.794184350252692
 40
5
  0
LINE
  8
_0-1_
  6
CENTER1
 62
  152
 10
9.8094238003287728
 20
37.794184350252692
 11
21.809423800329228
 21
37.794184350252692
  0
LINE
  8
_0-1_
  6
CENTER1
 62
  152
 10
15.809423800329228
 20
31.794204350253096
 11
15.809423800329228
 21
43.794164350253197
  0
LINE
  8
_0-1_
  6
CENTER1
 62
  152
 10
15.809423800329228
 20
25.259364350253293
 11
15.809423800329228
 21
0.9619516710508833
  0
LINE
  8
_0-1_
  6
CONTINUOUS
 62
  152
 10
18.809423800329228
 20
9.795314350253193
 11
12.809423800329228
 21
9.795314350253193
  0
LINE
  8
_0-1_
  6
CONTINUOUS
 62
  152
 10
12.809423800329228
 20
10.661339754037499
 11
13.309423800329228
 21
9.795314350253193
  0
LINE
  8
_0-1_
  6
CONTINUOUS
 62
  152
 10
18.309423800329228
 20
9.795314350253193
 11
18.809423800329228
 21
10.661339754037499
  0
LINE
  8
_0-1_
  6
CONTINUOUS
 62
  152
 10
18.309423800329228
 20
1.7953143502530793
 11
18.309423800329228
 21
9.795314350253193
  0
LINE
  8
_0-1_
  6
CONTINUOUS
 62
  152
 10
13.309423800329228
 20
9.795314350253193
 11
13.309423800329228
 21
1.7953143502530793
  0
LINE
  8
_0-1_
  6
CONTINUOUS
 62
  152
 10
12.809423800329228
 20
2.2953143502530793
 11
18.809423800329228
 21
2.2953143502530793
  0
ENDSEC
  0
EOF
