  0
SECTION
  2
HEADER
  9
$ACADVER
  1
AC1009
  9
$DWGCODEPAGE
  3
ansi_932
  9
$INSBASE
 10
0.0
 20
0.0
 30
0.0
  9
$EXTMIN
 10
-26.57751062661864
 20
-24.8316641566265
 30
0.0
  9
$EXTMAX
 10
75.52640503603196
 20
20.7308358433735
 30
0.0
  9
$LIMMIN
 10
0.0
 20
0.0
  9
$LIMMAX
 10
1189.0
 20
841.0
  9
$ORTHOMODE
 70
     0
  9
$REGENMODE
 70
     1
  9
$FILLMODE
 70
     1
  9
$QTEXTMODE
 70
     0
  9
$MIRRTEXT
 70
     1
  9
$DRAGMODE
 70
     2
  9
$LTSCALE
 40
1.0
  9
$OSMODE
 70
    37
  9
$ATTMODE
 70
     1
  9
$TEXTSIZE
 40
0.2
  9
$TRACEWID
 40
0.05
  9
$TEXTSTYLE
  7
STANDARD
  9
$CLAYER
  8
0
  9
$CELTYPE
  6
BYBLOCK
  9
$CECOLOR
 62
   256
  9
$DIMSCALE
 40
1.0
  9
$DIMASZ
 40
0.18
  9
$DIMEXO
 40
0.0625
  9
$DIMDLI
 40
0.38
  9
$DIMRND
 40
0.0
  9
$DIMDLE
 40
0.36
  9
$DIMEXE
 40
0.18
  9
$DIMTP
 40
0.0
  9
$DIMTM
 40
0.0
  9
$DIMTXT
 40
0.18
  9
$DIMCEN
 40
0.09
  9
$DIMTSZ
 40
0.0
  9
$DIMTOL
 70
     0
  9
$DIMLIM
 70
     0
  9
$DIMTIH
 70
     1
  9
$DIMTOH
 70
     1
  9
$DIMSE1
 70
     0
  9
$DIMSE2
 70
     0
  9
$DIMTAD
 70
     0
  9
$DIMZIN
 70
     0
  9
$DIMBLK
  1

  9
$DIMASO
 70
     1
  9
$DIMSHO
 70
     1
  9
$DIMPOST
  1

  9
$DIMAPOST
  1

  9
$DIMALT
 70
     0
  9
$DIMALTD
 70
     2
  9
$DIMALTF
 40
25.4
  9
$DIMLFAC
 40
1.0
  9
$DIMTOFL
 70
     0
  9
$DIMTVP
 40
0.0
  9
$DIMTIX
 70
     0
  9
$DIMSOXD
 70
     0
  9
$DIMSAH
 70
     0
  9
$DIMBLK1
  1

  9
$DIMBLK2
  1

  9
$DIMSTYLE
  2
STANDARD
  9
$DIMCLRD
 70
     0
  9
$DIMCLRE
 70
     0
  9
$DIMCLRT
 70
     0
  9
$DIMTFAC
 40
1.0
  9
$DIMGAP
 40
0.09
  9
$LUNITS
 70
     2
  9
$LUPREC
 70
     4
  9
$SKETCHINC
 40
0.1
  9
$FILLETRAD
 40
0.5
  9
$AUNITS
 70
     0
  9
$AUPREC
 70
     0
  9
$MENU
  1
.
  9
$ELEVATION
 40
0.0
  9
$PELEVATION
 40
0.0
  9
$THICKNESS
 40
0.0
  9
$LIMCHECK
 70
     0
  9
$CHAMFERA
 40
0.0
  9
$CHAMFERB
 40
0.0
  9
$SKPOLY
 70
     0
  9
$TDCREATE
 40
2459506.777567465
  9
$TDUPDATE
 40
2459506.777568438
  9
$TDINDWG
 40
0.0000000116
  9
$TDUSRTIMER
 40
0.0000000116
  9
$USRTIMER
 70
     1
  9
$ANGBASE
 50
0.0
  9
$ANGDIR
 70
     0
  9
$PDMODE
 70
     0
  9
$PDSIZE
 40
-5.0
  9
$PLINEWID
 40
0.0
  9
$COORDS
 70
     1
  9
$SPLFRAME
 70
     0
  9
$SPLINETYPE
 70
     6
  9
$SPLINESEGS
 70
     8
  9
$ATTDIA
 70
     0
  9
$ATTREQ
 70
     1
  9
$HANDLING
 70
     1
  9
$HANDSEED
  5
235
  9
$SURFTAB1
 70
     6
  9
$SURFTAB2
 70
     6
  9
$SURFTYPE
 70
     6
  9
$SURFU
 70
     6
  9
$SURFV
 70
     6
  9
$UCSNAME
  2

  9
$UCSORG
 10
0.0
 20
0.0
 30
0.0
  9
$UCSXDIR
 10
1.0
 20
0.0
 30
0.0
  9
$UCSYDIR
 10
0.0
 20
1.0
 30
0.0
  9
$PUCSNAME
  2

  9
$PUCSORG
 10
0.0
 20
0.0
 30
0.0
  9
$PUCSXDIR
 10
1.0
 20
0.0
 30
0.0
  9
$PUCSYDIR
 10
0.0
 20
1.0
 30
0.0
  9
$USERI1
 70
     0
  9
$USERI2
 70
     0
  9
$USERI3
 70
     0
  9
$USERI4
 70
     0
  9
$USERI5
 70
     0
  9
$USERR1
 40
0.0
  9
$USERR2
 40
0.0
  9
$USERR3
 40
0.0
  9
$USERR4
 40
0.0
  9
$USERR5
 40
0.0
  9
$WORLDVIEW
 70
     1
  9
$SHADEDGE
 70
     3
  9
$SHADEDIF
 70
    70
  9
$TILEMODE
 70
     1
  9
$MAXACTVP
 70
    64
  9
$PLIMCHECK
 70
     0
  9
$PEXTMIN
 10
1.000000000000000E+20
 20
1.000000000000000E+20
 30
1.000000000000000E+20
  9
$PEXTMAX
 10
-1.000000000000000E+20
 20
-1.000000000000000E+20
 30
-1.000000000000000E+20
  9
$PLIMMIN
 10
0.0
 20
0.0
  9
$PLIMMAX
 10
12.0
 20
9.0
  9
$UNITMODE
 70
     0
  9
$VISRETAIN
 70
     1
  9
$PLINEGEN
 70
     0
  9
$PSLTSCALE
 70
     1
  0
ENDSEC
  0
SECTION
  2
TABLES
  0
TABLE
  2
VPORT
 70
     1
  0
VPORT
  2
*ACTIVE
 70
     0
 10
0.0
 20
0.0
 11
1.0
 21
1.0
 12
24.47444720470666
 22
-2.050414156626502
 13
0.0
 23
0.0
 14
0.5
 24
0.5
 15
0.5
 25
0.5
 16
0.0
 26
0.0
 36
1.0
 17
0.0
 27
0.0
 37
0.0
 40
45.5625
 41
2.240963855421687
 42
50.0
 43
0.0
 44
0.0
 50
0.0
 51
0.0
 71
     0
 72
   100
 73
     1
 74
     3
 75
     0
 76
     0
 77
     0
 78
     0
  0
ENDTAB
  0
TABLE
  2
LTYPE
 70
    36
  0
LTYPE
  2
CONTINUOUS
 70
     0
  3
Solid line
 72
    65
 73
     0
 40
0.0
  0
LTYPE
  2
破線
 70
     0
  3
破線: __ __ __ __ __ __ __ __ __ __ __ __ __
 72
    65
 73
     2
 40
2.0
 49
1.0
 49
-1.0
  0
LTYPE
  2
一点鎖線
 70
     0
  3
一点鎖線: ____ . ____ . ____ . ____ . ____ . ____
 72
    65
 73
     4
 40
18.0
 49
12.0
 49
-2.0
 49
2.0
 49
-2.0
  0
LTYPE
  2
二点鎖線
 70
     0
  3
二点鎖線: ____ . . ____ . . ____ . . ____ . . ____ 
 72
    65
 73
     6
 40
22.0
 49
12.0
 49
-2.0
 49
2.0
 49
-2.0
 49
2.0
 49
-2.0
  0
LTYPE
  2
DASHED1
 70
     0
  3
--  --  --  --  --  --  --  --  
 72
    65
 73
     2
 40
2.5
 49
1.25
 49
-1.25
  0
LTYPE
  2
DASHED2
 70
     0
  3
----    ----    ----    ----    
 72
    65
 73
     2
 40
5.0
 49
2.5
 49
-2.5
  0
LTYPE
  2
DASHED3
 70
     0
  3
------  ------  ------  ------  
 72
    65
 73
     2
 40
5.0
 49
3.75
 49
-1.25
  0
LTYPE
  2
CENTER1
 70
     0
  3
----- - ----- - ----- - ----- - 
 72
    65
 73
     4
 40
10.0
 49
6.25
 49
-1.25
 49
1.25
 49
-1.25
  0
LTYPE
  2
CENTER2
 70
     0
  3
----------  --  ----------  --  
 72
    65
 73
     4
 40
20.0
 49
12.5
 49
-2.5
 49
2.5
 49
-2.5
  0
LTYPE
  2
PHANTOM1
 70
     0
  3
--- - - --- - - --- - - --- - - 
 72
    65
 73
     6
 40
9.5
 49
3.25
 49
-1.25
 49
1.25
 49
-1.25
 49
1.25
 49
-1.25
  0
LTYPE
  2
PHANTOM2
 70
     0
  3
--------  -  -  --------  -  -  
 72
    65
 73
     6
 40
20.0
 49
10.0
 49
-2.5
 49
1.25
 49
-2.5
 49
1.25
 49
-2.5
  0
LTYPE
  2
DOT
 70
     0
  3
-   -   -   -   -   -   -   -   
 72
    65
 73
     2
 40
2.5
 49
0.625
 49
-1.875
  0
LTYPE
  2
RAND1
 70
     0
  3
ランダム線1
 72
    65
 73
     4
 40
10.0
 49
1.0
 49
-2.0
 49
3.0
 49
-4.0
  0
LTYPE
  2
RAND2
 70
     0
  3
ランダム線2
 72
    65
 73
     4
 40
14.0
 49
2.0
 49
-3.0
 49
4.0
 49
-5.0
  0
LTYPE
  2
RAND3
 70
     0
  3
ランダム線3
 72
    65
 73
     4
 40
18.0
 49
3.0
 49
-4.0
 49
5.0
 49
-6.0
  0
LTYPE
  2
RAND4
 70
     0
  3
ランダム線4
 72
    65
 73
     4
 40
22.0
 49
4.0
 49
-5.0
 49
6.0
 49
-7.0
  0
LTYPE
  2
RAND5
 70
     0
  3
ランダム線5
 72
    65
 73
     4
 40
26.0
 49
5.0
 49
-6.0
 49
7.0
 49
-8.0
  0
LTYPE
  2
LONG1
 70
     0
  3
----------  --  ----------  --  
 72
    65
 73
     4
 40
40.0
 49
32.5
 49
-2.5
 49
2.5
 49
-2.5
  0
LTYPE
  2
LONG2
 70
     0
  3
--------  -  -  --------  -  -  
 72
    65
 73
     6
 40
40.0
 49
30.0
 49
-2.5
 49
1.25
 49
-2.5
 49
1.25
 49
-2.5
  0
LTYPE
  2
LONG3
 70
     0
  3
+++++++++++++++..+++++++++++++++
 72
    65
 73
     2
 40
40.0
 49
37.5
 49
-2.5
  0
LTYPE
  2
LONG4
 70
     0
  3
+++++++++++++++..+++++++++++++++
 72
    65
 73
     2
 40
80.0
 49
75.0
 49
-5.0
  0
LTYPE
  2
LONG5
 70
     0
  3
----------  --  ----------  --  
 72
    65
 73
     4
 40
60.0
 49
37.5
 49
-7.5
 49
7.5
 49
-7.5
  0
LTYPE
  2
DASHED
 70
     0
  3
-------   -------------   ------
 72
    65
 73
     2
 40
7.5
 49
6.0
 49
-1.5
  0
LTYPE
  2
DASHED_SPACED
 70
     0
  3
----        --------        ----
 72
    65
 73
     2
 40
12.0
 49
6.0
 49
-6.0
  0
LTYPE
  2
LONG_DASHED_DOTTED
 70
     0
  3
------------- --- --------------
 72
    65
 73
     4
 40
15.25
 49
12.0
 49
-1.5
 49
0.25
 49
-1.5
  0
LTYPE
  2
LONG_DASHED_DOUBLE-DOTTED
 70
     0
  3
----------- --- --- ------------
 72
    65
 73
     6
 40
17.0
 49
12.0
 49
-1.5
 49
0.25
 49
-1.5
 49
0.25
 49
-1.5
  0
LTYPE
  2
LONG_DASHED_TRIPLICATE-DOT
 70
     0
  3
--------- --- --- --- ----------
 72
    65
 73
     8
 40
18.75
 49
12.0
 49
-1.5
 49
0.25
 49
-1.5
 49
0.25
 49
-1.5
 49
0.25
 49
-1.5
  0
LTYPE
  2
DOTTED
 70
     0
  3
   -       -       -       -    
 72
    65
 73
     2
 40
1.75
 49
0.25
 49
-1.5
  0
LTYPE
  2
CHAIN
 70
     0
  3
-------------- -- --------------
 72
    65
 73
     4
 40
18.5
 49
12.0
 49
-1.5
 49
3.5
 49
-1.5
  0
LTYPE
  2
CHAIN_DOUBLE_DASH
 70
     0
  3
------------ -- -- -------------
 72
    65
 73
     6
 40
23.5
 49
12.0
 49
-1.5
 49
3.5
 49
-1.5
 49
3.5
 49
-1.5
  0
LTYPE
  2
DASHED_DOTTED
 70
     0
  3
-----------     -     ----------
 72
    65
 73
     4
 40
9.25
 49
6.0
 49
-1.5
 49
0.25
 49
-1.5
  0
LTYPE
  2
DOUBLE-DASHED_DOTTED
 70
     0
  3
------   -----------   -   -----
 72
    65
 73
     6
 40
16.75
 49
6.0
 49
-1.5
 49
6.0
 49
-1.5
 49
0.25
 49
-1.5
  0
LTYPE
  2
DASHED_DOUBLE-DOTTED
 70
     0
  3
---------    -    -    ---------
 72
    65
 73
     6
 40
11.0
 49
6.0
 49
-1.5
 49
0.25
 49
-1.5
 49
0.25
 49
-1.5
  0
LTYPE
  2
DOUBLE-DASHED_DOUBLE-DOTTE
 70
     0
  3
-----   ---------   -   -   ----
 72
    65
 73
     8
 40
18.5
 49
6.0
 49
-1.5
 49
6.0
 49
-1.5
 49
0.25
 49
-1.5
 49
0.25
 49
-1.5
  0
LTYPE
  2
DASHED_TRIPLICATE-DOTTED
 70
     0
  3
-------    -    -    -    ------
 72
    65
 73
     8
 40
12.75
 49
6.0
 49
-1.5
 49
0.25
 49
-1.5
 49
0.25
 49
-1.5
 49
0.25
 49
-1.5
  0
LTYPE
  2
DOUBLE-DASHED_TRIPLICATE-D
 70
     0
  3
-----  ---------  -  -  -  -----
 72
    65
 73
    10
 40
20.25
 49
6.0
 49
-1.5
 49
6.0
 49
-1.5
 49
0.25
 49
-1.5
 49
0.25
 49
-1.5
 49
0.25
 49
-1.5
  0
ENDTAB
  0
TABLE
  2
LAYER
 70
    12
  0
LAYER
  2
0
 70
     0
 62
     7
  6
CONTINUOUS
  0
LAYER
  2
CENTERLINE_LAYER
 70
     0
 62
     1
  6
一点鎖線
  0
LAYER
  2
DASH_LAYER
 70
     0
 62
     6
  6
破線
  0
LAYER
  2
SOLID_LAYER
 70
     0
 62
     7
  6
CONTINUOUS
  0
LAYER
  2
THICK_SOLID_LAYER
 70
     0
 62
     7
  6
CONTINUOUS
  0
LAYER
  2
DIMENSION_LAYER
 70
     0
 62
     3
  6
CONTINUOUS
  0
LAYER
  2
HATCH_LAYER
 70
     0
 62
     4
  6
CONTINUOUS
  0
LAYER
  2
HIDDEN_LAYER
 70
     0
 62
    -7
  6
CONTINUOUS
  0
LAYER
  2
_0-0_
 70
     0
 62
     7
  6
CONTINUOUS
  0
LAYER
  2
_0-1_
 70
     0
 62
     7
  6
CONTINUOUS
  0
LAYER
  2
_0-F_
 70
     0
 62
     7
  6
CONTINUOUS
  0
LAYER
  2
ADD_LINE
 70
     0
 62
     7
  6
CONTINUOUS
  0
ENDTAB
  0
TABLE
  2
STYLE
 70
     3
  0
STYLE
  2
STANDARD
 70
     0
 40
0.0
 41
1.0
 50
0.0
 71
     0
 42
3.5
  3
txt
  4

  0
STYLE
  2
標準
 70
     0
 40
0.0
 41
0.667
 50
0.0
 71
     0
 42
0.2
  3

  4

  0
STYLE
  2
TATEGAKI
 70
     0
 40
0.0
 41
1.0
 50
0.0
 71
     0
 42
0.2
  3

  4

  0
ENDTAB
  0
TABLE
  2
VIEW
 70
     0
  0
ENDTAB
  0
TABLE
  2
UCS
 70
     0
  0
ENDTAB
  0
TABLE
  2
APPID
 70
   115
  0
APPID
  2
ACAD
 70
     0
  0
APPID
  2
CAXA_DRAFT_PAPERORDER
 70
     0
  0
APPID
  2
CAXA_DRAFT_ROUGH
 70
     0
  0
APPID
  2
CAXA_DRAFT_ROUGH_STD
 70
     0
  0
APPID
  2
CAXA_DRAFT_FORMATED_TXT
 70
     0
  0
APPID
  2
CAXA_DRAFT_DATUM
 70
     0
  0
APPID
  2
CAXA_DRAFT_WELD
 70
     0
  0
APPID
  2
CAXA_DRAFT_GEOTOL
 70
     0
  0
APPID
  2
CAXA_DRAFT_CUTS
 70
     0
  0
APPID
  2
CAXA_DRAFT_DIMHALF
 70
     0
  0
APPID
  2
CAXA_DRAFT_DIMRAY
 70
     0
  0
APPID
  2
CAXA_DRAFT_DIMARCLEN
 70
     0
  0
APPID
  2
CAXA_DRAFT_DIMTAPER
 70
     0
  0
APPID
  2
CAXA_DRAFT_DIMPITCH
 70
     0
  0
APPID
  2
CAXA_DRAFT_DIMCOORD
 70
     0
  0
APPID
  2
CAXA_DRAFT_DIMORIALIGN
 70
     0
  0
APPID
  2
CAXA_DRAFT_DIMHOLEPOS
 70
     0
  0
APPID
  2
CAXA_DRAFT_DIMCRDLEADER
 70
     0
  0
APPID
  2
CAXA_DRAFT_DIMCHAMFER
 70
     0
  0
APPID
  2
CAXA_DRAFT_DIMCENTERHOLE
 70
     0
  0
APPID
  2
CAXA_DRAFT_DIMLEADER
 70
     0
  0
APPID
  2
CAXA_DRAFT_DIMCRDLIST
 70
     0
  0
APPID
  2
CAXA_DRAFT_PAPERSCALE
 70
     0
  0
APPID
  2
CAXA_DRAFT_FILEVERSION
 70
     0
  0
APPID
  2
CAXA_DRAFT_PRODUCTVERSION
 70
     0
  0
APPID
  2
CAXA_DRAFT_DATATABLE
 70
     0
  0
APPID
  2
CAXA_DRAFT_PAPERINFO
 70
     0
  0
APPID
  2
CAXA_DRAFT_PAPERFRAME
 70
     0
  0
APPID
  2
CAXA_DRAFT_PAPERTITLE
 70
     0
  0
APPID
  2
CAXA_DRAFT_PAPERPAREATABLE
 70
     0
  0
APPID
  2
CAXA_DRAFT_PARTNO
 70
     0
  0
APPID
  2
CAXA_DRAFT_BOMTABLE
 70
     0
  0
APPID
  2
CAXA_DRAFT_BLKREF_EXTATT
 70
     0
  0
APPID
  2
CAXA_DRAFT_DBVIEWDATA
 70
     0
  0
APPID
  2
CAXA_DRAFT_DIMSYMTOL
 70
     0
  0
APPID
  2
CAXA_DRAFT_DIMASSEMTOL
 70
     0
  0
APPID
  2
CAXA_DRAFT_DIMANGLETOL
 70
     0
  0
APPID
  2
CAXA_DRAFT_DRAFTDATA
 70
     0
  0
APPID
  2
CAXA_DRAFT_DIMORIGIN
 70
     0
  0
APPID
  2
CAXA_DRAFT_ENLARGE_EDGE
 70
     0
  0
APPID
  2
CAXA_DRAFT_DIMSTY_T_VPOS
 70
     0
  0
APPID
  2
CAXA_DRAFT_DIMSTY_AT_VPOS
 70
     0
  0
APPID
  2
CAXA_DRAFT_BLKHIDE
 70
     0
  0
APPID
  2
CAXA_DRAFT_DIMARROWREVERSE
 70
     0
  0
APPID
  2
CAXA_DRAFT_TXTSTYLE
 70
     0
  0
APPID
  2
CAXA_DRAFT_ATTRIBUTE_2PT
 70
     0
  0
APPID
  2
CAXA_DRAFT_ATTDEF_2PT
 70
     0
  0
APPID
  2
CAXA_DRAFT_DIMBIGARC
 70
     0
  0
APPID
  2
CAXA_DRAFT_ISNEB09R3
 70
     0
  0
APPID
  2
CAXA_DRAFT_WIPEOUT_B_HIDE
 70
     0
  0
APPID
  2
CAXA_DRAFT_BLKREF_SYMBOL
 70
     0
  0
APPID
  2
CAXA_DRAFT_ENL_COMMENTS
 70
     0
  0
APPID
  2
CAXA_DRAFT_ENL_TSCALE
 70
     0
  0
APPID
  2
CAXA_DRAFT_TXTSCALE
 70
     0
  0
APPID
  2
CAXA_DRAFT_KEEPLTSEG_ZOOM
 70
     0
  0
APPID
  2
CAXA_DRAFT_SPECLIB
 70
     0
  0
APPID
  2
CAXA_DRAFT_DATUM_2011R2
 70
     0
  0
APPID
  2
CAXA_DRAFT_ROUGH_2011R2
 70
     0
  0
APPID
  2
CAXA_DRAFT_GEOTOL_2011R2
 70
     0
  0
APPID
  2
CAXA_DRAFT_DMOVMAP_2011R3
 70
     0
  0
APPID
  2
CAXA_DRAFT_DDTSTY_2011R3
 70
     0
  0
APPID
  2
CAXA_DRAFT_SDTSTY_2011R3
 70
     0
  0
APPID
  2
CDRAFT_TXTROT_2011R3
 70
     0
  0
APPID
  2
CDRAFT_TOLOUT_2011R3
 70
     0
  0
APPID
  2
CAXA_DRAFT_DIMARCLENSTYLE
 70
     0
  0
APPID
  2
CAXA_DRAFT_DMOVMAP_2013
 70
     0
  0
APPID
  2
CAXA_DRAFT_DS_DLLNTYPE
 70
     0
  0
APPID
  2
CAXA_DRAFT_DS_LBLLNTYPE
 70
     0
  0
APPID
  2
CAXA_DRAFT_DS_RBLLNTYPE
 70
     0
  0
APPID
  2
CAXA_DRAFT_DS_ISFILLDFM
 70
     0
  0
APPID
  2
CAXA_DRAFT_DS_DISPZTOOL
 70
     0
  0
APPID
  2
CAXA_DRAFT_DS_SYMCOLOR
 70
     0
  0
APPID
  2
CAXA_DRAFT_HATCH_SCALE_ANG
 70
     0
  0
APPID
  2
CAXA_DRAFT_GEOTOL_ISFROMDW
 70
     0
  0
APPID
  2
CXDRAGDIADIMLNSTYLE
 70
     0
  0
APPID
  2
CXDRAGRADDIMLNSTYLE
 70
     0
  0
APPID
  2
CX_DBANNOTATE_SIMDIMORITXT
 70
     0
  0
APPID
  2
CX_DBANNOTATE_TXTLOCPARA
 70
     0
  0
APPID
  2
CX_DBANNOTATE_DRAGTXTLOC
 70
     0
  0
APPID
  2
USERSETTXTLOC
 70
     0
  0
APPID
  2
USERSETTXTLOCTYPE
 70
     0
  0
APPID
  2
USERSETTXTLOCPT
 70
     0
  0
APPID
  2
CAXA_DRAFT_IMAGE_BINARY
 70
     0
  0
APPID
  2
DIMTXTFRMSTYLE_2015R1
 70
     0
  0
APPID
  2
CAXA_DRAFT_GEOTOL_ISSHX
 70
     0
  0
APPID
  2
CAXA_SUPGRAPHICDIM
 70
     0
  0
APPID
  2
CAXA_GRAPHICARCLEN_HASLN
 70
     0
  0
APPID
  2
CAXA_GRAPHICDIM_OUT
 70
     0
  0
APPID
  2
CAXA_DATUM_LEADLNBKMODE
 70
     0
  0
APPID
  2
CX_DBDIM_CRDDIMLINEANDARRO
 70
     0
  0
APPID
  2
CX_DBDIM_TAPERANGLESTD
 70
     0
  0
APPID
  2
CX_DBATTRIBDEF_OPTIONALVAL
 70
     0
  0
APPID
  2
CAXA_DRAFT_LEADER_MLEADERL
 70
     0
  0
APPID
  2
CAXA_DRAFT_WELD_MLEADERLIN
 70
     0
  0
APPID
  2
CAXA_DRAFT_GEOTOL_MLEADERL
 70
     0
  0
APPID
  2
CAXA_DRAFT_ROUGH_MLEADERLI
 70
     0
  0
APPID
  2
CAXA_DRAFT_DATUM_MLEADERLI
 70
     0
  0
APPID
  2
CAXA_DRAFT_ROUGH_STDSPTDAT
 70
     0
  0
APPID
  2
CAXA_DRAFT_CUTS_LABLEDATA
 70
     0
  0
APPID
  2
CAXA_DRAFT_LEADER_DISPREFL
 70
     0
  0
APPID
  2
CAXA_DRAFT_TAPER_TEXTTYPE
 70
     0
  0
APPID
  2
CAXA_DRAFT_TAPER_RATEFORMA
 70
     0
  0
APPID
  2
CAXA_DRAFT_TAPER_RATESEPAR
 70
     0
  0
APPID
  2
CX_DIMSTYLE_TXTFRAME
 70
     0
  0
APPID
  2
CX_DBDIM_TXTFRAME
 70
     0
  0
APPID
  2
CAXA_DRAFT_TABLEENT
 70
     0
  0
APPID
  2
CDRAFT_DIM_STD_REV_NAME
 70
     0
  0
APPID
  2
CAXA_DRAFT_BOM_STDSPTDATA
 70
     0
  0
APPID
  2
CAXA_DRAFT_PARTNO_STDSPTDA
 70
     0
  0
APPID
  2
CAXA_DRAFT_DATUM_LOCPTEDIT
 70
     0
  0
APPID
  2
CAXA_DRAFT_INFO_WMFLAG
 70
     0
  0
APPID
  2
CX_DBDIM_CRDDIMTYPEANDDATA
 70
     0
  0
APPID
  2
CX_DBDIM_DIMORIGINBITEXT
 70
     0
  0
APPID
  2
CX_DBDIM_DIMCRDLEADERPTS
 70
     0
  0
APPID
  2
ACAECLAYERSTANDARD
 70
     0
  0
ENDTAB
  0
TABLE
  2
DIMSTYLE
 70
     5
  0
DIMSTYLE
  2
STANDARD
 70
     0
  3

  4

  5

  6

  7

 40
1.0
 41
0.18
 42
0.0625
 43
0.38
 44
0.18
 45
0.0
 46
0.36
 47
0.0
 48
0.0
140
0.18
141
0.09
142
0.0
143
25.4
144
1.0
145
0.0
146
1.0
147
0.09
 71
     0
 72
     0
 73
     1
 74
     1
 75
     0
 76
     0
 77
     0
 78
     0
170
     0
171
     2
172
     0
173
     0
174
     0
175
     0
176
     0
177
     0
178
     0
  0
DIMSTYLE
  2
標準
 70
     0
  3

  4

  5
CAXARROW
  6

  7

 40
1.0
 41
4.0
 42
0.0
 43
10.0
 44
2.0
 45
0.0
 46
6.0
 47
0.0
 48
0.0
140
3.5
141
0.0
142
0.0
143
1.0
144
1.0
145
0.0
146
0.7071067811865475
147
0.625
 71
     0
 72
     0
 73
     0
 74
     0
 75
     0
 76
     0
 77
     1
 78
     8
170
     0
171
     2
172
     1
173
     0
174
     0
175
     0
176
     0
177
     0
178
     0
  0
DIMSTYLE
  2
ANSI_DIM
 70
     0
  3

  4

  5
CAXARROW
  6

  7

 40
1.0
 41
4.0
 42
0.0
 43
10.0
 44
2.0
 45
0.0
 46
6.0
 47
0.0
 48
0.0
140
3.5
141
0.0
142
0.0
143
1.0
144
1.0
145
0.0
146
0.7071067811865475
147
0.625
 71
     0
 72
     0
 73
     0
 74
     0
 75
     0
 76
     0
 77
     1
 78
     8
170
     0
171
     2
172
     1
173
     0
174
     0
175
     0
176
     0
177
     0
178
     0
  0
DIMSTYLE
  2
ANSI_DIMLEADER_1994_
 70
     0
  3

  4

  5
CAXARROW
  6

  7

 40
1.0
 41
4.0
 42
0.0
 43
10.0
 44
2.0
 45
0.0
 46
6.0
 47
0.0
 48
0.0
140
3.5
141
0.0
142
0.0
143
1.0
144
1.0
145
0.0
146
0.7071067811865475
147
0.625
 71
     0
 72
     0
 73
     0
 74
     0
 75
     0
 76
     0
 77
     1
 78
     8
170
     0
171
     2
172
     1
173
     0
174
     0
175
     0
176
     0
177
     0
178
     0
  0
DIMSTYLE
  2
ANSI_TAPER_1994_
 70
     0
  3

  4

  5
CAXARROW
  6

  7

 40
1.0
 41
4.0
 42
0.0
 43
10.0
 44
2.0
 45
0.0
 46
6.0
 47
0.0
 48
0.0
140
3.5
141
0.0
142
0.0
143
1.0
144
1.0
145
0.0
146
0.7071067811865475
147
0.625
 71
     0
 72
     0
 73
     0
 74
     0
 75
     0
 76
     0
 77
     1
 78
     8
170
     0
171
     2
172
     1
173
     0
174
     0
175
     0
176
     0
177
     0
178
     0
  0
ENDTAB
  0
ENDSEC
  0
SECTION
  2
BLOCKS
  0
BLOCK
  8
0
  2
$MODEL_SPACE
 70
     0
 10
0.0
 20
0.0
 30
0.0
  3
$MODEL_SPACE
  1

  0
ENDBLK
  5
21
  8
0
  0
BLOCK
 67
     1
  8
0
  2
$PAPER_SPACE
 70
     0
 10
0.0
 20
0.0
 30
0.0
  3
$PAPER_SPACE
  1

  0
ENDBLK
  5
1D
 67
     1
  8
0
  0
BLOCK
  8
0
  2
_CAXARROW
 70
     0
 10
0.0
 20
0.0
 30
0.0
  3
_CAXARROW
  1

  0
INSERT
  5
114
  8
0
 62
     0
  2
*U2
 10
0.0
 20
0.0
 30
0.0
1001
ACAD
1002
{
1000
R14_HATCH_DATA
1000
114
1011
1.0
1021
0.0
1031
0.0
1021
0.0
1031
0.0
1011
0.0
1021
1.0
1031
0.0
1021
1.0
1031
0.0
1011
0.0
1021
0.0
1031
1.0
1021
0.0
1031
1.0
1040
0.0
1010
0.0
1020
0.0
1030
1.0
1000
SOLID
1070
     1
1070
     1
1071
        1
1071
        0
1071
        3
1070
     1
1040
0.0
1040
0.0
1040
-1.0
1040
0.125
1070
     1
1040
-1.0
1040
0.125
1040
-1.0
1040
-0.125
1070
     1
1040
-1.0
1040
-0.125
1040
0.0
1040
0.0
1071
        0
1070
     0
1070
     1
1071
        1
1040
0.0
1040
0.0
1040
0.0
1002
}
  0
ENDBLK
  5
116
  8
0
  0
BLOCK
  8
0
  2
*U2
 70
     1
 10
0.0
 20
0.0
 30
0.0
  3
*U2
  1

  0
SOLID
  5
232
  8
0
  6
CONTINUOUS
 62
     0
 10
-1.0
 20
-0.125
 30
0.0
 11
-1.0
 21
0.125
 31
0.0
 12
0.0
 22
0.0
 32
0.0
 13
0.0
 23
0.0
 33
0.0
  0
ENDBLK
  5
234
  8
0
  0
ENDSEC
  0
SECTION
  2
ENTITIES
  0
TEXT
  5
149
  8
_0-F_
 62
     7
 10
1.230330781301745
 20
1.639138356690808
 30
0.0
 40
4.3
  1
TA40
 41
0.744186
1001
CAXA_DRAFT_TXTSCALE
1041
1.0
  0
LINE
  5
14A
  8
_0-0_
  6
CONTINUOUS
 62
     7
 10
42.28731846973756
 20
43.51456812541426
 30
0.0
 11
52.28751846973796
 21
43.51456812541426
 31
0.0
  0
LINE
  5
14B
  8
_0-0_
  6
CONTINUOUS
 62
     7
 10
52.28751846973796
 20
43.51456812541426
 30
0.0
 11
54.88738846973752
 21
46.11455812541396
 31
0.0
  0
LINE
  5
14C
  8
_0-0_
  6
CONTINUOUS
 62
     7
 10
54.88738846973752
 20
46.11455812541396
 30
0.0
 11
72.78743846973725
 21
46.11455812541396
 31
0.0
  0
LINE
  5
14D
  8
_0-0_
  6
CONTINUOUS
 62
     7
 10
74.78744846973746
 20
44.11457812541437
 30
0.0
 11
74.78744846973746
 21
33.11451812541407
 31
0.0
  0
LINE
  5
14E
  8
_0-0_
  6
CONTINUOUS
 62
     7
 10
72.78744846973746
 20
31.11451812541407
 30
0.0
 11
54.88738846973752
 21
31.11451812541407
 31
0.0
  0
LINE
  5
14F
  8
_0-0_
  6
CONTINUOUS
 62
     7
 10
54.88738846973752
 20
31.11451812541407
 30
0.0
 11
52.28751846973796
 21
33.71455812541433
 31
0.0
  0
LINE
  5
150
  8
_0-0_
  6
CONTINUOUS
 62
     7
 10
52.28751846973796
 20
33.71455812541433
 30
0.0
 11
42.28731846973756
 21
33.71455812541433
 31
0.0
  0
LINE
  5
151
  8
_0-0_
  6
CONTINUOUS
 62
     7
 10
41.78734846973771
 20
34.21453812541438
 30
0.0
 11
41.78734846973771
 21
43.01450812541395
 31
0.0
  0
LINE
  5
152
  8
_0-0_
  6
CONTINUOUS
 62
     7
 10
43.28737846973786
 20
43.51456812541426
 30
0.0
 11
43.28737846973786
 21
33.71455812541433
 31
0.0
  0
LINE
  5
153
  8
_0-0_
  6
CONTINUOUS
 62
     7
 10
47.28739846973781
 20
34.21453812541438
 30
0.0
 11
47.28739846973781
 21
43.51456812541426
 31
0.0
  0
LINE
  5
154
  8
_0-0_
  6
CONTINUOUS
 62
     7
 10
47.28739846973781
 20
41.87200812541403
 30
0.0
 11
49.18736846973775
 21
41.40195812541413
 31
0.0
  0
LINE
  5
155
  8
_0-0_
  6
CONTINUOUS
 62
     7
 10
49.18736846973775
 20
41.40195812541413
 30
0.0
 11
51.78743846973771
 21
41.40195812541413
 31
0.0
  0
LINE
  5
156
  8
_0-0_
  6
CONTINUOUS
 62
     7
 10
52.28751846973796
 20
41.90198812541428
 30
0.0
 11
52.28751846973796
 21
43.51456812541426
 31
0.0
  0
LINE
  5
157
  8
_0-0_
  6
CONTINUOUS
 62
     7
 10
53.54219846973751
 20
43.00922812541455
 30
0.0
 11
53.59930846973771
 21
43.05422812541417
 31
0.0
  0
LINE
  5
158
  8
_0-0_
  6
CONTINUOUS
 62
     7
 10
53.59930846973771
 20
43.05422812541417
 30
0.0
 11
53.66249846973756
 21
43.08737812541438
 31
0.0
  0
LINE
  5
159
  8
_0-0_
  6
CONTINUOUS
 62
     7
 10
53.66249846973756
 20
43.08737812541438
 30
0.0
 11
53.72983846973762
 21
43.10767812541405
 31
0.0
  0
LINE
  5
15A
  8
_0-0_
  6
CONTINUOUS
 62
     7
 10
53.72983846973762
 20
43.10767812541405
 30
0.0
 11
53.79928846973758
 21
43.11450812541432
 31
0.0
  0
LINE
  5
15B
  8
_0-0_
  6
CONTINUOUS
 62
     7
 10
53.79928846973758
 20
43.11454812541422
 30
0.0
 11
56.19924846973777
 21
43.11454812541422
 31
0.0
  0
LINE
  5
15C
  8
_0-0_
  6
CONTINUOUS
 62
     7
 10
56.19924846973777
 20
43.11450812541432
 30
0.0
 11
56.26869846973773
 21
43.10767812541405
 31
0.0
  0
LINE
  5
15D
  8
_0-0_
  6
CONTINUOUS
 62
     7
 10
56.26869846973773
 20
43.10767812541405
 30
0.0
 11
56.33603846973779
 21
43.08737812541438
 31
0.0
  0
LINE
  5
15E
  8
_0-0_
  6
CONTINUOUS
 62
     7
 10
56.33603846973779
 20
43.08737812541438
 30
0.0
 11
56.39922846973764
 21
43.05422812541417
 31
0.0
  0
LINE
  5
15F
  8
_0-0_
  6
CONTINUOUS
 62
     7
 10
56.39922846973764
 20
43.05422812541417
 30
0.0
 11
56.45633846973783
 21
43.00922812541455
 31
0.0
  0
LINE
  5
160
  8
_0-0_
  6
CONTINUOUS
 62
     7
 10
56.45633846973783
 20
43.00922812541455
 30
0.0
 11
56.50562846973776
 21
42.95376812541451
 31
0.0
  0
LINE
  5
161
  8
_0-0_
  6
CONTINUOUS
 62
     7
 10
56.50562846973776
 20
42.95376812541451
 30
0.0
 11
56.54561846973752
 21
42.88950812541441
 31
0.0
  0
LINE
  5
162
  8
_0-0_
  6
CONTINUOUS
 62
     7
 10
56.54561846973752
 20
42.88950812541441
 30
0.0
 11
56.57508846973792
 21
42.81841812541404
 31
0.0
  0
LINE
  5
163
  8
_0-0_
  6
CONTINUOUS
 62
     7
 10
56.57508846973792
 20
42.81841812541404
 30
0.0
 11
56.59312846973785
 21
42.74265812541432
 31
0.0
  0
LINE
  5
164
  8
_0-0_
  6
CONTINUOUS
 62
     7
 10
56.59312846973785
 20
42.74265812541432
 30
0.0
 11
56.59920846973796
 21
42.66450812541405
 31
0.0
  0
LINE
  5
165
  8
_0-0_
  6
CONTINUOUS
 62
     7
 10
56.59928846973776
 20
42.66450812541405
 30
0.0
 11
56.59928846973776
 21
34.56453812541429
 31
0.0
  0
LINE
  5
166
  8
_0-0_
  6
CONTINUOUS
 62
     7
 10
56.59920846973796
 20
34.56453812541429
 30
0.0
 11
56.59312846973785
 21
34.48639812541421
 31
0.0
  0
LINE
  5
167
  8
_0-0_
  6
CONTINUOUS
 62
     7
 10
56.59312846973785
 20
34.48639812541421
 30
0.0
 11
56.57508846973792
 21
34.41062812541429
 31
0.0
  0
LINE
  5
168
  8
_0-0_
  6
CONTINUOUS
 62
     7
 10
56.57508846973792
 20
34.41062812541429
 30
0.0
 11
56.54561846973752
 21
34.33953812541438
 31
0.0
  0
LINE
  5
169
  8
_0-0_
  6
CONTINUOUS
 62
     7
 10
56.54561846973752
 20
34.33953812541438
 30
0.0
 11
56.50562846973776
 21
34.27528812541402
 31
0.0
  0
LINE
  5
16A
  8
_0-0_
  6
CONTINUOUS
 62
     7
 10
56.50562846973776
 20
34.27528812541402
 30
0.0
 11
56.45633846973783
 21
34.21981812541424
 31
0.0
  0
LINE
  5
16B
  8
_0-0_
  6
CONTINUOUS
 62
     7
 10
56.45633846973783
 20
34.21981812541424
 30
0.0
 11
56.39922846973764
 21
34.17482812541436
 31
0.0
  0
LINE
  5
16C
  8
_0-0_
  6
CONTINUOUS
 62
     7
 10
56.39922846973764
 20
34.17482812541436
 30
0.0
 11
56.33603846973779
 21
34.14167812541416
 31
0.0
  0
LINE
  5
16D
  8
_0-0_
  6
CONTINUOUS
 62
     7
 10
56.33603846973779
 20
34.14167812541416
 30
0.0
 11
56.26869846973773
 21
34.12137812541448
 31
0.0
  0
LINE
  5
16E
  8
_0-0_
  6
CONTINUOUS
 62
     7
 10
56.26869846973773
 20
34.12137812541448
 30
0.0
 11
56.19924846973777
 21
34.11453812541401
 31
0.0
  0
LINE
  5
16F
  8
_0-0_
  6
CONTINUOUS
 62
     7
 10
56.19924846973777
 20
34.11457812541437
 30
0.0
 11
53.79928846973758
 21
34.11457812541437
 31
0.0
  0
LINE
  5
170
  8
_0-0_
  6
CONTINUOUS
 62
     7
 10
53.79928846973758
 20
34.11453812541401
 30
0.0
 11
53.72983846973762
 21
34.12137812541448
 31
0.0
  0
LINE
  5
171
  8
_0-0_
  6
CONTINUOUS
 62
     7
 10
53.72983846973762
 20
34.12137812541448
 30
0.0
 11
53.66249846973756
 21
34.14167812541416
 31
0.0
  0
LINE
  5
172
  8
_0-0_
  6
CONTINUOUS
 62
     7
 10
53.66249846973756
 20
34.14167812541416
 30
0.0
 11
53.59930846973771
 21
34.17482812541436
 31
0.0
  0
LINE
  5
173
  8
_0-0_
  6
CONTINUOUS
 62
     7
 10
53.59930846973771
 20
34.17482812541436
 30
0.0
 11
53.54219846973751
 21
34.21981812541424
 31
0.0
  0
LINE
  5
174
  8
_0-0_
  6
CONTINUOUS
 62
     7
 10
53.54219846973751
 20
34.21981812541424
 30
0.0
 11
53.49290846973759
 21
34.27528812541402
 31
0.0
  0
LINE
  5
175
  8
_0-0_
  6
CONTINUOUS
 62
     7
 10
53.49290846973759
 20
34.27528812541402
 30
0.0
 11
53.45291846973782
 21
34.33953812541438
 31
0.0
  0
LINE
  5
176
  8
_0-0_
  6
CONTINUOUS
 62
     7
 10
53.45291846973782
 20
34.33953812541438
 30
0.0
 11
53.42344846973788
 21
34.41062812541429
 31
0.0
  0
LINE
  5
177
  8
_0-0_
  6
CONTINUOUS
 62
     7
 10
53.42344846973788
 20
34.41062812541429
 30
0.0
 11
53.40540846973795
 21
34.48639812541421
 31
0.0
  0
LINE
  5
178
  8
_0-0_
  6
CONTINUOUS
 62
     7
 10
53.40540846973795
 20
34.48639812541421
 30
0.0
 11
53.39932846973784
 21
34.56453812541429
 31
0.0
  0
LINE
  5
179
  8
_0-0_
  6
CONTINUOUS
 62
     7
 10
53.39919846973794
 20
34.56453812541429
 30
0.0
 11
53.39919846973794
 21
42.66450812541405
 31
0.0
  0
LINE
  5
17A
  8
_0-0_
  6
CONTINUOUS
 62
     7
 10
53.39932846973784
 20
42.66450812541405
 30
0.0
 11
53.40540846973795
 21
42.74265812541432
 31
0.0
  0
LINE
  5
17B
  8
_0-0_
  6
CONTINUOUS
 62
     7
 10
53.40540846973795
 20
42.74265812541432
 30
0.0
 11
53.42344846973788
 21
42.81841812541404
 31
0.0
  0
LINE
  5
17C
  8
_0-0_
  6
CONTINUOUS
 62
     7
 10
53.42344846973788
 20
42.81841812541404
 30
0.0
 11
53.45291846973782
 21
42.88950812541441
 31
0.0
  0
LINE
  5
17D
  8
_0-0_
  6
CONTINUOUS
 62
     7
 10
53.45291846973782
 20
42.88950812541441
 30
0.0
 11
53.49290846973759
 21
42.95376812541451
 31
0.0
  0
LINE
  5
17E
  8
_0-0_
  6
CONTINUOUS
 62
     7
 10
53.49290846973759
 20
42.95376812541451
 30
0.0
 11
53.54219846973751
 21
43.00922812541455
 31
0.0
  0
LINE
  5
17F
  8
_0-0_
  6
CONTINUOUS
 62
     7
 10
54.13501846973782
 20
42.65001812541402
 30
0.0
 11
55.93371846973764
 21
42.65001812541402
 31
0.0
  0
LINE
  5
180
  8
_0-0_
  6
CONTINUOUS
 62
     7
 10
55.93371846973764
 20
42.65001812541402
 30
0.0
 11
55.93371846973764
 21
42.1047781254141
 31
0.0
  0
LINE
  5
181
  8
_0-0_
  6
CONTINUOUS
 62
     7
 10
55.93371846973764
 20
42.1047781254141
 30
0.0
 11
54.13501846973782
 21
42.1047781254141
 31
0.0
  0
LINE
  5
182
  8
_0-0_
  6
CONTINUOUS
 62
     7
 10
54.13501846973782
 20
42.1047781254141
 30
0.0
 11
54.13501846973782
 21
42.65001812541402
 31
0.0
  0
LINE
  5
183
  8
_0-0_
  6
CONTINUOUS
 62
     7
 10
54.13501846973782
 20
41.58176812541421
 30
0.0
 11
54.92801846973794
 21
40.70715812541437
 31
0.0
  0
LINE
  5
184
  8
_0-0_
  6
CONTINUOUS
 62
     7
 10
54.92801846973794
 20
40.70715812541437
 30
0.0
 11
55.93371846973764
 21
41.58176812541421
 31
0.0
  0
LINE
  5
185
  8
_0-0_
  6
CONTINUOUS
 62
     7
 10
55.93371846973764
 20
41.58176812541421
 30
0.0
 11
55.93371846973764
 21
40.85426812541425
 31
0.0
  0
LINE
  5
186
  8
_0-0_
  6
CONTINUOUS
 62
     7
 10
55.93371846973764
 20
40.85426812541425
 30
0.0
 11
55.29679846973772
 21
40.30037812541411
 31
0.0
  0
LINE
  5
187
  8
_0-0_
  6
CONTINUOUS
 62
     7
 10
55.29679846973772
 20
40.30037812541411
 30
0.0
 11
55.3744884697378
 21
40.21476812541448
 31
0.0
  0
LINE
  5
188
  8
_0-0_
  6
CONTINUOUS
 62
     7
 10
55.3744884697378
 20
40.21476812541448
 30
0.0
 11
55.93025846973774
 21
40.21476812541448
 31
0.0
  0
LINE
  5
189
  8
_0-0_
  6
CONTINUOUS
 62
     7
 10
55.93025846973774
 20
40.21476812541448
 30
0.0
 11
55.93025846973774
 21
39.66959812541415
 31
0.0
  0
LINE
  5
18A
  8
_0-0_
  6
CONTINUOUS
 62
     7
 10
55.93025846973774
 20
39.66959812541415
 30
0.0
 11
54.13501846973782
 21
39.66959812541415
 31
0.0
  0
LINE
  5
18B
  8
_0-0_
  6
CONTINUOUS
 62
     7
 10
54.13501846973782
 20
39.66959812541415
 30
0.0
 11
54.13501846973782
 21
40.21476812541448
 31
0.0
  0
LINE
  5
18C
  8
_0-0_
  6
CONTINUOUS
 62
     7
 10
54.13501846973782
 20
40.21476812541448
 30
0.0
 11
54.63212846973761
 21
40.21476812541448
 31
0.0
  0
LINE
  5
18D
  8
_0-0_
  6
CONTINUOUS
 62
     7
 10
54.63212846973761
 20
40.21476812541448
 30
0.0
 11
54.13501846973782
 21
40.76307812541415
 31
0.0
  0
LINE
  5
18E
  8
_0-0_
  6
CONTINUOUS
 62
     7
 10
54.13501846973782
 20
40.76307812541415
 30
0.0
 11
54.13501846973782
 21
41.58176812541421
 31
0.0
  0
LINE
  5
18F
  8
_0-0_
  6
CONTINUOUS
 62
     7
 10
54.13501846973782
 20
38.96491812541433
 30
0.0
 11
54.13501846973782
 21
38.41967812541395
 31
0.0
  0
LINE
  5
190
  8
_0-0_
  6
CONTINUOUS
 62
     7
 10
54.13501846973782
 20
38.41967812541395
 30
0.0
 11
55.11966846973769
 21
38.41967812541395
 31
0.0
  0
LINE
  5
191
  8
_0-0_
  6
CONTINUOUS
 62
     7
 10
55.11966846973769
 20
38.41950812541415
 30
0.0
 11
55.19214846973796
 21
38.41326812541399
 31
0.0
  0
LINE
  5
192
  8
_0-0_
  6
CONTINUOUS
 62
     7
 10
55.19214846973796
 20
38.41326812541399
 30
0.0
 11
55.26242846973787
 21
38.39473812541416
 31
0.0
  0
LINE
  5
193
  8
_0-0_
  6
CONTINUOUS
 62
     7
 10
55.26242846973787
 20
38.39473812541416
 30
0.0
 11
55.32837846973757
 21
38.36448812541437
 31
0.0
  0
LINE
  5
194
  8
_0-0_
  6
CONTINUOUS
 62
     7
 10
55.32837846973757
 20
38.36448812541437
 30
0.0
 11
55.38797846973762
 21
38.32342812541435
 31
0.0
  0
LINE
  5
195
  8
_0-0_
  6
CONTINUOUS
 62
     7
 10
55.38797846973762
 20
38.32342812541435
 30
0.0
 11
55.43942846973755
 21
38.27280812541437
 31
0.0
  0
LINE
  5
196
  8
_0-0_
  6
CONTINUOUS
 62
     7
 10
55.43942846973755
 20
38.27280812541437
 30
0.0
 11
55.48115846973792
 21
38.21415812541443
 31
0.0
  0
LINE
  5
197
  8
_0-0_
  6
CONTINUOUS
 62
     7
 10
55.48115846973792
 20
38.21415812541443
 30
0.0
 11
55.51190846973782
 21
38.14927812541453
 31
0.0
  0
LINE
  5
198
  8
_0-0_
  6
CONTINUOUS
 62
     7
 10
55.51190846973782
 20
38.14927812541453
 30
0.0
 11
55.5307384697378
 21
38.08012812541426
 31
0.0
  0
LINE
  5
199
  8
_0-0_
  6
CONTINUOUS
 62
     7
 10
55.5307384697378
 20
38.08012812541426
 30
0.0
 11
55.53707846973771
 21
38.00881812541445
 31
0.0
  0
LINE
  5
19A
  8
_0-0_
  6
CONTINUOUS
 62
     7
 10
55.53707846973771
 20
38.00881812541445
 30
0.0
 11
55.5307384697378
 21
37.93749812541398
 31
0.0
  0
LINE
  5
19B
  8
_0-0_
  6
CONTINUOUS
 62
     7
 10
55.5307384697378
 20
37.93749812541398
 30
0.0
 11
55.51190846973782
 21
37.86834812541417
 31
0.0
  0
LINE
  5
19C
  8
_0-0_
  6
CONTINUOUS
 62
     7
 10
55.51190846973782
 20
37.86834812541417
 30
0.0
 11
55.48115846973792
 21
37.80346812541427
 31
0.0
  0
LINE
  5
19D
  8
_0-0_
  6
CONTINUOUS
 62
     7
 10
55.48115846973792
 20
37.80346812541427
 30
0.0
 11
55.43942846973755
 21
37.74482812541453
 31
0.0
  0
LINE
  5
19E
  8
_0-0_
  6
CONTINUOUS
 62
     7
 10
55.43942846973755
 20
37.74482812541453
 30
0.0
 11
55.38797846973762
 21
37.69420812541409
 31
0.0
  0
LINE
  5
19F
  8
_0-0_
  6
CONTINUOUS
 62
     7
 10
55.38797846973762
 20
37.69420812541409
 30
0.0
 11
55.32837846973757
 21
37.65313812541433
 31
0.0
  0
LINE
  5
1A0
  8
_0-0_
  6
CONTINUOUS
 62
     7
 10
55.32837846973757
 20
37.65313812541433
 30
0.0
 11
55.26242846973787
 21
37.62288812541453
 31
0.0
  0
LINE
  5
1A1
  8
_0-0_
  6
CONTINUOUS
 62
     7
 10
55.26242846973787
 20
37.62288812541453
 30
0.0
 11
55.19214846973796
 21
37.60435812541425
 31
0.0
  0
LINE
  5
1A2
  8
_0-0_
  6
CONTINUOUS
 62
     7
 10
55.19214846973796
 20
37.60435812541425
 30
0.0
 11
55.11966846973769
 21
37.59811812541454
 31
0.0
  0
LINE
  5
1A3
  8
_0-0_
  6
CONTINUOUS
 62
     7
 10
55.11966846973769
 20
37.59787812541424
 30
0.0
 11
54.13501846973782
 21
37.59787812541424
 31
0.0
  0
LINE
  5
1A4
  8
_0-0_
  6
CONTINUOUS
 62
     7
 10
54.13501846973782
 20
37.59787812541424
 30
0.0
 11
54.13501846973782
 21
37.05263812541432
 31
0.0
  0
LINE
  5
1A5
  8
_0-0_
  6
CONTINUOUS
 62
     7
 10
54.13501846973782
 20
37.05263812541432
 30
0.0
 11
55.11966846973769
 21
37.05263812541432
 31
0.0
  0
LINE
  5
1A6
  8
_0-0_
  6
CONTINUOUS
 62
     7
 10
55.11966846973769
 20
37.05341812541417
 30
0.0
 11
55.27848846973779
 21
37.06793812541434
 31
0.0
  0
LINE
  5
1A7
  8
_0-0_
  6
CONTINUOUS
 62
     7
 10
55.27848846973779
 20
37.06793812541434
 30
0.0
 11
55.43247846973759
 21
37.11103812541421
 31
0.0
  0
LINE
  5
1A8
  8
_0-0_
  6
CONTINUOUS
 62
     7
 10
55.43247846973759
 20
37.11103812541421
 30
0.0
 11
55.57696846973772
 21
37.18141812541433
 31
0.0
  0
LINE
  5
1A9
  8
_0-0_
  6
CONTINUOUS
 62
     7
 10
55.57696846973772
 20
37.18141812541433
 30
0.0
 11
55.70755846973793
 21
37.27693812541418
 31
0.0
  0
LINE
  5
1AA
  8
_0-0_
  6
CONTINUOUS
 62
     7
 10
55.70755846973793
 20
37.27693812541418
 30
0.0
 11
55.82028846973776
 21
37.39469812541427
 31
0.0
  0
LINE
  5
1AB
  8
_0-0_
  6
CONTINUOUS
 62
     7
 10
55.82028846973776
 20
37.39469812541427
 30
0.0
 11
55.91172846973791
 21
37.53111812541408
 31
0.0
  0
LINE
  5
1AC
  8
_0-0_
  6
CONTINUOUS
 62
     7
 10
55.91172846973791
 20
37.53111812541408
 30
0.0
 11
55.97910846973787
 21
37.68204812541433
 31
0.0
  0
LINE
  5
1AD
  8
_0-0_
  6
CONTINUOUS
 62
     7
 10
55.97910846973787
 20
37.68204812541433
 30
0.0
 11
56.02036846973783
 21
37.84290812541428
 31
0.0
  0
LINE
  5
1AE
  8
_0-0_
  6
CONTINUOUS
 62
     7
 10
56.02036846973783
 20
37.84290812541428
 30
0.0
 11
56.03426846973775
 21
38.00881812541445
 31
0.0
  0
LINE
  5
1AF
  8
_0-0_
  6
CONTINUOUS
 62
     7
 10
56.03426846973775
 20
38.00881812541445
 30
0.0
 11
56.02036846973783
 21
38.17471812541396
 31
0.0
  0
LINE
  5
1B0
  8
_0-0_
  6
CONTINUOUS
 62
     7
 10
56.02036846973783
 20
38.17471812541396
 30
0.0
 11
55.97910846973787
 21
38.33557812541437
 31
0.0
  0
LINE
  5
1B1
  8
_0-0_
  6
CONTINUOUS
 62
     7
 10
55.97910846973787
 20
38.33557812541437
 30
0.0
 11
55.91172846973791
 21
38.48650812541416
 31
0.0
  0
LINE
  5
1B2
  8
_0-0_
  6
CONTINUOUS
 62
     7
 10
55.91172846973791
 20
38.48650812541416
 30
0.0
 11
55.82028846973776
 21
38.62292812541443
 31
0.0
  0
LINE
  5
1B3
  8
_0-0_
  6
CONTINUOUS
 62
     7
 10
55.82028846973776
 20
38.62292812541443
 30
0.0
 11
55.70755846973793
 21
38.74068812541407
 31
0.0
  0
LINE
  5
1B4
  8
_0-0_
  6
CONTINUOUS
 62
     7
 10
55.70755846973793
 20
38.74068812541407
 30
0.0
 11
55.57696846973772
 21
38.83620812541437
 31
0.0
  0
LINE
  5
1B5
  8
_0-0_
  6
CONTINUOUS
 62
     7
 10
55.57696846973772
 20
38.83620812541437
 30
0.0
 11
55.43247846973759
 21
38.90658812541449
 31
0.0
  0
LINE
  5
1B6
  8
_0-0_
  6
CONTINUOUS
 62
     7
 10
55.43247846973759
 20
38.90658812541449
 30
0.0
 11
55.27848846973779
 21
38.94968812541435
 31
0.0
  0
LINE
  5
1B7
  8
_0-0_
  6
CONTINUOUS
 62
     7
 10
55.27848846973779
 20
38.94968812541435
 30
0.0
 11
55.11966846973769
 21
38.96420812541453
 31
0.0
  0
LINE
  5
1B8
  8
_0-0_
  6
CONTINUOUS
 62
     7
 10
55.11966846973769
 20
38.96491812541433
 30
0.0
 11
54.13501846973782
 21
38.96491812541433
 31
0.0
  0
LINE
  5
1B9
  8
_0-0_
  6
CONTINUOUS
 62
     7
 10
54.10935846973757
 20
36.57643812541426
 30
0.0
 11
55.27994846973775
 21
35.7612181254143
 31
0.0
  0
LINE
  5
1BA
  8
_0-0_
  6
CONTINUOUS
 62
     7
 10
55.27994846973775
 20
35.7612181254143
 30
0.0
 11
55.90790846973755
 21
35.7612181254143
 31
0.0
  0
LINE
  5
1BB
  8
_0-0_
  6
CONTINUOUS
 62
     7
 10
55.90790846973755
 20
35.7612181254143
 30
0.0
 11
55.90790846973755
 21
35.21595812541398
 31
0.0
  0
LINE
  5
1BC
  8
_0-0_
  6
CONTINUOUS
 62
     7
 10
55.90790846973755
 20
35.21595812541398
 30
0.0
 11
55.22113846973775
 21
35.21595812541398
 31
0.0
  0
LINE
  5
1BD
  8
_0-0_
  6
CONTINUOUS
 62
     7
 10
55.22113846973775
 20
35.21595812541398
 30
0.0
 11
54.10935846973757
 21
34.44165812541439
 31
0.0
  0
LINE
  5
1BE
  8
_0-0_
  6
CONTINUOUS
 62
     7
 10
54.10935846973757
 20
34.44165812541439
 30
0.0
 11
54.10935846973757
 21
35.10947812541406
 31
0.0
  0
LINE
  5
1BF
  8
_0-0_
  6
CONTINUOUS
 62
     7
 10
54.10935846973757
 20
35.10947812541406
 30
0.0
 11
54.68295846973774
 21
35.50907812541425
 31
0.0
  0
LINE
  5
1C0
  8
_0-0_
  6
CONTINUOUS
 62
     7
 10
54.68295846973774
 20
35.50907812541425
 30
0.0
 11
54.10935846973757
 21
35.90859812541419
 31
0.0
  0
LINE
  5
1C1
  8
_0-0_
  6
CONTINUOUS
 62
     7
 10
54.10935846973757
 20
35.90859812541419
 30
0.0
 11
54.10935846973757
 21
36.57643812541426
 31
0.0
  0
LINE
  5
1C2
  8
_0-0_
  6
CONTINUOUS
 62
     7
 10
49.18736846973775
 20
33.71455812541433
 30
0.0
 11
49.18736846973775
 21
43.30938812541433
 31
0.0
  0
LINE
  5
1C3
  8
_0-0_
  6
CONTINUOUS
 62
     7
 10
47.28739846973781
 20
40.40985812541419
 30
0.0
 11
43.28737846973786
 21
40.40985812541419
 31
0.0
  0
LINE
  5
1C4
  8
_0-0_
  6
CONTINUOUS
 62
     7
 10
43.28737846973786
 20
40.40985812541419
 30
0.0
 11
41.78734846973771
 21
40.08841812541402
 31
0.0
  0
ARC
  5
1C5
  8
_0-0_
  6
CONTINUOUS
 62
     7
 10
72.78743846973725
 20
44.11457812541437
 30
0.0
 40
1.999999700000004
 50
0.0
 51
90.0
  0
CIRCLE
  5
1C6
  8
_0-0_
  6
CONTINUOUS
 62
     7
 10
65.08740846973774
 20
38.61454812541422
 30
0.0
 40
5.4999999
  0
CIRCLE
  5
1C7
  8
_0-0_
  6
CONTINUOUS
 62
     7
 10
65.08740846973774
 20
38.61454812541422
 30
0.0
 40
4.099999800000001
  0
ARC
  5
1C8
  8
_0-0_
  6
CONTINUOUS
 62
     7
 10
42.28731846973756
 20
43.01450812541395
 30
0.0
 40
0.4999998999999988
 50
90.0
 51
180.0000000000008
  0
ARC
  5
1C9
  8
_0-0_
  6
CONTINUOUS
 62
     7
 10
42.28731846973756
 20
34.21453812541438
 30
0.0
 40
0.4999998999999988
 50
180.0
 51
270.0
  0
ARC
  5
1CA
  8
_0-0_
  6
CONTINUOUS
 62
     7
 10
46.78741846973776
 20
43.01450812541395
 30
0.0
 40
0.4999998999999988
 50
0.0
 51
90.0
  0
ARC
  5
1CB
  8
_0-0_
  6
CONTINUOUS
 62
     7
 10
46.78741846973776
 20
34.21453812541438
 30
0.0
 40
0.4999998999999988
 50
270.0
 51
359.9999999999992
  0
ARC
  5
1CC
  8
_0-0_
  6
CONTINUOUS
 62
     7
 10
51.78743846973771
 20
41.90198812541428
 30
0.0
 40
0.4999998999999988
 50
270.0
 51
0.0
  0
ARC
  5
1CD
  8
_0-0_
  6
CONTINUOUS
 62
     7
 10
72.78744846973746
 20
33.11451812541407
 30
0.0
 40
2.0
 50
270.0
 51
0.0
  0
ARC
  5
1CE
  8
_0-0_
  6
CONTINUOUS
 62
     7
 10
16.78442281357604
 20
34.21455016268499
 30
0.0
 40
0.4999999569074518
 50
270.0
 51
0.0
  0
ARC
  5
1CF
  8
_0-0_
  6
CONTINUOUS
 62
     7
 10
5.784423310549869
 20
43.01454564110861
 30
0.0
 40
0.4999999569074518
 50
90.0
 51
180.0
  0
ARC
  5
1D0
  8
_0-0_
  6
CONTINUOUS
 62
     7
 10
11.28442100006407
 20
38.6145479018968
 30
0.0
 40
6.287739915337411
 50
15.94232177734376
 51
51.19602966308595
  0
ARC
  5
1D1
  8
_0-0_
  6
CONTINUOUS
 62
     7
 10
11.28442100006407
 20
38.6145479018968
 30
0.0
 40
6.287739915337408
 50
197.4004821777344
 51
231.196029663086
  0
ARC
  5
1D2
  8
_0-0_
  6
CONTINUOUS
 62
     7
 10
4.784432353541092
 20
42.51454397660871
 30
0.0
 40
0.9999999138149036
 50
90.0
 51
180.0
  0
ARC
  5
1D3
  8
_0-0_
  6
CONTINUOUS
 62
     7
 10
17.78442820457451
 20
34.71454770318803
 30
0.0
 40
0.9999999138149036
 50
270.0
 51
0.0
  0
ARC
  5
1D4
  8
_0-0_
  6
CONTINUOUS
 62
     7
 10
11.28442100006407
 20
38.6145479018968
 30
0.0
 40
7.799999366418709
 50
195.9423370361327
 51
218.9178161621093
  0
ARC
  5
1D5
  8
_0-0_
  6
CONTINUOUS
 62
     7
 10
11.28442100006407
 20
38.6145479018968
 30
0.0
 40
7.799999366418709
 50
15.94239807128911
 51
38.91781616210937
  0
LINE
  5
1D6
  8
_0-0_
  6
CONTINUOUS
 62
     7
 10
17.78442820457451
 20
33.71454437418777
 30
0.0
 11
5.215658117290445
 21
33.71454437418777
 31
0.0
  0
LINE
  5
1D7
  8
_0-0_
  6
CONTINUOUS
 62
     7
 10
4.784432353541092
 20
43.51454936760717
 30
0.0
 11
17.35319625482964
 21
43.51454936760717
 31
0.0
  0
LINE
  5
1D8
  8
_0-0_
  6
CONTINUOUS
 62
     7
 10
17.28440798208715
 20
34.21455016268499
 30
0.0
 11
17.28440798208715
 21
40.32849143442161
 31
0.0
  0
LINE
  5
1D9
  8
_0-0_
  6
CONTINUOUS
 62
     7
 10
5.284425770047278
 20
43.01454564110861
 30
0.0
 11
5.284425770047278
 21
36.89653604616694
 31
0.0
  0
LINE
  5
1DA
  8
_0-0_
  6
CONTINUOUS
 62
     7
 10
18.7844232855806
 20
40.75696855405874
 30
0.0
 11
17.33033075253854
 21
40.34160368341361
 31
0.0
  0
LINE
  5
1DB
  8
_0-0_
  6
CONTINUOUS
 62
     7
 10
3.78441252855248
 20
36.47212931173351
 30
0.0
 11
5.284425770047278
 21
36.89653604616694
 31
0.0
  0
LINE
  5
1DC
  8
_0-0_
  6
CONTINUOUS
 62
     7
 10
3.78441252855248
 20
42.51454397660871
 30
0.0
 11
3.78441252855248
 21
36.47212931173351
 31
0.0
  0
LINE
  5
1DD
  8
_0-0_
  6
CONTINUOUS
 62
     7
 10
18.78441503758597
 20
34.71454770318803
 30
0.0
 11
18.78441503758597
 21
40.75698092605023
 31
0.0
  0
LINE
  5
1DE
  8
_0-0_
  6
CONTINUOUS
 62
     7
 10
73.7874984697371
 20
5.514538125414902
 30
0.0
 11
48.78737846973786
 21
5.514538125414902
 31
0.0
  0
LINE
  5
1DF
  8
_0-0_
  6
CONTINUOUS
 62
     7
 10
48.78737846973786
 20
5.514538125414902
 30
0.0
 11
47.28739846973781
 21
4.014558125414624
 31
0.0
  0
LINE
  5
1E0
  8
_0-0_
  6
CONTINUOUS
 62
     7
 10
47.26683846973788
 20
3.620318125414769
 30
0.0
 11
43.28737846973786
 21
3.620318125414769
 31
0.0
  0
LINE
  5
1E1
  8
_0-0_
  6
CONTINUOUS
 62
     7
 10
43.28737846973786
 20
3.620318125414769
 30
0.0
 11
41.78734846973771
 21
5.841948125415001
 31
0.0
  0
LINE
  5
1E2
  8
_0-0_
  6
CONTINUOUS
 62
     7
 10
41.78734846973771
 20
3.614568125414507
 30
0.0
 11
41.78734846973771
 21
15.61458812541503
 31
0.0
  0
LINE
  5
1E3
  8
_0-0_
  6
CONTINUOUS
 62
     7
 10
41.78734846973771
 20
15.61458812541503
 30
0.0
 11
43.28737846973786
 21
17.11453812541492
 31
0.0
  0
LINE
  5
1E4
  8
_0-0_
  6
CONTINUOUS
 62
     7
 10
43.28737846973786
 20
17.11453812541492
 30
0.0
 11
46.78736846973766
 21
17.11453812541492
 31
0.0
  0
LINE
  5
1E5
  8
_0-0_
  6
CONTINUOUS
 62
     7
 10
47.28739846973781
 20
16.61453812541447
 30
0.0
 11
47.28739846973781
 21
15.21454812541458
 31
0.0
  0
LINE
  5
1E6
  8
_0-0_
  6
CONTINUOUS
 62
     7
 10
47.28739846973781
 20
15.21454812541458
 30
0.0
 11
49.18736846973775
 21
13.31455812541469
 31
0.0
  0
LINE
  5
1E7
  8
_0-0_
  6
CONTINUOUS
 62
     7
 10
49.18736846973775
 20
13.31455812541469
 30
0.0
 11
73.7874984697371
 21
13.31455812541469
 31
0.0
  0
LINE
  5
1E8
  8
_0-0_
  6
CONTINUOUS
 62
     7
 10
74.78744846973746
 20
12.31454812541449
 30
0.0
 11
74.78744846973746
 21
6.514548125414876
 31
0.0
  0
LINE
  5
1E9
  8
_0-0_
  6
CONTINUOUS
 62
     7
 10
54.88738846973752
 20
5.524848125414792
 30
0.0
 11
54.88738846973752
 21
13.31529812541464
 31
0.0
  0
LINE
  5
1EA
  8
_0-0_
  6
CONTINUOUS
 62
     7
 10
52.28731846973756
 20
13.31455812541469
 30
0.0
 11
52.28731846973756
 21
5.514538125414902
 31
0.0
  0
LINE
  5
1EB
  8
_0-0_
  6
CONTINUOUS
 62
     7
 10
48.78737846973786
 20
5.514538125414902
 30
0.0
 11
48.78737846973786
 21
9.42621812541472
 31
0.0
  0
LINE
  5
1EC
  8
_0-0_
  6
CONTINUOUS
 62
     7
 10
48.7520484697377
 20
9.616968125414473
 30
0.0
 11
47.28739846973781
 21
5.654118125414925
 31
0.0
  0
LINE
  5
1ED
  8
_0-0_
  6
CONTINUOUS
 62
     7
 10
47.28739846973781
 20
5.654118125414925
 30
0.0
 11
47.28739846973781
 21
2.614558125414987
 31
0.0
  0
LINE
  5
1EE
  8
_0-0_
  6
CONTINUOUS
 62
     7
 10
46.78736846973766
 20
2.114588125414684
 30
0.0
 11
43.28737846973786
 21
2.114588125414684
 31
0.0
  0
LINE
  5
1EF
  8
_0-0_
  6
CONTINUOUS
 62
     7
 10
43.28737846973786
 20
2.114588125414684
 30
0.0
 11
41.78734846973771
 21
3.614568125414507
 31
0.0
  0
LINE
  5
1F0
  8
_0-0_
  6
CONTINUOUS
 62
     7
 10
43.28737846973786
 20
3.620318125414769
 30
0.0
 11
43.28737846973786
 21
2.114588125414684
 31
0.0
  0
ARC
  5
1F1
  8
_0-0_
  6
CONTINUOUS
 62
     7
 10
73.7874984697371
 20
12.31454812541449
 30
0.0
 40
0.9999997999999977
 50
0.0
 51
90.0
  0
ARC
  5
1F2
  8
_0-0_
  6
CONTINUOUS
 62
     7
 10
73.7874984697371
 20
6.514548125414876
 30
0.0
 40
0.9999997999999994
 50
270.0
 51
359.9999999999999
  0
ARC
  5
1F3
  8
_0-0_
  6
CONTINUOUS
 62
     7
 10
46.78736846973766
 20
16.61453812541447
 30
0.0
 40
0.4999998999999988
 50
0.0
 51
90.0
  0
ARC
  5
1F4
  8
_0-0_
  6
CONTINUOUS
 62
     7
 10
46.78736846973766
 20
2.614558125414987
 30
0.0
 40
0.4999999000000002
 50
270.0
 51
359.9999999999999
  0
ARC
  5
1F5
  8
_0-0_
  6
CONTINUOUS
 62
     7
 10
93.57951292176364
 20
45.61454812541422
 30
0.0
 40
0.5
 50
90.0
 51
180.0
  0
LINE
  5
1F6
  8
_0-0_
  6
CONTINUOUS
 62
     7
 10
93.07951292176364
 20
31.61454812541427
 30
0.0
 11
93.07951292176364
 21
45.61454812541422
 31
0.0
  0
ARC
  5
1F7
  8
_0-0_
  6
CONTINUOUS
 62
     7
 10
93.57951292176364
 20
31.61454812541427
 30
0.0
 40
0.5
 50
179.9999999999992
 51
270.0
  0
LINE
  5
1F8
  8
_0-0_
  6
CONTINUOUS
 62
     7
 10
100.3795129217638
 20
46.11454812541422
 30
0.0
 11
93.57951292176364
 21
46.11454812541422
 31
0.0
  0
ARC
  5
1F9
  8
_0-0_
  6
CONTINUOUS
 62
     7
 10
100.3795129217638
 20
45.61454812541422
 30
0.0
 40
0.5
 50
0.0
 51
90.0
  0
LINE
  5
1FA
  8
_0-0_
  6
CONTINUOUS
 62
     7
 10
100.8795129217638
 20
31.61454812541427
 30
0.0
 11
100.8795129217638
 21
45.61454812541422
 31
0.0
  0
LINE
  5
1FB
  8
_0-0_
  6
CONTINUOUS
 62
     7
 10
100.3795129217638
 20
31.11454812541427
 30
0.0
 11
93.57951292176364
 21
31.11454812541427
 31
0.0
  0
ARC
  5
1FC
  8
_0-0_
  6
CONTINUOUS
 62
     7
 10
100.3795129217638
 20
31.61454812541427
 30
0.0
 40
0.5
 50
270.0
 51
0.0
  0
LINE
  5
1FD
  8
_0-1_
  6
DASHED2
 62
   152
 10
60.98740846973783
 20
6.014538125409217
 30
0.0
 11
60.48740846973737
 21
5.514538125408535
 31
0.0
  0
LINE
  5
1FE
  8
_0-1_
  6
DASHED2
 62
   152
 10
60.98740846973783
 20
10.88966699501975
 30
0.0
 11
60.98740846973783
 21
6.014538125409217
 31
0.0
  0
LINE
  5
1FF
  8
_0-1_
  6
DASHED2
 62
   152
 10
65.08740846973774
 20
6.014538125414902
 30
0.0
 11
60.98740846973783
 21
6.014538125409217
 31
0.0
  0
LINE
  5
200
  8
_0-1_
  6
DASHED2
 62
   152
 10
69.1874084697381
 20
6.014538125409217
 30
0.0
 11
69.68740846973856
 21
5.514538125408535
 31
0.0
  0
LINE
  5
201
  8
_0-1_
  6
DASHED2
 62
   152
 10
69.1874084697381
 20
10.88966699501975
 30
0.0
 11
69.1874084697381
 21
6.014538125409217
 31
0.0
  0
LINE
  5
202
  8
_0-1_
  6
DASHED2
 62
   152
 10
69.1874084697381
 20
10.88966699501975
 30
0.0
 11
65.08740846973774
 21
10.88966699501975
 31
0.0
  0
LINE
  5
203
  8
_0-1_
  6
DASHED2
 62
   152
 10
65.08740846973774
 20
6.014538125414902
 30
0.0
 11
69.1874084697381
 21
6.014538125409217
 31
0.0
  0
LINE
  5
204
  8
_0-1_
  6
DASHED2
 62
   152
 10
59.5874084698246
 20
13.31453812546579
 30
0.0
 11
60.98740846973783
 21
10.88966699501975
 31
0.0
  0
LINE
  5
205
  8
_0-1_
  6
DASHED2
 62
   152
 10
60.98740846973783
 20
10.88966699501975
 30
0.0
 11
69.1874084697381
 21
10.88966699501975
 31
0.0
  0
LINE
  5
206
  8
_0-1_
  6
DASHED2
 62
   152
 10
70.58740846965134
 20
13.31453812546579
 30
0.0
 11
69.1874084697381
 21
10.88966699501975
 31
0.0
  0
LINE
  5
207
  8
_0-1_
  6
DASHED2
 62
   152
 10
93.07951292176364
 20
44.11454812541422
 30
0.0
 11
95.5043840523602
 21
42.71454812541435
 31
0.0
  0
LINE
  5
208
  8
_0-1_
  6
DASHED2
 62
   152
 10
93.07951292176364
 20
33.11454812541427
 30
0.0
 11
95.5043840523602
 21
34.51454812541436
 31
0.0
  0
LINE
  5
209
  8
_0-1_
  6
DASHED2
 62
   152
 10
95.5043840523602
 20
42.71454812541435
 30
0.0
 11
95.5043840523602
 21
34.51454812541436
 31
0.0
  0
LINE
  5
20A
  8
_0-1_
  6
DASHED2
 62
   152
 10
95.5043840523602
 20
42.71454812541435
 30
0.0
 11
95.90438405236023
 21
42.71454812541435
 31
0.0
  0
LINE
  5
20B
  8
_0-1_
  6
DASHED2
 62
   152
 10
95.5043840523602
 20
34.51454812541436
 30
0.0
 11
95.90438405236023
 21
34.51454812541436
 31
0.0
  0
LINE
  5
20C
  8
_0-1_
  6
DASHED2
 62
   152
 10
100.3795129217637
 20
35.31454812541426
 30
0.0
 11
100.8795129217638
 21
34.81454812541403
 31
0.0
  0
LINE
  5
20D
  8
_0-1_
  6
DASHED2
 62
   152
 10
100.3795129217637
 20
35.31454812541426
 30
0.0
 11
100.3795129217637
 21
41.91454812541429
 31
0.0
  0
LINE
  5
20E
  8
_0-1_
  6
DASHED2
 62
   152
 10
100.3795129217637
 20
41.91454812541429
 30
0.0
 11
100.8795129217638
 21
42.4145481254144
 31
0.0
  0
LINE
  5
20F
  8
_0-1_
  6
DASHED2
 62
   152
 10
95.90438405236023
 20
34.51454812541436
 30
0.0
 11
97.29002469841527
 21
35.31454812541426
 31
0.0
  0
LINE
  5
210
  8
_0-1_
  6
DASHED2
 62
   152
 10
97.29002469841527
 20
35.31454812541426
 30
0.0
 11
100.3795129217637
 21
35.31454812541426
 31
0.0
  0
LINE
  5
211
  8
_0-1_
  6
DASHED2
 62
   152
 10
95.90438405236023
 20
42.71454812541435
 30
0.0
 11
97.2900246984155
 21
41.91454812541429
 31
0.0
  0
LINE
  5
212
  8
_0-1_
  6
DASHED2
 62
   152
 10
97.2900246984155
 20
41.91454812541429
 30
0.0
 11
100.3795129217637
 21
41.91454812541429
 31
0.0
  0
LINE
  5
213
  8
_0-1_
  6
CENTER1
 62
   152
 10
3.784424900543968
 20
38.6145479018968
 30
0.0
 11
18.7844253475788
 21
38.6145479018968
 31
0.0
  0
LINE
  5
214
  8
_0-1_
  6
CENTER1
 62
   152
 10
11.28442512406139
 20
33.71454437418777
 30
0.0
 11
11.28442512406139
 21
43.51454936760717
 31
0.0
  0
LINE
  5
215
  8
_0-1_
  6
CENTER1
 62
   152
 10
40.78733846973796
 20
38.61454812541422
 30
0.0
 11
75.7874584697372
 21
38.61454812541422
 31
0.0
  0
LINE
  5
216
  8
_0-1_
  6
CENTER1
 62
   152
 10
65.08740846973774
 20
30.11453812541401
 30
0.0
 11
65.08740846973774
 21
47.11456812541417
 31
0.0
  0
LINE
  5
217
  8
_0-1_
  6
CENTER1
 62
   152
 10
65.08740846973774
 20
17.11453812541492
 30
0.0
 11
65.08740846973774
 21
2.114538125414811
 31
0.0
  0
LINE
  5
218
  8
_0-1_
  6
CENTER1
 62
   152
 10
40.78733846973796
 20
9.614548125414672
 30
0.0
 11
48.70170846973792
 21
9.614548125414672
 31
0.0
  0
LINE
  5
219
  8
_0-1_
  6
CENTER1
 62
   152
 10
90.88566154505781
 20
38.61454812541422
 30
0.0
 11
104.2506792208476
 21
38.61454812541422
 31
0.0
  0
VIEWPORT
  5
21C
 67
     1
  8
0
 10
0.0
 20
0.0
 30
0.0
 40
300.0
 41
220.0
 68
     1
 69
     1
1001
ACAD
1000
MVIEW
1002
{
1070
    16
1010
0.0
1020
0.0
1030
0.0
1010
0.0
1020
0.0
1030
1.0
1040
0.0
1040
1.0
1040
0.0
1040
0.0
1040
50.0
1040
0.0
1040
0.0
1070
     0
1070
   100
1070
     0
1070
     3
1070
     0
1070
     0
1070
     0
1070
     0
1040
0.0
1040
0.0
1040
0.0
1040
0.5
1040
0.5
1040
0.0
1040
0.0
1070
     0
1002
{
1002
}
1002
}
  0
ENDSEC
  0
EOF
