  0
SECTION
  2
HEADER
  9
$ACADVER
  1
AC1009
  9
$INSBASE
 10
0
 20
0
 30
0
  9
$EXTMIN
 10
0
 20
0
  9
$EXTMAX
 10
1189
 20
841
  9
$LIMMIN
 10
0
 20
0
  9
$LIMMAX
 10
1189
 20
841
  9
$LTSCALE
 40
1
  0
ENDSEC
  0
SECTION
  2
TABLES
  0
TABLE
  2
LTYPE
 70
     9
  0
LTYPE
  2
CONTINUOUS
 70
    64
  3
実線
 72
    65
 73
     0
 40
0.0
  0
LTYPE
  2
DASHED1
 70
    64
  3
--  --  --  --  --  --  --  --  
 72
    65
 73
     2
 40
2.5
 49
1.25
 49
-1.25
  0
LTYPE
  2
DASHED2
 70
    64
  3
----    ----    ----    ----    
 72
    65
 73
     2
 40
5.0
 49
2.5
 49
-2.5
  0
LTYPE
  2
DASHED3
 70
    64
  3
------  ------  ------  ------  
 72
    65
 73
     2
 40
5.0
 49
3.75
 49
-1.25
  0
LTYPE
  2
CENTER1
 70
    64
  3
----- - ----- - ----- - ----- - 
 72
    65
 73
     4
 40
10.0
 49
6.25
 49
-1.25
 49
1.25
 49
-1.25
  0
LTYPE
  2
CENTER2
 70
    64
  3
----------  --  ----------  --  
 72
    65
 73
     4
 40
20.0
 49
12.5
 49
-2.5
 49
2.5
 49
-2.5
  0
LTYPE
  2
PHANTOM1
 70
    64
  3
--- - - --- - - --- - - --- - - 
 72
    65
 73
     6
 40
10.0
 49
3.25
 49
-1.25
 49
1.25
 49
-1.25
 49
1.25
 49
-1.25
  0
LTYPE
  2
PHANTOM2
 70
    64
  3
--------  -  -  --------  -  -  
 72
    65
 73
     6
 40
20.0
 49
10.0
 49
-2.5
 49
1.25
 49
-2.5
 49
1.25
 49
-2.5
  0
LTYPE
  2
DOT
 70
    64
  3
-   -   -   -   -   -   -   -   
 72
    65
 73
     2
 40
2.5
 49
0.625
 49
-1.875
  0
LTYPE
  2
DUMMY
 70
    64
  3
ダミー
 72
    65
 73
     0
 40
0.0
  0
LTYPE
  2
RAND1
 70
    64
  3
ランダム線1
 72
    65
 73
     4
 40
10.0
 49
1.0
 49
-2.0
 49
3.0
 49
-4.0
  0
LTYPE
  2
RAND2
 70
    64
  3
ランダム線2
 72
    65
 73
     4
 40
14.0
 49
2.0
 49
-3.0
 49
4.0
 49
-5.0
  0
LTYPE
  2
RAND3
 70
    64
  3
ランダム線3
 72
    65
 73
     4
 40
18.0
 49
3.0
 49
-4.0
 49
5.0
 49
-6.0
  0
LTYPE
  2
RAND4
 70
    64
  3
ランダム線4
 72
    65
 73
     4
 40
22.0
 49
4.0
 49
-5.0
 49
6.0
 49
-7.0
  0
LTYPE
  2
RAND5
 70
    64
  3
ランダム線5
 72
    65
 73
     4
 40
26.0
 49
5.0
 49
-6.0
 49
7.0
 49
-8.0
  0
LTYPE
  2
LONG1
 70
    64
  3
----------  --  ----------  --  
 72
    65
 73
     4
 40
40.0
 49
32.5
 49
-2.5
 49
2.5
 49
-2.5
  0
LTYPE
  2
LONG2
 70
    64
  3
--------  -  -  --------  -  -  
 72
    65
 73
     6
 40
40.0
 49
30.0
 49
-2.5
 49
1.25
 49
-2.5
 49
1.25
 49
-2.5
  0
LTYPE
  2
LONG3
 70
    64
  3
+++++++++++++++..+++++++++++++++
 72
    65
 73
     2
 40
40.0
 49
37.5
 49
-2.5
  0
LTYPE
  2
LONG4
 70
    64
  3
+++++++++++++++..+++++++++++++++
 72
    65
 73
     2
 40
80.0
 49
75.0
 49
-5.0
  0
LTYPE
  2
LONG5
 70
    64
  3
----------  --  ----------  --  
 72
    65
 73
     4
 40
60.0
 49
37.5
 49
-7.5
 49
7.5
 49
-7.5
  0
LTYPE
  2
dashed
 70
   64
  3
-------   -------------   ------
 72
   65
 73
    2
 40
7.5
 49
6
 49
-1.5
  0
LTYPE
  2
dashed_spaced
 70
   64
  3
----        --------        ----
 72
   65
 73
    2
 40
12
 49
6
 49
-6
  0
LTYPE
  2
long_dashed_dotted
 70
   64
  3
------------- --- --------------
 72
   65
 73
    4
 40
15.25
 49
12
 49
-1.5
 49
0.25
 49
-1.5
  0
LTYPE
  2
long_dashed_double-dotted
 70
   64
  3
----------- --- --- ------------
 72
   65
 73
    6
 40
17
 49
12
 49
-1.5
 49
0.25
 49
-1.5
 49
0.25
 49
-1.5
  0
LTYPE
  2
long_dashed_triplicate-dotted
 70
   64
  3
--------- --- --- --- ----------
 72
   65
 73
    8
 40
18.75
 49
12
 49
-1.5
 49
0.25
 49
-1.5
 49
0.25
 49
-1.5
 49
0.25
 49
-1.5
  0
LTYPE
  2
dotted
 70
   64
  3
   -       -       -       -    
 72
   65
 73
    2
 40
1.75
 49
0.25
 49
-1.5
  0
LTYPE
  2
chain
 70
   64
  3
-------------- -- --------------
 72
   65
 73
    4
 40
18.5
 49
12
 49
-1.5
 49
3.5
 49
-1.5
  0
LTYPE
  2
chain_double_dash
 70
   64
  3
------------ -- -- -------------
 72
   65
 73
    6
 40
23.5
 49
12
 49
-1.5
 49
3.5
 49
-1.5
 49
3.5
 49
-1.5
  0
LTYPE
  2
dashed_dotted
 70
   64
  3
-----------     -     ----------
 72
   65
 73
    4
 40
9.25
 49
6
 49
-1.5
 49
0.25
 49
-1.5
  0
LTYPE
  2
double-dashed_dotted
 70
   64
  3
------   -----------   -   -----
 72
   65
 73
    6
 40
16.75
 49
6
 49
-1.5
 49
6
 49
-1.5
 49
0.25
 49
-1.5
  0
LTYPE
  2
dashed_double-dotted
 70
   64
  3
---------    -    -    ---------
 72
   65
 73
    6
 40
11
 49
6
 49
-1.5
 49
0.25
 49
-1.5
 49
0.25
 49
-1.5
  0
LTYPE
  2
double-dashed_double-dotted
 70
   64
  3
-----   ---------   -   -   ----
 72
   65
 73
    8
 40
18.5
 49
6
 49
-1.5
 49
6
 49
-1.5
 49
0.25
 49
-1.5
 49
0.25
 49
-1.5
  0
LTYPE
  2
dashed_triplicate-dotted
 70
   64
  3
-------    -    -    -    ------
 72
   65
 73
    8
 40
12.75
 49
6
 49
-1.5
 49
0.25
 49
-1.5
 49
0.25
 49
-1.5
 49
0.25
 49
-1.5
  0
LTYPE
  2
double-dashed_triplicate-dotted
 70
   64
  3
-----  ---------  -  -  -  -----
 72
   65
 73
   10
 40
20.25
 49
6
 49
-1.5
 49
6
 49
-1.5
 49
0.25
 49
-1.5
 49
0.25
 49
-1.5
 49
0.25
 49
-1.5
  0
LTYPE
  2
undefined
 70
   64
  3
--------------------------------
 72
   65
 73
    0
 40
0
  0
ENDTAB
  0
TABLE
  2
STYLE
  5
3
100
AcDbSymbolTable
 70
     1
  0
STYLE
  5
10
100
AcDbSymbolTableRecord
100
AcDbTextStyleTableRecord
  2
STANDARD
 70
     0
 40
0.0
 41
1.0
 50
0.0
 71
     0
 42
0.2
  3
txt
  4
bigfont.shx
  0
STYLE
  5
26
100
AcDbSymbolTableRecord
100
AcDbTextStyleTableRecord
  2
TATEGAKI
 70
    68
 40
0.0
 41
1.0
 50
0.0
 71
     0
 42
1.0
  3
txt
  4
bigfont.shx
  0
ENDTAB
  0
TABLE
  2
LAYER
 70
    4
  0
LAYER
  2
_0-0_
 70
   64
 62
    7
  6
CONTINUOUS
  0
LAYER
  2
_0-1_
 70
   64
 62
    7
  6
CONTINUOUS
  0
LAYER
  2
_0-f_
 70
   64
 62
    7
  6
CONTINUOUS
  0
LAYER
  2
ADD_LINE
 70
   64
 62
    7
  6
CONTINUOUS
  0
ENDTAB
  0
ENDSEC
  0
SECTION
  2
BLOCKS
  0
ENDSEC
  0
SECTION
  2
ENTITIES
  0
TEXT
  8
_0-f_
 62
    7
 10
0.6290943289891401
 20
0.5225357067855611
 40
4.2999999999999998
 41
0.744186046511628
 50
0
  1
T40K
  0
LINE
  8
_0-0_
  6
CONTINUOUS
 62
    7
 10
84.569936695197555
 20
45.927193172255272
 11
84.569936695197555
 21
47.427193172255272
  0
LINE
  8
_0-0_
  6
CONTINUOUS
 62
    7
 10
84.569936695197555
 20
47.427193172255272
 11
90.169936695197464
 21
47.427193172255272
  0
LINE
  8
_0-0_
  6
CONTINUOUS
 62
    7
 10
90.169936695197464
 20
47.427193172255272
 11
90.169936695197464
 21
45.927193172255272
  0
LINE
  8
_0-0_
  6
CONTINUOUS
 62
    7
 10
90.169936695197464
 20
45.927193172255272
 11
84.569936695197555
 21
45.927193172255272
  0
LINE
  8
_0-0_
  6
CONTINUOUS
 62
    7
 10
84.569936695197555
 20
46.337704948906492
 11
80.369936695197566
 21
46.337704948906492
  0
LINE
  8
_0-0_
  6
CONTINUOUS
 62
    7
 10
80.369936695197566
 20
46.337704948906492
 11
80.369936695197566
 21
44.927193172255272
  0
LINE
  8
_0-0_
  6
CONTINUOUS
 62
    7
 10
80.369936695197566
 20
44.927193172255272
 11
94.369936695197509
 21
44.927193172255272
  0
LINE
  8
_0-0_
  6
CONTINUOUS
 62
    7
 10
94.369936695197509
 20
44.927193172255272
 11
94.369936695197509
 21
46.337704948906492
  0
LINE
  8
_0-0_
  6
CONTINUOUS
 62
    7
 10
94.369936695197509
 20
46.337704948906492
 11
91.869936695197509
 21
47.007577929984279
  0
LINE
  8
_0-0_
  6
CONTINUOUS
 62
    7
 10
91.869936695197509
 20
47.007577929984279
 11
91.869936695197509
 21
48.527193172255181
  0
LINE
  8
_0-0_
  6
CONTINUOUS
 62
    7
 10
91.569936695197555
 20
48.827193172254908
 11
83.169936695197464
 21
48.827193172254908
  0
LINE
  8
_0-0_
  6
CONTINUOUS
 62
    7
 10
82.869936695197509
 20
48.527193172255181
 11
82.869936695197509
 21
47.007577929984279
  0
LINE
  8
_0-0_
  6
CONTINUOUS
 62
    7
 10
82.869936695197509
 20
47.007577929984279
 11
80.369936695197566
 21
46.337704948906492
  0
LINE
  8
_0-0_
  6
CONTINUOUS
 62
    7
 10
82.869936695197509
 20
47.007577929984279
 11
84.569936695197555
 21
47.007577929984279
  0
LINE
  8
_0-0_
  6
CONTINUOUS
 62
    7
 10
82.339124914549302
 20
44.927193172255272
 11
82.339124914549302
 21
43.727193172254999
  0
LINE
  8
_0-0_
  6
CONTINUOUS
 62
    7
 10
82.6391249145492
 20
43.427193172255272
 11
86.069936695197555
 21
43.427193172255272
  0
LINE
  8
_0-0_
  6
CONTINUOUS
 62
    7
 10
86.069936695197555
 20
43.427193172255272
 11
86.069936695197555
 21
39.727193172254999
  0
LINE
  8
_0-0_
  6
CONTINUOUS
 62
    7
 10
86.069936695197555
 20
39.727193172254999
 11
85.341489165152041
 21
39.727193172254999
  0
LINE
  8
_0-0_
  6
CONTINUOUS
 62
    7
 10
85.341489165152041
 20
39.727193172254999
 11
81.803681223051626
 21
41.769747539967909
  0
LINE
  8
_0-0_
  6
CONTINUOUS
 62
    7
 10
81.809905994506835
 20
41.765031952030483
 11
80.26993669519743
 21
41.944006701137539
  0
LINE
  8
_0-0_
  6
CONTINUOUS
 62
    7
 10
80.26993669519743
 20
41.944006701137539
 11
80.26993669519743
 21
41.212064257137342
  0
LINE
  8
_0-0_
  6
CONTINUOUS
 62
    7
 10
80.26993669519743
 20
41.212064257137342
 11
82.865821669442028
 21
38.616179282892688
  0
LINE
  8
_0-0_
  6
CONTINUOUS
 62
    7
 10
82.865821669442028
 20
38.616179282892688
 11
85.271616184074162
 21
37.227193172254999
  0
LINE
  8
_0-0_
  6
CONTINUOUS
 62
    7
 10
85.332207089801784
 20
37.227193172254999
 11
89.468257206320629
 21
37.227193172254999
  0
LINE
  8
_0-0_
  6
CONTINUOUS
 62
    7
 10
89.468257206320629
 20
37.227193172254999
 11
91.874051720952991
 21
38.616179282892688
  0
LINE
  8
_0-0_
  6
CONTINUOUS
 62
    7
 10
91.874051720952991
 20
38.616179282892688
 11
94.469936695197418
 21
41.212064257137342
  0
LINE
  8
_0-0_
  6
CONTINUOUS
 62
    7
 10
94.469936695197418
 20
41.212064257137342
 11
94.469936695197418
 21
41.944006701137539
  0
LINE
  8
_0-0_
  6
CONTINUOUS
 62
    7
 10
94.469936695197418
 20
41.944006701137539
 11
92.929967395888241
 21
41.765031952030483
  0
LINE
  8
_0-0_
  6
CONTINUOUS
 62
    7
 10
92.936192167343222
 20
41.769747539967909
 11
89.398384225242978
 21
39.727193172254999
  0
LINE
  8
_0-0_
  6
CONTINUOUS
 62
    7
 10
89.398384225242978
 20
39.727193172254999
 11
88.669936695197464
 21
39.727193172254999
  0
LINE
  8
_0-0_
  6
CONTINUOUS
 62
    7
 10
88.669936695197464
 20
39.727193172254999
 11
88.669936695197464
 21
44.927193172255272
  0
LINE
  8
_0-0_
  6
CONTINUOUS
 62
    7
 10
88.669936695197464
 20
43.427193172255272
 11
91.839124914549245
 21
43.427193172255272
  0
LINE
  8
_0-0_
  6
CONTINUOUS
 62
    7
 10
92.1391249145492
 20
43.727193172254999
 11
92.1391249145492
 21
44.927193172255272
  0
LINE
  8
_0-0_
  6
CONTINUOUS
 62
    7
 10
91.869936695197509
 20
47.007577929984279
 11
90.169936695197464
 21
47.007577929984279
  0
LINE
  8
_0-0_
  6
CONTINUOUS
 62
    7
 10
90.169936695197464
 20
46.337704948906492
 11
94.369936695197509
 21
46.337704948906492
  0
LINE
  8
_0-0_
  6
CONTINUOUS
 62
    7
 10
91.823255355839308
 20
41.12719317225509
 11
94.385065610315166
 21
41.12719317225509
  0
ARC
  8
_0-0_
  6
CONTINUOUS
 62
    7
 10
83.169936695197464
 20
48.527193172255181
 40
0.2999999999999998
 50
90
 51
180
  0
ARC
  8
_0-0_
  6
CONTINUOUS
 62
    7
 10
91.569936695197555
 20
48.527193172255181
 40
0.2999999999999998
 50
0
 51
90
  0
ARC
  8
_0-0_
  6
CONTINUOUS
 62
    7
 10
82.6391249145492
 20
43.727193172254999
 40
0.2999999999999998
 50
180
 51
270
  0
ARC
  8
_0-0_
  6
CONTINUOUS
 62
    7
 10
91.839124914549245
 20
43.727193172254999
 40
0.2999999999999998
 50
270
 51
0
  0
LINE
  8
_0-0_
  6
CONTINUOUS
 62
    7
 10
14.635172542007695
 20
46.337704948906492
 11
14.635172542007695
 21
44.927193172255272
  0
LINE
  8
_0-0_
  6
CONTINUOUS
 62
    7
 10
14.635172542007695
 20
44.927193172255272
 11
28.635172542007695
 21
44.927193172255272
  0
LINE
  8
_0-0_
  6
CONTINUOUS
 62
    7
 10
28.635172542007695
 20
44.927193172255272
 11
28.635172542007695
 21
46.337704948906492
  0
LINE
  8
_0-0_
  6
CONTINUOUS
 62
    7
 10
28.635172542007695
 20
46.337704948906492
 11
26.135172542007695
 21
47.007577929984279
  0
LINE
  8
_0-0_
  6
CONTINUOUS
 62
    7
 10
26.135172542007695
 20
47.007577929984279
 11
26.135172542007695
 21
48.527193172255181
  0
LINE
  8
_0-0_
  6
CONTINUOUS
 62
    7
 10
25.835172542007513
 20
48.827193172254908
 11
17.435172542007649
 21
48.827193172254908
  0
LINE
  8
_0-0_
  6
CONTINUOUS
 62
    7
 10
17.135172542007695
 20
48.527193172255181
 11
17.135172542007695
 21
47.007577929984279
  0
LINE
  8
_0-0_
  6
CONTINUOUS
 62
    7
 10
17.135172542007695
 20
47.007577929984279
 11
14.635172542007695
 21
46.337704948906492
  0
LINE
  8
_0-0_
  6
CONTINUOUS
 62
    7
 10
14.635172542007695
 20
46.337704948906492
 11
18.835172542007513
 21
46.337704948906492
  0
LINE
  8
_0-0_
  6
CONTINUOUS
 62
    7
 10
18.835172542007513
 20
45.927193172255272
 11
24.435172542007649
 21
45.927193172255272
  0
LINE
  8
_0-0_
  6
CONTINUOUS
 62
    7
 10
24.435172542007649
 20
45.927193172255272
 11
24.435172542007649
 21
47.427193172255272
  0
LINE
  8
_0-0_
  6
CONTINUOUS
 62
    7
 10
24.435172542007649
 20
47.427193172255272
 11
18.835172542007513
 21
47.427193172255272
  0
LINE
  8
_0-0_
  6
CONTINUOUS
 62
    7
 10
18.835172542007513
 20
47.427193172255272
 11
18.835172542007513
 21
45.927193172255272
  0
LINE
  8
_0-0_
  6
CONTINUOUS
 62
    7
 10
16.835172542007513
 20
44.927193172255272
 11
16.835172542007513
 21
37.527193172255181
  0
LINE
  8
_0-0_
  6
CONTINUOUS
 62
    7
 10
17.135172542007695
 20
37.227193172254999
 11
26.135172542007467
 21
37.227193172254999
  0
LINE
  8
_0-0_
  6
CONTINUOUS
 62
    7
 10
26.435172542007649
 20
37.527193172255181
 11
26.435172542007649
 21
44.927193172255272
  0
LINE
  8
_0-0_
  6
CONTINUOUS
 62
    7
 10
26.135172542007467
 20
43.427193172255272
 11
17.210767817600527
 21
43.427193172255272
  0
LINE
  8
_0-0_
  6
CONTINUOUS
 62
    7
 10
16.910767817600572
 20
43.727193172254999
 11
16.910767817600572
 21
44.927193172255272
  0
LINE
  8
_0-0_
  6
CONTINUOUS
 62
    7
 10
17.135172542007695
 20
47.007577929984279
 11
18.835172542007513
 21
47.007577929984279
  0
LINE
  8
_0-0_
  6
CONTINUOUS
 62
    7
 10
17.225843987553162
 20
41.242876038255133
 11
26.435172542007649
 21
41.242876038255133
  0
LINE
  8
_0-0_
  6
CONTINUOUS
 62
    7
 10
26.135172542007467
 20
41.938195939915374
 11
19.82081318806263
 21
41.938195939915374
  0
LINE
  8
_0-0_
  6
CONTINUOUS
 62
    7
 10
19.82081318806263
 20
41.938195939915374
 11
16.835172542007513
 21
41.138195939915192
  0
LINE
  8
_0-0_
  6
CONTINUOUS
 62
    7
 10
16.835172542007513
 20
38.616179283255121
 11
26.435172542007649
 21
38.616179283255121
  0
LINE
  8
_0-0_
  6
CONTINUOUS
 62
    7
 10
26.135172542007695
 20
47.007577929984279
 11
24.435172542007649
 21
47.007577929984279
  0
LINE
  8
_0-0_
  6
CONTINUOUS
 62
    7
 10
24.435172542007649
 20
46.337704948906492
 11
28.635172542007695
 21
46.337704948906492
  0
ARC
  8
_0-0_
  6
CONTINUOUS
 62
    7
 10
17.210767817600527
 20
43.727193172254999
 40
0.2999999999999998
 50
180
 51
270
  0
ARC
  8
_0-0_
  6
CONTINUOUS
 62
    7
 10
26.135172542007467
 20
43.727193172254999
 40
0.2999999999999998
 50
270
 51
0
  0
ARC
  8
_0-0_
  6
CONTINUOUS
 62
    7
 10
17.135172542007695
 20
37.527193172255181
 40
0.2999999999999998
 50
180
 51
270
  0
ARC
  8
_0-0_
  6
CONTINUOUS
 62
    7
 10
26.135172542007467
 20
37.527193172255181
 40
0.2999999999999998
 50
270
 51
0
  0
ARC
  8
_0-0_
  6
CONTINUOUS
 62
    7
 10
26.135172542007467
 20
41.638195939915192
 40
0.2999999999999998
 50
0
 51
90
  0
ARC
  8
_0-0_
  6
CONTINUOUS
 62
    7
 10
17.135172542007695
 20
40.907997843521741
 40
0.2999999999999998
 50
105.00000000000014
 51
180
  0
ARC
  8
_0-0_
  6
CONTINUOUS
 62
    7
 10
17.435172542007649
 20
48.527193172255181
 40
0.2999999999999998
 50
90
 51
180
  0
ARC
  8
_0-0_
  6
CONTINUOUS
 62
    7
 10
25.835172542007513
 20
48.527193172255181
 40
0.2999999999999998
 50
0
 51
90
  0
LINE
  8
_0-0_
  6
CONTINUOUS
 62
    7
 10
84.497489560246038
 20
82.021008142438291
 11
84.540263084819514
 21
79.570514560805691
  0
LINE
  8
_0-0_
  6
CONTINUOUS
 62
    7
 10
82.968690880031943
 20
77.89846441047564
 11
80.419443113565194
 21
77.942961695757162
  0
LINE
  8
_0-0_
  6
CONTINUOUS
 62
    7
 10
80.369936695197566
 20
75.070514560805691
 11
80.492122149694978
 21
68.070514560805691
  0
LINE
  8
_0-0_
  6
CONTINUOUS
 62
    7
 10
80.492122149694978
 20
68.070514560805691
 11
94.24775124069987
 21
68.070514560805691
  0
LINE
  8
_0-0_
  6
CONTINUOUS
 62
    7
 10
94.24775124069987
 20
68.070514560805691
 11
94.369936695197509
 21
75.070514560805691
  0
LINE
  8
_0-0_
  6
CONTINUOUS
 62
    7
 10
94.369936695197509
 20
75.070514560805691
 11
94.24775124069987
 21
82.070514560805691
  0
LINE
  8
_0-0_
  6
CONTINUOUS
 62
    7
 10
94.24775124069987
 20
82.070514560805691
 11
80.492122149694978
 21
82.070514560805691
  0
LINE
  8
_0-0_
  6
CONTINUOUS
 62
    7
 10
80.492122149694978
 20
82.070514560805691
 11
80.369936695197566
 21
75.070514560805691
  0
LINE
  8
_0-0_
  6
CONTINUOUS
 62
    7
 10
91.869936695197509
 20
75.070514560805691
 11
91.712793232484671
 21
70.570514560805691
  0
LINE
  8
_0-0_
  6
CONTINUOUS
 62
    7
 10
91.712793232484671
 20
70.570514560805691
 11
83.027080157910348
 21
70.570514560805691
  0
LINE
  8
_0-0_
  6
CONTINUOUS
 62
    7
 10
83.027080157910348
 20
70.570514560805691
 11
82.869936695197509
 21
75.070514560805691
  0
LINE
  8
_0-0_
  6
CONTINUOUS
 62
    7
 10
82.869936695197509
 20
75.070514560805691
 11
83.027080157910348
 21
79.570514560805691
  0
LINE
  8
_0-0_
  6
CONTINUOUS
 62
    7
 10
83.027080157910348
 20
79.570514560805691
 11
91.712793232484671
 21
79.570514560805691
  0
LINE
  8
_0-0_
  6
CONTINUOUS
 62
    7
 10
91.712793232484671
 20
79.570514560805691
 11
91.869936695197509
 21
75.070514560805691
  0
LINE
  8
_0-0_
  6
CONTINUOUS
 62
    7
 10
91.771182510362848
 20
72.242564711136197
 11
94.320430276829882
 21
72.198067425854219
  0
LINE
  8
_0-0_
  6
CONTINUOUS
 62
    7
 10
90.199610305575504
 20
70.570514560805691
 11
90.242383830148981
 21
68.120020979173546
  0
LINE
  8
_0-0_
  6
CONTINUOUS
 62
    7
 10
91.712793232484671
 20
70.570514560805691
 11
94.24775124069987
 21
68.070514560805691
  0
LINE
  8
_0-0_
  6
CONTINUOUS
 62
    7
 10
84.497489560246038
 20
68.120020979173546
 11
84.540263084819514
 21
70.570514560805691
  0
LINE
  8
_0-0_
  6
CONTINUOUS
 62
    7
 10
82.968690880031943
 20
72.242564711136197
 11
80.419443113565194
 21
72.198067425854219
  0
LINE
  8
_0-0_
  6
CONTINUOUS
 62
    7
 10
80.492122149694978
 20
68.070514560805691
 11
83.027080157910348
 21
70.570514560805691
  0
LINE
  8
_0-0_
  6
CONTINUOUS
 62
    7
 10
83.027080157910348
 20
79.570514560805691
 11
80.492122149694978
 21
82.070514560805691
  0
LINE
  8
_0-0_
  6
CONTINUOUS
 62
    7
 10
90.242383830148981
 20
82.021008142438291
 11
90.199610305575504
 21
79.570514560805691
  0
LINE
  8
_0-0_
  6
CONTINUOUS
 62
    7
 10
91.771182510362848
 20
77.89846441047564
 11
94.320430276829882
 21
77.942961695757162
  0
LINE
  8
_0-0_
  6
CONTINUOUS
 62
    7
 10
94.24775124069987
 20
82.070514560805691
 11
91.712793232484671
 21
79.570514560805691
  0
LINE
  8
_0-1_
  6
DASHED2
 62
  152
 10
80.369936695197566
 20
45.927193172255272
 11
84.569936695197555
 21
45.927193172255272
  0
LINE
  8
_0-1_
  6
DASHED2
 62
  152
 10
84.569936695197555
 20
47.427193172255272
 11
82.869936695197509
 21
47.427193172255272
  0
LINE
  8
_0-1_
  6
DASHED2
 62
  152
 10
90.169936695197464
 20
47.427193172255272
 11
91.869936695197509
 21
47.427193172255272
  0
LINE
  8
_0-1_
  6
DASHED2
 62
  152
 10
94.369936695197509
 20
45.927193172255272
 11
90.169936695197464
 21
45.927193172255272
  0
LINE
  8
_0-1_
  6
CENTER1
 62
  152
 10
87.369936695197509
 20
36.516054904633791
 11
87.369936695197509
 21
49.990716574199894
  0
LINE
  8
_0-1_
  6
PHANTOM1
 62
  152
 10
107.36993669519751
 20
44.927193172255272
 11
107.36993669519751
 21
4.9271931722552722
  0
LINE
  8
_0-1_
  6
PHANTOM1
 62
  152
 10
107.36993669519751
 20
4.9271931722552722
 11
67.369936695197566
 21
4.9271931722552722
  0
LINE
  8
_0-1_
  6
PHANTOM1
 62
  152
 10
67.369936695197566
 20
4.9271931722552722
 11
67.369936695197566
 21
44.927193172255272
  0
LINE
  8
_0-1_
  6
PHANTOM1
 62
  152
 10
1.186316463150547
 20
48.750724575661593
 11
13.799670230512675
 21
1.677047462025655
  0
LINE
  8
_0-1_
  6
DASHED2
 62
  152
 10
18.835172542007513
 20
45.927193172255272
 11
14.635172542007695
 21
45.927193172255272
  0
LINE
  8
_0-1_
  6
DASHED2
 62
  152
 10
18.835172542007513
 20
47.427193172255272
 11
17.135172542007695
 21
47.427193172255272
  0
LINE
  8
_0-1_
  6
CENTER1
 62
  152
 10
21.635172542007695
 20
36.266337723365439
 11
21.635172542007695
 21
49.72086715506174
  0
LINE
  8
_0-1_
  6
DASHED2
 62
  152
 10
24.435172542007649
 20
47.427193172255272
 11
26.135172542007695
 21
47.427193172255272
  0
LINE
  8
_0-1_
  6
DASHED2
 62
  152
 10
28.635172542007695
 20
45.927193172255272
 11
24.435172542007649
 21
45.927193172255272
  0
LINE
  8
_0-1_
  6
PHANTOM1
 62
  152
 10
34.002100989483324
 20
48.298093064953548
 11
46.494172509082432
 21
1.677047462025655
  0
LINE
  8
_0-1_
  6
PHANTOM1
 62
  152
 10
45.623298590742934
 20
4.9271931722552722
 11
12.92879631217329
 21
4.9271931722552722
  0
LINE
  8
_0-1_
  6
PHANTOM1
 62
  152
 10
2.2108286149282321
 20
44.927193172255272
 11
34.90533089349799
 21
44.927193172255272
  0
LINE
  8
_0-1_
  6
PHANTOM1
 62
  152
 10
67.369936695197566
 20
44.927193172255272
 11
107.36993669519751
 21
44.927193172255272
  0
LINE
  8
_0-1_
  6
CENTER1
 62
  152
 10
87.369936695197509
 20
68.070514560805691
 11
87.369936695197509
 21
82.070514560805691
  0
LINE
  8
_0-1_
  6
CENTER1
 62
  152
 10
84.540263084819514
 20
79.570514560805691
 11
84.569936695197555
 21
77.870514560805873
  0
LINE
  8
_0-1_
  6
CENTER1
 62
  152
 10
84.569936695197555
 20
77.870514560805873
 11
82.968690880031943
 21
77.89846441047564
  0
LINE
  8
_0-1_
  6
CENTER1
 62
  152
 10
80.369936695197566
 20
75.070514560805691
 11
94.369936695197509
 21
75.070514560805691
  0
LINE
  8
_0-1_
  6
CENTER1
 62
  152
 10
91.771182510362848
 20
72.242564711136197
 11
90.169936695197464
 21
72.270514560805964
  0
LINE
  8
_0-1_
  6
CENTER1
 62
  152
 10
90.169936695197464
 20
72.270514560805964
 11
90.199610305575504
 21
70.570514560805691
  0
LINE
  8
_0-1_
  6
CENTER1
 62
  152
 10
84.540263084819514
 20
70.570514560805691
 11
84.569936695197555
 21
72.270514560805964
  0
LINE
  8
_0-1_
  6
CENTER1
 62
  152
 10
84.569936695197555
 20
72.270514560805964
 11
82.968690880031943
 21
72.242564711136197
  0
LINE
  8
_0-1_
  6
CENTER1
 62
  152
 10
90.199610305575504
 20
79.570514560805691
 11
90.169936695197464
 21
77.870514560805873
  0
LINE
  8
_0-1_
  6
CENTER1
 62
  152
 10
90.169936695197464
 20
77.870514560805873
 11
91.771182510362848
 21
77.89846441047564
  0
ENDSEC
  0
EOF
