  0
SECTION
  2
HEADER
  9
$ACADVER
  1
AC1009
  9
$INSBASE
 10
0
 20
0
 30
0
  9
$EXTMIN
 10
0
 20
0
  9
$EXTMAX
 10
1189
 20
841
  9
$LIMMIN
 10
0
 20
0
  9
$LIMMAX
 10
1189
 20
841
  9
$LTSCALE
 40
1
  0
ENDSEC
  0
SECTION
  2
TABLES
  0
TABLE
  2
LTYPE
 70
     9
  0
LTYPE
  2
CONTINUOUS
 70
    64
  3
実線
 72
    65
 73
     0
 40
0.0
  0
LTYPE
  2
DASHED1
 70
    64
  3
--  --  --  --  --  --  --  --  
 72
    65
 73
     2
 40
2.5
 49
1.25
 49
-1.25
  0
LTYPE
  2
DASHED2
 70
    64
  3
----    ----    ----    ----    
 72
    65
 73
     2
 40
5.0
 49
2.5
 49
-2.5
  0
LTYPE
  2
DASHED3
 70
    64
  3
------  ------  ------  ------  
 72
    65
 73
     2
 40
5.0
 49
3.75
 49
-1.25
  0
LTYPE
  2
CENTER1
 70
    64
  3
----- - ----- - ----- - ----- - 
 72
    65
 73
     4
 40
10.0
 49
6.25
 49
-1.25
 49
1.25
 49
-1.25
  0
LTYPE
  2
CENTER2
 70
    64
  3
----------  --  ----------  --  
 72
    65
 73
     4
 40
20.0
 49
12.5
 49
-2.5
 49
2.5
 49
-2.5
  0
LTYPE
  2
PHANTOM1
 70
    64
  3
--- - - --- - - --- - - --- - - 
 72
    65
 73
     6
 40
10.0
 49
3.25
 49
-1.25
 49
1.25
 49
-1.25
 49
1.25
 49
-1.25
  0
LTYPE
  2
PHANTOM2
 70
    64
  3
--------  -  -  --------  -  -  
 72
    65
 73
     6
 40
20.0
 49
10.0
 49
-2.5
 49
1.25
 49
-2.5
 49
1.25
 49
-2.5
  0
LTYPE
  2
DOT
 70
    64
  3
-   -   -   -   -   -   -   -   
 72
    65
 73
     2
 40
2.5
 49
0.625
 49
-1.875
  0
LTYPE
  2
DUMMY
 70
    64
  3
ダミー
 72
    65
 73
     0
 40
0.0
  0
LTYPE
  2
RAND1
 70
    64
  3
ランダム線1
 72
    65
 73
     4
 40
10.0
 49
1.0
 49
-2.0
 49
3.0
 49
-4.0
  0
LTYPE
  2
RAND2
 70
    64
  3
ランダム線2
 72
    65
 73
     4
 40
14.0
 49
2.0
 49
-3.0
 49
4.0
 49
-5.0
  0
LTYPE
  2
RAND3
 70
    64
  3
ランダム線3
 72
    65
 73
     4
 40
18.0
 49
3.0
 49
-4.0
 49
5.0
 49
-6.0
  0
LTYPE
  2
RAND4
 70
    64
  3
ランダム線4
 72
    65
 73
     4
 40
22.0
 49
4.0
 49
-5.0
 49
6.0
 49
-7.0
  0
LTYPE
  2
RAND5
 70
    64
  3
ランダム線5
 72
    65
 73
     4
 40
26.0
 49
5.0
 49
-6.0
 49
7.0
 49
-8.0
  0
LTYPE
  2
LONG1
 70
    64
  3
----------  --  ----------  --  
 72
    65
 73
     4
 40
40.0
 49
32.5
 49
-2.5
 49
2.5
 49
-2.5
  0
LTYPE
  2
LONG2
 70
    64
  3
--------  -  -  --------  -  -  
 72
    65
 73
     6
 40
40.0
 49
30.0
 49
-2.5
 49
1.25
 49
-2.5
 49
1.25
 49
-2.5
  0
LTYPE
  2
LONG3
 70
    64
  3
+++++++++++++++..+++++++++++++++
 72
    65
 73
     2
 40
40.0
 49
37.5
 49
-2.5
  0
LTYPE
  2
LONG4
 70
    64
  3
+++++++++++++++..+++++++++++++++
 72
    65
 73
     2
 40
80.0
 49
75.0
 49
-5.0
  0
LTYPE
  2
LONG5
 70
    64
  3
----------  --  ----------  --  
 72
    65
 73
     4
 40
60.0
 49
37.5
 49
-7.5
 49
7.5
 49
-7.5
  0
LTYPE
  2
dashed
 70
   64
  3
-------   -------------   ------
 72
   65
 73
    2
 40
7.5
 49
6
 49
-1.5
  0
LTYPE
  2
dashed_spaced
 70
   64
  3
----        --------        ----
 72
   65
 73
    2
 40
12
 49
6
 49
-6
  0
LTYPE
  2
long_dashed_dotted
 70
   64
  3
------------- --- --------------
 72
   65
 73
    4
 40
15.25
 49
12
 49
-1.5
 49
0.25
 49
-1.5
  0
LTYPE
  2
long_dashed_double-dotted
 70
   64
  3
----------- --- --- ------------
 72
   65
 73
    6
 40
17
 49
12
 49
-1.5
 49
0.25
 49
-1.5
 49
0.25
 49
-1.5
  0
LTYPE
  2
long_dashed_triplicate-dotted
 70
   64
  3
--------- --- --- --- ----------
 72
   65
 73
    8
 40
18.75
 49
12
 49
-1.5
 49
0.25
 49
-1.5
 49
0.25
 49
-1.5
 49
0.25
 49
-1.5
  0
LTYPE
  2
dotted
 70
   64
  3
   -       -       -       -    
 72
   65
 73
    2
 40
1.75
 49
0.25
 49
-1.5
  0
LTYPE
  2
chain
 70
   64
  3
-------------- -- --------------
 72
   65
 73
    4
 40
18.5
 49
12
 49
-1.5
 49
3.5
 49
-1.5
  0
LTYPE
  2
chain_double_dash
 70
   64
  3
------------ -- -- -------------
 72
   65
 73
    6
 40
23.5
 49
12
 49
-1.5
 49
3.5
 49
-1.5
 49
3.5
 49
-1.5
  0
LTYPE
  2
dashed_dotted
 70
   64
  3
-----------     -     ----------
 72
   65
 73
    4
 40
9.25
 49
6
 49
-1.5
 49
0.25
 49
-1.5
  0
LTYPE
  2
double-dashed_dotted
 70
   64
  3
------   -----------   -   -----
 72
   65
 73
    6
 40
16.75
 49
6
 49
-1.5
 49
6
 49
-1.5
 49
0.25
 49
-1.5
  0
LTYPE
  2
dashed_double-dotted
 70
   64
  3
---------    -    -    ---------
 72
   65
 73
    6
 40
11
 49
6
 49
-1.5
 49
0.25
 49
-1.5
 49
0.25
 49
-1.5
  0
LTYPE
  2
double-dashed_double-dotted
 70
   64
  3
-----   ---------   -   -   ----
 72
   65
 73
    8
 40
18.5
 49
6
 49
-1.5
 49
6
 49
-1.5
 49
0.25
 49
-1.5
 49
0.25
 49
-1.5
  0
LTYPE
  2
dashed_triplicate-dotted
 70
   64
  3
-------    -    -    -    ------
 72
   65
 73
    8
 40
12.75
 49
6
 49
-1.5
 49
0.25
 49
-1.5
 49
0.25
 49
-1.5
 49
0.25
 49
-1.5
  0
LTYPE
  2
double-dashed_triplicate-dotted
 70
   64
  3
-----  ---------  -  -  -  -----
 72
   65
 73
   10
 40
20.25
 49
6
 49
-1.5
 49
6
 49
-1.5
 49
0.25
 49
-1.5
 49
0.25
 49
-1.5
 49
0.25
 49
-1.5
  0
LTYPE
  2
undefined
 70
   64
  3
--------------------------------
 72
   65
 73
    0
 40
0
  0
ENDTAB
  0
TABLE
  2
STYLE
  5
3
100
AcDbSymbolTable
 70
     1
  0
STYLE
  5
10
100
AcDbSymbolTableRecord
100
AcDbTextStyleTableRecord
  2
STANDARD
 70
     0
 40
0.0
 41
1.0
 50
0.0
 71
     0
 42
0.2
  3
txt
  4
bigfont.shx
  0
STYLE
  5
26
100
AcDbSymbolTableRecord
100
AcDbTextStyleTableRecord
  2
TATEGAKI
 70
    68
 40
0.0
 41
1.0
 50
0.0
 71
     0
 42
1.0
  3
txt
  4
bigfont.shx
  0
ENDTAB
  0
TABLE
  2
LAYER
 70
    4
  0
LAYER
  2
_0-0_
 70
   64
 62
    7
  6
CONTINUOUS
  0
LAYER
  2
_0-1_
 70
   64
 62
    7
  6
CONTINUOUS
  0
LAYER
  2
_0-f_
 70
   64
 62
    7
  6
CONTINUOUS
  0
LAYER
  2
ADD_LINE
 70
   64
 62
    7
  6
CONTINUOUS
  0
ENDTAB
  0
ENDSEC
  0
SECTION
  2
BLOCKS
  0
ENDSEC
  0
SECTION
  2
ENTITIES
  0
TEXT
  8
_0-f_
 62
    7
 10
0.6457019093151075
 20
0.4420702056468712
 40
4.2999999999999998
 41
0.744186046511628
 50
0
  1
T25K
  0
LINE
  8
_0-0_
  6
CONTINUOUS
 62
    7
 10
17.716382148597859
 20
32.062480930398578
 11
17.716382148597859
 21
31.062480930398578
  0
LINE
  8
_0-0_
  6
CONTINUOUS
 62
    7
 10
17.716382148597859
 20
31.062480930398578
 11
15.166382148597904
 21
31.062480930398578
  0
LINE
  8
_0-0_
  6
CONTINUOUS
 62
    7
 10
10.796382148597786
 20
31.062480930398578
 11
10.796382148597786
 21
32.062480930398578
  0
LINE
  8
_0-0_
  6
CONTINUOUS
 62
    7
 10
15.296382148599832
 20
31.062480930398578
 11
15.296382148599832
 21
32.062480930398578
  0
LINE
  8
_0-0_
  6
CONTINUOUS
 62
    7
 10
10.796382148597786
 20
31.062480930398578
 11
13.346382148597741
 21
31.062480930398578
  0
LINE
  8
_0-0_
  6
CONTINUOUS
 62
    7
 10
19.171937704153379
 20
30.062480930398578
 11
17.299239291455024
 21
30.062480930398578
  0
LINE
  8
_0-0_
  6
CONTINUOUS
 62
    7
 10
7.2563821485978224
 20
33.472992707050139
 11
7.2563821485978224
 21
32.062480930398578
  0
LINE
  8
_0-0_
  6
CONTINUOUS
 62
    7
 10
21.256382148597822
 20
32.062480930398578
 11
21.256382148597822
 21
33.472992707050139
  0
LINE
  8
_0-0_
  6
CONTINUOUS
 62
    7
 10
11.456382148597868
 20
34.562480930398578
 11
11.456382148597868
 21
33.062480930398578
  0
LINE
  8
_0-0_
  6
CONTINUOUS
 62
    7
 10
11.456382148597868
 20
33.062480930398578
 11
17.056382148597777
 21
33.062480930398578
  0
LINE
  8
_0-0_
  6
CONTINUOUS
 62
    7
 10
17.056382148597777
 20
33.062480930398578
 11
17.056382148597777
 21
34.562480930398578
  0
LINE
  8
_0-0_
  6
CONTINUOUS
 62
    7
 10
17.056382148597777
 20
34.562480930398578
 11
11.456382148597868
 21
34.562480930398578
  0
LINE
  8
_0-0_
  6
CONTINUOUS
 62
    7
 10
7.2563821485978224
 20
33.472992707050139
 11
11.456382148597868
 21
33.472992707050139
  0
LINE
  8
_0-0_
  6
CONTINUOUS
 62
    7
 10
21.256382148597822
 20
33.472992707050139
 11
17.056382148597777
 21
33.472992707050139
  0
LINE
  8
_0-0_
  6
CONTINUOUS
 62
    7
 10
7.2563821485978224
 20
32.062480930398578
 11
21.256382148597822
 21
32.062480930398578
  0
LINE
  8
_0-0_
  6
CONTINUOUS
 62
    7
 10
21.256382148597822
 20
33.472992707050139
 11
18.756382148597822
 21
34.142865688127927
  0
LINE
  8
_0-0_
  6
CONTINUOUS
 62
    7
 10
7.2563821485978224
 20
33.472992707050139
 11
9.7563821485978224
 21
34.142865688127927
  0
LINE
  8
_0-0_
  6
CONTINUOUS
 62
    7
 10
9.7563821485978224
 20
34.142865688127927
 11
11.456382148597868
 21
34.142865688127927
  0
LINE
  8
_0-0_
  6
CONTINUOUS
 62
    7
 10
18.756382148597822
 20
34.142865688127927
 11
17.056382148597777
 21
34.142865688127927
  0
LINE
  8
_0-0_
  6
CONTINUOUS
 62
    7
 10
9.7563821485978224
 20
35.662480930398601
 11
9.7563821485978224
 21
34.142865688127927
  0
ARC
  8
_0-0_
  6
CONTINUOUS
 62
    7
 10
10.056382148597777
 20
35.662480930398601
 40
0.2999999999999999
 50
90
 51
180
  0
LINE
  8
_0-0_
  6
CONTINUOUS
 62
    7
 10
18.456382148597868
 20
35.962480930398613
 11
10.056382148597777
 21
35.962480930398613
  0
LINE
  8
_0-0_
  6
CONTINUOUS
 62
    7
 10
18.756382148597822
 20
35.662480930398601
 11
18.756382148597822
 21
34.142865688127927
  0
ARC
  8
_0-0_
  6
CONTINUOUS
 62
    7
 10
18.456382148597868
 20
35.662480930398601
 40
0.2999999999999999
 50
0
 51
90
  0
LINE
  8
_0-0_
  6
CONTINUOUS
 62
    7
 10
15.166382148597904
 20
31.062480930398578
 11
15.166382148597904
 21
29.162480930398601
  0
LINE
  8
_0-0_
  6
CONTINUOUS
 62
    7
 10
15.166382148597904
 20
29.162480930398601
 11
15.656382148597913
 21
29.162480930398601
  0
LINE
  8
_0-0_
  6
CONTINUOUS
 62
    7
 10
13.346382148597741
 20
31.062480930398578
 11
13.346382148597741
 21
29.162480930398601
  0
LINE
  8
_0-0_
  6
CONTINUOUS
 62
    7
 10
13.346382148597741
 20
29.162480930398601
 11
12.856382148597959
 21
29.162480930398601
  0
LINE
  8
_0-0_
  6
CONTINUOUS
 62
    7
 10
15.656382148597913
 20
29.162480930398601
 11
18.156382148597913
 21
30.562480930398578
  0
LINE
  8
_0-0_
  6
CONTINUOUS
 62
    7
 10
12.856382148597959
 20
29.162480930398601
 11
10.356382148597959
 21
30.562480930398578
  0
LINE
  8
_0-0_
  6
CONTINUOUS
 62
    7
 10
19.256382148597822
 20
30.662480930398601
 11
19.256382148597822
 21
30.162480930398601
  0
LINE
  8
_0-0_
  6
CONTINUOUS
 62
    7
 10
9.2563821485978224
 20
30.662480930398601
 11
9.2563821485978224
 21
30.162480930398601
  0
LINE
  8
_0-0_
  6
CONTINUOUS
 62
    7
 10
19.256382148597822
 20
30.662480930398601
 11
18.156382148597913
 21
30.562480930398578
  0
LINE
  8
_0-0_
  6
CONTINUOUS
 62
    7
 10
9.2563821485978224
 20
30.662480930398601
 11
10.356382148597959
 21
30.562480930398578
  0
LINE
  8
_0-0_
  6
CONTINUOUS
 62
    7
 10
15.756382148597822
 20
27.162480930398601
 11
12.756382148597822
 21
27.162480930398601
  0
LINE
  8
_0-0_
  6
CONTINUOUS
 62
    7
 10
19.256382148597822
 20
30.162480930398601
 11
17.356382148597959
 21
28.162480930398601
  0
LINE
  8
_0-0_
  6
CONTINUOUS
 62
    7
 10
9.2563821485978224
 20
30.162480930398601
 11
11.156382148597913
 21
28.162480930398601
  0
LINE
  8
_0-0_
  6
CONTINUOUS
 62
    7
 10
11.156382148597913
 20
28.162480930398601
 11
12.756382148597822
 21
27.162480930398601
  0
LINE
  8
_0-0_
  6
CONTINUOUS
 62
    7
 10
17.356382148597959
 20
28.162480930398601
 11
15.756382148597822
 21
27.162480930398601
  0
LINE
  8
_0-0_
  6
CONTINUOUS
 62
    7
 10
14.256382148597822
 20
65.801156960831406
 11
7.3785676030954619
 21
65.801156960831406
  0
LINE
  8
_0-0_
  6
CONTINUOUS
 62
    7
 10
7.3785676030954619
 20
65.801156960831406
 11
7.2563821485978224
 21
72.801156960831406
  0
LINE
  8
_0-0_
  6
CONTINUOUS
 62
    7
 10
14.256382148597822
 20
68.301156960831406
 11
9.9135256113106607
 21
68.301156960831406
  0
LINE
  8
_0-0_
  6
CONTINUOUS
 62
    7
 10
9.9135256113106607
 20
68.301156960831406
 11
9.7563821485978224
 21
72.801156960831406
  0
LINE
  8
_0-0_
  6
CONTINUOUS
 62
    7
 10
9.9135256113106607
 20
68.301156960831406
 11
7.3785676030954619
 21
65.801156960831406
  0
LINE
  8
_0-0_
  6
CONTINUOUS
 62
    7
 10
11.383935013646351
 20
65.850663379198977
 11
11.426708538219827
 21
68.301156960831406
  0
LINE
  8
_0-0_
  6
CONTINUOUS
 62
    7
 10
7.3058885669654501
 20
69.928709825879878
 11
9.8551363334324833
 21
69.973207111161685
  0
LINE
  8
_0-0_
  6
CONTINUOUS
 62
    7
 10
14.256382148597822
 20
65.801156960831406
 11
21.13419669410041
 21
65.801156960831406
  0
LINE
  8
_0-0_
  6
CONTINUOUS
 62
    7
 10
14.256382148597822
 20
68.301156960831406
 11
18.599238685884984
 21
68.301156960831406
  0
LINE
  8
_0-0_
  6
CONTINUOUS
 62
    7
 10
18.599238685884984
 20
68.301156960831406
 11
18.756382148597822
 21
72.801156960831406
  0
LINE
  8
_0-0_
  6
CONTINUOUS
 62
    7
 10
18.599238685884984
 20
68.301156960831406
 11
21.13419669410041
 21
65.801156960831406
  0
LINE
  8
_0-0_
  6
CONTINUOUS
 62
    7
 10
17.128829283549521
 20
65.850663379198977
 11
17.086055758975817
 21
68.301156960831406
  0
LINE
  8
_0-0_
  6
CONTINUOUS
 62
    7
 10
21.206875730230422
 20
69.928709825879878
 11
18.657627963763389
 21
69.973207111161685
  0
LINE
  8
_0-0_
  6
CONTINUOUS
 62
    7
 10
14.256382148597822
 20
79.801156960831406
 11
7.3785676030954619
 21
79.801156960831406
  0
LINE
  8
_0-0_
  6
CONTINUOUS
 62
    7
 10
7.3785676030954619
 20
79.801156960831406
 11
7.2563821485978224
 21
72.801156960831406
  0
LINE
  8
_0-0_
  6
CONTINUOUS
 62
    7
 10
14.256382148597822
 20
77.301156960831406
 11
9.9135256113106607
 21
77.301156960831406
  0
LINE
  8
_0-0_
  6
CONTINUOUS
 62
    7
 10
9.9135256113106607
 20
77.301156960831406
 11
9.7563821485978224
 21
72.801156960831406
  0
LINE
  8
_0-0_
  6
CONTINUOUS
 62
    7
 10
9.9135256113106607
 20
77.301156960831406
 11
7.3785676030954619
 21
79.801156960831406
  0
LINE
  8
_0-0_
  6
CONTINUOUS
 62
    7
 10
11.383935013646351
 20
79.751650542463835
 11
11.426708538219827
 21
77.301156960831406
  0
LINE
  8
_0-0_
  6
CONTINUOUS
 62
    7
 10
7.3058885669654501
 20
75.673604095782935
 11
9.8551363334324833
 21
75.629106810501128
  0
LINE
  8
_0-0_
  6
CONTINUOUS
 62
    7
 10
14.256382148597822
 20
79.801156960831406
 11
21.13419669410041
 21
79.801156960831406
  0
LINE
  8
_0-0_
  6
CONTINUOUS
 62
    7
 10
14.256382148597822
 20
77.301156960831406
 11
18.599238685884984
 21
77.301156960831406
  0
LINE
  8
_0-0_
  6
CONTINUOUS
 62
    7
 10
18.599238685884984
 20
77.301156960831406
 11
18.756382148597822
 21
72.801156960831406
  0
LINE
  8
_0-0_
  6
CONTINUOUS
 62
    7
 10
18.599238685884984
 20
77.301156960831406
 11
21.13419669410041
 21
79.801156960831406
  0
LINE
  8
_0-0_
  6
CONTINUOUS
 62
    7
 10
17.128829283549521
 20
79.751650542463835
 11
17.086055758975817
 21
77.301156960831406
  0
LINE
  8
_0-0_
  6
CONTINUOUS
 62
    7
 10
21.206875730230422
 20
75.673604095782935
 11
18.657627963763389
 21
75.629106810501128
  0
LINE
  8
_0-0_
  6
CONTINUOUS
 62
    7
 10
21.13419669410041
 20
79.801156960831406
 11
21.256382148597822
 21
72.801156960831406
  0
LINE
  8
_0-0_
  6
CONTINUOUS
 62
    7
 10
21.13419669410041
 20
65.801156960831406
 11
21.256382148597822
 21
72.801156960831406
  0
LINE
  8
_0-0_
  6
CONTINUOUS
 62
    7
 10
81.382268291709693
 20
31.062480930398578
 11
81.382268291709693
 21
32.062480930398408
  0
LINE
  8
_0-0_
  6
CONTINUOUS
 62
    7
 10
74.382268291709693
 20
33.472992707050139
 11
74.382268291709693
 21
32.062480930398578
  0
LINE
  8
_0-0_
  6
CONTINUOUS
 62
    7
 10
88.382268291709693
 20
32.062480930398578
 11
88.382268291709693
 21
33.472992707050139
  0
LINE
  8
_0-0_
  6
CONTINUOUS
 62
    7
 10
78.582268291709738
 20
34.562480930398578
 11
78.582268291709738
 21
33.062480930398578
  0
LINE
  8
_0-0_
  6
CONTINUOUS
 62
    7
 10
78.582268291709738
 20
33.062480930398578
 11
84.182268291709647
 21
33.062480930398578
  0
LINE
  8
_0-0_
  6
CONTINUOUS
 62
    7
 10
84.182268291709647
 20
33.062480930398578
 11
84.182268291709647
 21
34.562480930398578
  0
LINE
  8
_0-0_
  6
CONTINUOUS
 62
    7
 10
84.182268291709647
 20
34.562480930398578
 11
78.582268291709738
 21
34.562480930398578
  0
LINE
  8
_0-0_
  6
CONTINUOUS
 62
    7
 10
74.382268291709693
 20
33.472992707050139
 11
78.582268291709738
 21
33.472992707050139
  0
LINE
  8
_0-0_
  6
CONTINUOUS
 62
    7
 10
88.382268291709693
 20
33.472992707050139
 11
84.182268291709647
 21
33.472992707050139
  0
LINE
  8
_0-0_
  6
CONTINUOUS
 62
    7
 10
74.382268291709693
 20
32.062480930398578
 11
88.382268291709693
 21
32.062480930398578
  0
LINE
  8
_0-0_
  6
CONTINUOUS
 62
    7
 10
88.382268291709693
 20
33.472992707050139
 11
85.882268291709693
 21
34.142865688127927
  0
LINE
  8
_0-0_
  6
CONTINUOUS
 62
    7
 10
74.382268291709693
 20
33.472992707050139
 11
76.882268291709693
 21
34.142865688127927
  0
LINE
  8
_0-0_
  6
CONTINUOUS
 62
    7
 10
76.882268291709693
 20
34.142865688127927
 11
78.582268291709738
 21
34.142865688127927
  0
LINE
  8
_0-0_
  6
CONTINUOUS
 62
    7
 10
85.882268291709693
 20
34.142865688127927
 11
84.182268291709647
 21
34.142865688127927
  0
LINE
  8
_0-0_
  6
CONTINUOUS
 62
    7
 10
76.882268291709693
 20
35.662480930398601
 11
76.882268291709693
 21
34.142865688127927
  0
ARC
  8
_0-0_
  6
CONTINUOUS
 62
    7
 10
77.182268291709761
 20
35.662480930398601
 40
0.2999999999999999
 50
90
 51
180
  0
LINE
  8
_0-0_
  6
CONTINUOUS
 62
    7
 10
85.582268291709738
 20
35.962480930398613
 11
77.182268291709761
 21
35.962480930398613
  0
LINE
  8
_0-0_
  6
CONTINUOUS
 62
    7
 10
85.882268291709693
 20
35.662480930398601
 11
85.882268291709693
 21
34.142865688127927
  0
ARC
  8
_0-0_
  6
CONTINUOUS
 62
    7
 10
85.582268291709738
 20
35.662480930398601
 40
0.2999999999999999
 50
0
 51
90
  0
LINE
  8
_0-0_
  6
CONTINUOUS
 62
    7
 10
77.982268291709374
 20
31.062480930398578
 11
84.782268291710068
 21
31.062480930398578
  0
LINE
  8
_0-0_
  6
CONTINUOUS
 62
    7
 10
84.782268291710068
 20
30.662480930398601
 11
80.282468384439653
 21
30.662480930398601
  0
LINE
  8
_0-0_
  6
CONTINUOUS
 62
    7
 10
77.982268291709374
 20
30.046144173121547
 11
80.282468384439653
 21
30.662480930398601
  0
LINE
  8
_0-0_
  6
CONTINUOUS
 62
    7
 10
78.043237899898259
 20
30.062480930398578
 11
84.782268291710068
 21
30.062480930398578
  0
LINE
  8
_0-0_
  6
CONTINUOUS
 62
    7
 10
77.982268291709374
 20
28.062480930398578
 11
84.782268291710068
 21
28.062480930398578
  0
LINE
  8
_0-0_
  6
CONTINUOUS
 62
    7
 10
77.982268291709374
 20
32.062480930398408
 11
77.982268291709374
 21
26.962480930398613
  0
LINE
  8
_0-0_
  6
CONTINUOUS
 62
    7
 10
77.982268291709374
 20
26.962480930398613
 11
84.782268291710068
 21
26.962480930398613
  0
LINE
  8
_0-0_
  6
CONTINUOUS
 62
    7
 10
84.782268291710068
 20
26.962480930398613
 11
84.782268291710068
 21
32.062480930398408
  0
LINE
  8
_0-1_
  6
DASHED2
 62
  152
 10
11.456382148597868
 20
33.062480930398578
 11
7.2563821485978224
 21
33.062480930398578
  0
LINE
  8
_0-1_
  6
DASHED2
 62
  152
 10
17.056382148597777
 20
33.062480930398578
 11
21.256382148597822
 21
33.062480930398578
  0
LINE
  8
_0-1_
  6
DASHED2
 62
  152
 10
9.7563821485978224
 20
34.562480930398578
 11
11.456382148597868
 21
34.562480930398578
  0
LINE
  8
_0-1_
  6
DASHED2
 62
  152
 10
18.756382148597822
 20
34.562480930398578
 11
17.056382148597777
 21
34.562480930398578
  0
LINE
  8
_0-1_
  6
CENTER1
 62
  152
 10
14.256382148597822
 20
26.119175851037085
 11
14.256382148597822
 21
37.585947109478866
  0
LINE
  8
_0-1_
  6
PHANTOM1
 62
  152
 10
1.7563821485978224
 20
32.062480930398578
 11
26.756382148597822
 21
32.062480930398578
  0
LINE
  8
_0-1_
  6
PHANTOM1
 62
  152
 10
26.756382148597822
 20
32.062480930398578
 11
26.756382148597822
 21
7.0624809303985785
  0
LINE
  8
_0-1_
  6
PHANTOM1
 62
  152
 10
26.756382148597822
 20
7.0624809303985785
 11
1.7563821485978224
 21
7.0624809303985785
  0
LINE
  8
_0-1_
  6
PHANTOM1
 62
  152
 10
1.7563821485978224
 20
7.0624809303985785
 11
1.7563821485978224
 21
32.062480930398578
  0
LINE
  8
_0-1_
  6
CENTER1
 62
  152
 10
14.256382148597822
 20
65.801156960831406
 11
14.256382148597822
 21
79.801156960831406
  0
LINE
  8
_0-1_
  6
CENTER1
 62
  152
 10
21.256382148597822
 20
72.801156960831406
 11
7.2563821485978224
 21
72.801156960831406
  0
LINE
  8
_0-1_
  6
DASHED2
 62
  152
 10
11.426708538219827
 20
68.301156960831406
 11
11.456382148597868
 21
70.001156960831395
  0
LINE
  8
_0-1_
  6
DASHED2
 62
  152
 10
9.8551363334324833
 20
69.973207111161685
 11
11.456382148597868
 21
70.001156960831395
  0
LINE
  8
_0-1_
  6
DASHED2
 62
  152
 10
17.086055758975817
 20
68.301156960831406
 11
17.056382148598004
 21
70.001156960831395
  0
LINE
  8
_0-1_
  6
DASHED2
 62
  152
 10
18.657627963763389
 20
69.973207111161685
 11
17.056382148598004
 21
70.001156960831395
  0
LINE
  8
_0-1_
  6
DASHED2
 62
  152
 10
11.426708538219827
 20
77.301156960831406
 11
11.456382148597868
 21
75.601156960831418
  0
LINE
  8
_0-1_
  6
DASHED2
 62
  152
 10
9.8551363334324833
 20
75.629106810501128
 11
11.456382148597868
 21
75.601156960831418
  0
LINE
  8
_0-1_
  6
DASHED2
 62
  152
 10
17.086055758975817
 20
77.301156960831406
 11
17.056382148598004
 21
75.601156960831418
  0
LINE
  8
_0-1_
  6
DASHED2
 62
  152
 10
18.657627963763389
 20
75.629106810501128
 11
17.056382148598004
 21
75.601156960831418
  0
LINE
  8
_0-1_
  6
DASHED2
 62
  152
 10
78.582268291709738
 20
33.062480930398578
 11
74.382268291709693
 21
33.062480930398578
  0
LINE
  8
_0-1_
  6
DASHED2
 62
  152
 10
84.182268291709647
 20
33.062480930398578
 11
88.382268291709693
 21
33.062480930398578
  0
LINE
  8
_0-1_
  6
DASHED2
 62
  152
 10
76.882268291709693
 20
34.562480930398578
 11
78.582268291709738
 21
34.562480930398578
  0
LINE
  8
_0-1_
  6
DASHED2
 62
  152
 10
85.882268291709693
 20
34.562480930398578
 11
84.182268291709647
 21
34.562480930398578
  0
LINE
  8
_0-1_
  6
CENTER1
 62
  152
 10
81.382268291709693
 20
37.783746469653522
 11
81.382268291709693
 21
25.919175851037096
  0
LINE
  8
_0-1_
  6
PHANTOM1
 62
  152
 10
57.252699635984641
 20
32.062480930398578
 11
100.37409843904231
 21
32.062480930398578
  0
LINE
  8
_0-1_
  6
PHANTOM1
 62
  152
 10
63.951429446762745
 20
7.0624809303985785
 11
107.07282824982036
 21
7.0624809303985785
  0
LINE
  8
_0-1_
  6
PHANTOM1
 62
  152
 10
56.80124870508962
 20
33.747318741622792
 11
64.878887820093837
 21
3.6011591592216519
  0
LINE
  8
_0-1_
  6
PHANTOM1
 62
  152
 10
99.764262427460949
 20
34.338419909905213
 11
108.00028662315151
 21
3.6011591592216519
  0
ENDSEC
  0
EOF
