  0
SECTION
  2
HEADER
  9
$ACADVER
  1
AC1009
  9
$INSBASE
 10
0
 20
0
 30
0
  9
$EXTMIN
 10
0
 20
0
  9
$EXTMAX
 10
1189
 20
841
  9
$LIMMIN
 10
0
 20
0
  9
$LIMMAX
 10
1189
 20
841
  9
$LTSCALE
 40
1
  0
ENDSEC
  0
SECTION
  2
TABLES
  0
TABLE
  2
LTYPE
 70
     9
  0
LTYPE
  2
CONTINUOUS
 70
    64
  3
実線
 72
    65
 73
     0
 40
0.0
  0
LTYPE
  2
DASHED1
 70
    64
  3
--  --  --  --  --  --  --  --  
 72
    65
 73
     2
 40
2.5
 49
1.25
 49
-1.25
  0
LTYPE
  2
DASHED2
 70
    64
  3
----    ----    ----    ----    
 72
    65
 73
     2
 40
5.0
 49
2.5
 49
-2.5
  0
LTYPE
  2
DASHED3
 70
    64
  3
------  ------  ------  ------  
 72
    65
 73
     2
 40
5.0
 49
3.75
 49
-1.25
  0
LTYPE
  2
CENTER1
 70
    64
  3
----- - ----- - ----- - ----- - 
 72
    65
 73
     4
 40
10.0
 49
6.25
 49
-1.25
 49
1.25
 49
-1.25
  0
LTYPE
  2
CENTER2
 70
    64
  3
----------  --  ----------  --  
 72
    65
 73
     4
 40
20.0
 49
12.5
 49
-2.5
 49
2.5
 49
-2.5
  0
LTYPE
  2
PHANTOM1
 70
    64
  3
--- - - --- - - --- - - --- - - 
 72
    65
 73
     6
 40
10.0
 49
3.25
 49
-1.25
 49
1.25
 49
-1.25
 49
1.25
 49
-1.25
  0
LTYPE
  2
PHANTOM2
 70
    64
  3
--------  -  -  --------  -  -  
 72
    65
 73
     6
 40
20.0
 49
10.0
 49
-2.5
 49
1.25
 49
-2.5
 49
1.25
 49
-2.5
  0
LTYPE
  2
DOT
 70
    64
  3
-   -   -   -   -   -   -   -   
 72
    65
 73
     2
 40
2.5
 49
0.625
 49
-1.875
  0
LTYPE
  2
DUMMY
 70
    64
  3
ダミー
 72
    65
 73
     0
 40
0.0
  0
LTYPE
  2
RAND1
 70
    64
  3
ランダム線1
 72
    65
 73
     4
 40
10.0
 49
1.0
 49
-2.0
 49
3.0
 49
-4.0
  0
LTYPE
  2
RAND2
 70
    64
  3
ランダム線2
 72
    65
 73
     4
 40
14.0
 49
2.0
 49
-3.0
 49
4.0
 49
-5.0
  0
LTYPE
  2
RAND3
 70
    64
  3
ランダム線3
 72
    65
 73
     4
 40
18.0
 49
3.0
 49
-4.0
 49
5.0
 49
-6.0
  0
LTYPE
  2
RAND4
 70
    64
  3
ランダム線4
 72
    65
 73
     4
 40
22.0
 49
4.0
 49
-5.0
 49
6.0
 49
-7.0
  0
LTYPE
  2
RAND5
 70
    64
  3
ランダム線5
 72
    65
 73
     4
 40
26.0
 49
5.0
 49
-6.0
 49
7.0
 49
-8.0
  0
LTYPE
  2
LONG1
 70
    64
  3
----------  --  ----------  --  
 72
    65
 73
     4
 40
40.0
 49
32.5
 49
-2.5
 49
2.5
 49
-2.5
  0
LTYPE
  2
LONG2
 70
    64
  3
--------  -  -  --------  -  -  
 72
    65
 73
     6
 40
40.0
 49
30.0
 49
-2.5
 49
1.25
 49
-2.5
 49
1.25
 49
-2.5
  0
LTYPE
  2
LONG3
 70
    64
  3
+++++++++++++++..+++++++++++++++
 72
    65
 73
     2
 40
40.0
 49
37.5
 49
-2.5
  0
LTYPE
  2
LONG4
 70
    64
  3
+++++++++++++++..+++++++++++++++
 72
    65
 73
     2
 40
80.0
 49
75.0
 49
-5.0
  0
LTYPE
  2
LONG5
 70
    64
  3
----------  --  ----------  --  
 72
    65
 73
     4
 40
60.0
 49
37.5
 49
-7.5
 49
7.5
 49
-7.5
  0
LTYPE
  2
dashed
 70
   64
  3
-------   -------------   ------
 72
   65
 73
    2
 40
7.5
 49
6
 49
-1.5
  0
LTYPE
  2
dashed_spaced
 70
   64
  3
----        --------        ----
 72
   65
 73
    2
 40
12
 49
6
 49
-6
  0
LTYPE
  2
long_dashed_dotted
 70
   64
  3
------------- --- --------------
 72
   65
 73
    4
 40
15.25
 49
12
 49
-1.5
 49
0.25
 49
-1.5
  0
LTYPE
  2
long_dashed_double-dotted
 70
   64
  3
----------- --- --- ------------
 72
   65
 73
    6
 40
17
 49
12
 49
-1.5
 49
0.25
 49
-1.5
 49
0.25
 49
-1.5
  0
LTYPE
  2
long_dashed_triplicate-dotted
 70
   64
  3
--------- --- --- --- ----------
 72
   65
 73
    8
 40
18.75
 49
12
 49
-1.5
 49
0.25
 49
-1.5
 49
0.25
 49
-1.5
 49
0.25
 49
-1.5
  0
LTYPE
  2
dotted
 70
   64
  3
   -       -       -       -    
 72
   65
 73
    2
 40
1.75
 49
0.25
 49
-1.5
  0
LTYPE
  2
chain
 70
   64
  3
-------------- -- --------------
 72
   65
 73
    4
 40
18.5
 49
12
 49
-1.5
 49
3.5
 49
-1.5
  0
LTYPE
  2
chain_double_dash
 70
   64
  3
------------ -- -- -------------
 72
   65
 73
    6
 40
23.5
 49
12
 49
-1.5
 49
3.5
 49
-1.5
 49
3.5
 49
-1.5
  0
LTYPE
  2
dashed_dotted
 70
   64
  3
-----------     -     ----------
 72
   65
 73
    4
 40
9.25
 49
6
 49
-1.5
 49
0.25
 49
-1.5
  0
LTYPE
  2
double-dashed_dotted
 70
   64
  3
------   -----------   -   -----
 72
   65
 73
    6
 40
16.75
 49
6
 49
-1.5
 49
6
 49
-1.5
 49
0.25
 49
-1.5
  0
LTYPE
  2
dashed_double-dotted
 70
   64
  3
---------    -    -    ---------
 72
   65
 73
    6
 40
11
 49
6
 49
-1.5
 49
0.25
 49
-1.5
 49
0.25
 49
-1.5
  0
LTYPE
  2
double-dashed_double-dotted
 70
   64
  3
-----   ---------   -   -   ----
 72
   65
 73
    8
 40
18.5
 49
6
 49
-1.5
 49
6
 49
-1.5
 49
0.25
 49
-1.5
 49
0.25
 49
-1.5
  0
LTYPE
  2
dashed_triplicate-dotted
 70
   64
  3
-------    -    -    -    ------
 72
   65
 73
    8
 40
12.75
 49
6
 49
-1.5
 49
0.25
 49
-1.5
 49
0.25
 49
-1.5
 49
0.25
 49
-1.5
  0
LTYPE
  2
double-dashed_triplicate-dotted
 70
   64
  3
-----  ---------  -  -  -  -----
 72
   65
 73
   10
 40
20.25
 49
6
 49
-1.5
 49
6
 49
-1.5
 49
0.25
 49
-1.5
 49
0.25
 49
-1.5
 49
0.25
 49
-1.5
  0
LTYPE
  2
undefined
 70
   64
  3
--------------------------------
 72
   65
 73
    0
 40
0
  0
LTYPE
  2
_
 70
   64
  3
                                
 72
   65
 73
    0
 40
0
  0
LTYPE
  2
__18
 70
   64
  3
                                
 72
   65
 73
    0
 40
0
  0
LTYPE
  2
__19
 70
   64
  3
                                
 72
   65
 73
    0
 40
0
  0
LTYPE
  2
__20
 70
   64
  3
                                
 72
   65
 73
    0
 40
0
  0
LTYPE
  2
__21
 70
   64
  3
                                
 72
   65
 73
    0
 40
0
  0
LTYPE
  2
__22
 70
   64
  3
                                
 72
   65
 73
    0
 40
0
  0
LTYPE
  2
__23
 70
   64
  3
                                
 72
   65
 73
    0
 40
0
  0
LTYPE
  2
__24
 70
   64
  3
                                
 72
   65
 73
    0
 40
0
  0
LTYPE
  2
__25
 70
   64
  3
                                
 72
   65
 73
    0
 40
0
  0
LTYPE
  2
__26
 70
   64
  3
                                
 72
   65
 73
    0
 40
0
  0
LTYPE
  2
__27
 70
   64
  3
                                
 72
   65
 73
    0
 40
0
  0
LTYPE
  2
__28
 70
   64
  3
                                
 72
   65
 73
    0
 40
0
  0
LTYPE
  2
__29
 70
   64
  3
                                
 72
   65
 73
    0
 40
0
  0
LTYPE
  2
__30
 70
   64
  3
                                
 72
   65
 73
    0
 40
0
  0
LTYPE
  2
__31
 70
   64
  3
                                
 72
   65
 73
    0
 40
0
  0
LTYPE
  2
__32
 70
   64
  3
                                
 72
   65
 73
    0
 40
0
  0
ENDTAB
  0
TABLE
  2
STYLE
  5
3
100
AcDbSymbolTable
 70
     1
  0
STYLE
  5
10
100
AcDbSymbolTableRecord
100
AcDbTextStyleTableRecord
  2
STANDARD
 70
     0
 40
0.0
 41
1.0
 50
0.0
 71
     0
 42
0.2
  3
txt
  4
bigfont.shx
  0
STYLE
  5
26
100
AcDbSymbolTableRecord
100
AcDbTextStyleTableRecord
  2
TATEGAKI
 70
    68
 40
0.0
 41
1.0
 50
0.0
 71
     0
 42
1.0
  3
txt
  4
bigfont.shx
  0
ENDTAB
  0
TABLE
  2
LAYER
 70
    3
  0
LAYER
  2
_0-0_
 70
   64
 62
    7
  6
CONTINUOUS
  0
LAYER
  2
_0-1_
 70
   64
 62
    7
  6
CONTINUOUS
  0
LAYER
  2
ADD_LINE
 70
   64
 62
    7
  6
CONTINUOUS
  0
ENDTAB
  0
ENDSEC
  0
SECTION
  2
BLOCKS
  0
ENDSEC
  0
SECTION
  2
ENTITIES
  0
LINE
  8
_0-0_
  6
CONTINUOUS
 62
    7
 10
50.225128367576986
 20
4.6157701757296081
 11
56.725128367576986
 21
4.6157701757296081
  0
LINE
  8
_0-0_
  6
CONTINUOUS
 62
    7
 10
57.225128367576986
 20
5.1157701757296081
 11
57.225128367576986
 21
7.7157701757297446
  0
LINE
  8
_0-0_
  6
CONTINUOUS
 62
    7
 10
56.925128367576804
 20
8.0157701757296991
 11
56.025128367576713
 21
8.0157701757296991
  0
LINE
  8
_0-0_
  6
CONTINUOUS
 62
    7
 10
55.725128367576986
 20
7.7157701757297446
 11
55.725128367576986
 21
7.1157701757296081
  0
LINE
  8
_0-0_
  6
CONTINUOUS
 62
    7
 10
55.425128367576804
 20
6.8157701757296536
 11
53.225128367576986
 21
6.8157701757296536
  0
LINE
  8
_0-0_
  6
CONTINUOUS
 62
    7
 10
52.925128367576804
 20
7.1157701757296081
 11
52.925128367576804
 21
7.7157701757297446
  0
LINE
  8
_0-0_
  6
CONTINUOUS
 62
    7
 10
52.625128367577076
 20
8.0157701757296991
 11
51.825128367576895
 21
8.0157701757296991
  0
LINE
  8
_0-0_
  6
CONTINUOUS
 62
    7
 10
51.525128367576713
 20
8.3157701757296536
 11
51.525128367576713
 21
10.915770175729563
  0
LINE
  8
_0-0_
  6
CONTINUOUS
 62
    7
 10
51.825128367576895
 20
11.215770175729745
 11
52.625128367577076
 21
11.215770175729745
  0
LINE
  8
_0-0_
  6
CONTINUOUS
 62
    7
 10
52.925128367576804
 20
11.515770175729699
 11
52.925128367576804
 21
12.115770175729608
  0
LINE
  8
_0-0_
  6
CONTINUOUS
 62
    7
 10
53.225128367576986
 20
12.415770175729563
 11
55.425128367576804
 21
12.415770175729563
  0
LINE
  8
_0-0_
  6
CONTINUOUS
 62
    7
 10
55.725128367576986
 20
12.115770175729608
 11
55.725128367576986
 21
11.515770175729699
  0
LINE
  8
_0-0_
  6
CONTINUOUS
 62
    7
 10
56.025128367576713
 20
11.215770175729745
 11
56.925128367576804
 21
11.215770175729745
  0
LINE
  8
_0-0_
  6
CONTINUOUS
 62
    7
 10
57.225128367576986
 20
11.515770175729699
 11
57.225128367576986
 21
15.215770175729745
  0
LINE
  8
_0-0_
  6
CONTINUOUS
 62
    7
 10
56.925128367576804
 20
15.515770175729699
 11
56.025128367576713
 21
15.515770175729699
  0
LINE
  8
_0-0_
  6
CONTINUOUS
 62
    7
 10
55.725128367576986
 20
15.215770175729745
 11
55.725128367576986
 21
14.615770175729608
  0
LINE
  8
_0-0_
  6
CONTINUOUS
 62
    7
 10
55.425128367576804
 20
14.315770175729654
 11
53.225128367576986
 21
14.315770175729654
  0
LINE
  8
_0-0_
  6
CONTINUOUS
 62
    7
 10
52.925128367576804
 20
14.615770175729608
 11
52.925128367576804
 21
15.215770175729745
  0
LINE
  8
_0-0_
  6
CONTINUOUS
 62
    7
 10
52.625128367577076
 20
15.515770175729699
 11
51.825128367576895
 21
15.515770175729699
  0
LINE
  8
_0-0_
  6
CONTINUOUS
 62
    7
 10
51.525128367576713
 20
15.815770175729654
 11
51.525128367576713
 21
18.415770175729563
  0
LINE
  8
_0-0_
  6
CONTINUOUS
 62
    7
 10
51.825128367576895
 20
18.715770175729745
 11
52.625128367577076
 21
18.715770175729745
  0
LINE
  8
_0-0_
  6
CONTINUOUS
 62
    7
 10
52.925128367576804
 20
19.015770175729699
 11
52.925128367576804
 21
19.615770175729608
  0
LINE
  8
_0-0_
  6
CONTINUOUS
 62
    7
 10
53.225128367576986
 20
19.915770175729563
 11
55.425128367576804
 21
19.915770175729563
  0
LINE
  8
_0-0_
  6
CONTINUOUS
 62
    7
 10
55.725128367576986
 20
19.615770175729608
 11
55.725128367576986
 21
19.015770175729699
  0
LINE
  8
_0-0_
  6
CONTINUOUS
 62
    7
 10
56.025128367576713
 20
18.715770175729745
 11
56.925128367576804
 21
18.715770175729745
  0
LINE
  8
_0-0_
  6
CONTINUOUS
 62
    7
 10
57.225128367576986
 20
19.015770175729699
 11
57.225128367576986
 21
22.715770175729745
  0
LINE
  8
_0-0_
  6
CONTINUOUS
 62
    7
 10
56.925128367576804
 20
23.015770175729699
 11
56.025128367576713
 21
23.015770175729699
  0
LINE
  8
_0-0_
  6
CONTINUOUS
 62
    7
 10
55.725128367576986
 20
22.715770175729745
 11
55.725128367576986
 21
22.115770175729608
  0
LINE
  8
_0-0_
  6
CONTINUOUS
 62
    7
 10
55.425128367576804
 20
21.815770175729654
 11
53.225128367576986
 21
21.815770175729654
  0
LINE
  8
_0-0_
  6
CONTINUOUS
 62
    7
 10
52.925128367576804
 20
22.115770175729608
 11
52.925128367576804
 21
22.715770175729745
  0
LINE
  8
_0-0_
  6
CONTINUOUS
 62
    7
 10
52.625128367577076
 20
23.015770175729699
 11
51.825128367576895
 21
23.015770175729699
  0
LINE
  8
_0-0_
  6
CONTINUOUS
 62
    7
 10
51.525128367576713
 20
23.315770175729654
 11
51.525128367576713
 21
25.915770175729563
  0
LINE
  8
_0-0_
  6
CONTINUOUS
 62
    7
 10
51.825128367576895
 20
26.215770175729745
 11
52.625128367577076
 21
26.215770175729745
  0
LINE
  8
_0-0_
  6
CONTINUOUS
 62
    7
 10
52.925128367576804
 20
26.515770175729699
 11
52.925128367576804
 21
27.115770175729608
  0
LINE
  8
_0-0_
  6
CONTINUOUS
 62
    7
 10
53.225128367576986
 20
27.415770175729563
 11
55.425128367576804
 21
27.415770175729563
  0
LINE
  8
_0-0_
  6
CONTINUOUS
 62
    7
 10
55.725128367576986
 20
27.115770175729608
 11
55.725128367576986
 21
26.515770175729699
  0
LINE
  8
_0-0_
  6
CONTINUOUS
 62
    7
 10
56.025128367576713
 20
26.215770175729745
 11
56.925128367576804
 21
26.215770175729745
  0
LINE
  8
_0-0_
  6
CONTINUOUS
 62
    7
 10
57.225128367576986
 20
26.515770175729699
 11
57.225128367576986
 21
30.215770175729801
  0
LINE
  8
_0-0_
  6
CONTINUOUS
 62
    7
 10
56.925128367576804
 20
30.515770175729756
 11
56.025128367576713
 21
30.515770175729756
  0
LINE
  8
_0-0_
  6
CONTINUOUS
 62
    7
 10
55.725128367576986
 20
30.215770175729801
 11
55.725128367576986
 21
29.615770175729665
  0
LINE
  8
_0-0_
  6
CONTINUOUS
 62
    7
 10
55.425128367576804
 20
29.31577017572971
 11
53.225128367576986
 21
29.31577017572971
  0
LINE
  8
_0-0_
  6
CONTINUOUS
 62
    7
 10
52.925128367576804
 20
29.615770175729665
 11
52.925128367576804
 21
30.215770175729801
  0
LINE
  8
_0-0_
  6
CONTINUOUS
 62
    7
 10
52.625128367577076
 20
30.515770175729756
 11
51.825128367576895
 21
30.515770175729756
  0
LINE
  8
_0-0_
  6
CONTINUOUS
 62
    7
 10
51.525128367576713
 20
30.81577017572971
 11
51.525128367576713
 21
33.415770175729619
  0
LINE
  8
_0-0_
  6
CONTINUOUS
 62
    7
 10
51.825128367576895
 20
33.715770175729801
 11
52.625128367577076
 21
33.715770175729801
  0
LINE
  8
_0-0_
  6
CONTINUOUS
 62
    7
 10
52.925128367576804
 20
34.015770175729756
 11
52.925128367576804
 21
34.615770175729665
  0
LINE
  8
_0-0_
  6
CONTINUOUS
 62
    7
 10
53.225128367576986
 20
34.915770175729619
 11
55.425128367576804
 21
34.915770175729619
  0
LINE
  8
_0-0_
  6
CONTINUOUS
 62
    7
 10
55.725128367576986
 20
34.615770175729665
 11
55.725128367576986
 21
34.015770175729756
  0
LINE
  8
_0-0_
  6
CONTINUOUS
 62
    7
 10
56.025128367576713
 20
33.715770175729801
 11
56.925128367576804
 21
33.715770175729801
  0
LINE
  8
_0-0_
  6
CONTINUOUS
 62
    7
 10
57.225128367576986
 20
34.015770175729756
 11
57.225128367576986
 21
36.615770175729665
  0
LINE
  8
_0-0_
  6
CONTINUOUS
 62
    7
 10
56.725128367576986
 20
37.115770175729665
 11
43.425088367577359
 21
37.115770175729665
  0
LINE
  8
_0-0_
  6
CONTINUOUS
 62
    7
 10
43.778681758170137
 20
36.969323566322998
 11
42.071574976983925
 21
35.262216785136332
  0
LINE
  8
_0-0_
  6
CONTINUOUS
 62
    7
 10
41.925128367576804
 20
34.908663394543225
 11
41.925128367576804
 21
29.615770175729665
  0
LINE
  8
_0-0_
  6
CONTINUOUS
 62
    7
 10
42.425128367576804
 20
29.115770175729665
 11
44.218021586390591
 21
29.115770175729665
  0
LINE
  8
_0-0_
  6
CONTINUOUS
 62
    7
 10
44.571574976983925
 20
29.262216785136332
 11
45.778681758170137
 21
30.469323566322998
  0
LINE
  8
_0-0_
  6
CONTINUOUS
 62
    7
 10
45.925128367576804
 20
30.822876956916332
 11
45.925128367576804
 21
31.515770175729756
  0
LINE
  8
_0-0_
  6
CONTINUOUS
 62
    7
 10
46.425128367576804
 20
32.015770175729756
 11
49.225128367576986
 21
32.015770175729756
  0
LINE
  8
_0-0_
  6
CONTINUOUS
 62
    7
 10
49.725128367576986
 20
31.515770175729756
 11
49.725128367576986
 21
5.1157701757296081
  0
LINE
  8
_0-0_
  6
CONTINUOUS
 62
    7
 10
48.725088367577087
 20
37.61577017573012
 11
48.725088367577087
 21
38.281850175730085
  0
LINE
  8
_0-0_
  6
CONTINUOUS
 62
    7
 10
48.658098367577281
 20
38.531860175729832
 11
48.292098367577296
 21
39.165780175730049
  0
LINE
  8
_0-0_
  6
CONTINUOUS
 62
    7
 10
48.292078367577346
 20
39.665770175729847
 11
48.658118367577231
 21
40.299820175730417
  0
LINE
  8
_0-0_
  6
CONTINUOUS
 62
    7
 10
48.725088367577087
 20
40.549800175730013
 11
48.725088367577087
 21
41.206750175730065
  0
LINE
  8
_0-0_
  6
CONTINUOUS
 62
    7
 10
48.448698367577094
 20
41.65397017573008
 11
43.648698367577367
 21
44.053970175729717
  0
LINE
  8
_0-0_
  6
CONTINUOUS
 62
    7
 10
42.925088367577359
 20
43.606750175729701
 11
42.925088367577359
 21
37.61577017573012
  0
LINE
  8
_0-0_
  6
CONTINUOUS
 62
    7
 10
42.925088367577359
 20
37.915770175729847
 11
40.225088367577087
 21
37.915770175729847
  0
LINE
  8
_0-0_
  6
CONTINUOUS
 62
    7
 10
40.225088367577087
 20
37.915770175729847
 11
39.725088367577087
 21
38.415770175729847
  0
LINE
  8
_0-0_
  6
CONTINUOUS
 62
    7
 10
39.725088367577087
 20
38.415770175729847
 11
39.725088367577087
 21
40.415770175729847
  0
LINE
  8
_0-0_
  6
CONTINUOUS
 62
    7
 10
39.725088367577087
 20
40.415770175729847
 11
40.225088367577087
 21
40.915770175729847
  0
LINE
  8
_0-0_
  6
CONTINUOUS
 62
    7
 10
40.225088367577087
 20
40.915770175729847
 11
42.925088367577359
 21
40.915770175729847
  0
ARC
  8
_0-0_
  6
CONTINUOUS
 62
    7
 10
56.925128367576804
 20
34.015770175729756
 40
0.2999999999999999
 50
270
 51
0
  0
ARC
  8
_0-0_
  6
CONTINUOUS
 62
    7
 10
56.025128367576713
 20
34.015770175729756
 40
0.2999999999999999
 50
180
 51
270
  0
ARC
  8
_0-0_
  6
CONTINUOUS
 62
    7
 10
55.425128367576804
 20
34.615770175729665
 40
0.2999999999999999
 50
0
 51
90
  0
ARC
  8
_0-0_
  6
CONTINUOUS
 62
    7
 10
53.225128367576986
 20
34.615770175729665
 40
0.2999999999999999
 50
90
 51
180
  0
ARC
  8
_0-0_
  6
CONTINUOUS
 62
    7
 10
52.625128367577076
 20
34.015770175729756
 40
0.2999999999999999
 50
270
 51
0
  0
ARC
  8
_0-0_
  6
CONTINUOUS
 62
    7
 10
51.825128367576895
 20
33.415770175729619
 40
0.2999999999999999
 50
90
 51
180
  0
ARC
  8
_0-0_
  6
CONTINUOUS
 62
    7
 10
51.825128367576895
 20
30.81577017572971
 40
0.2999999999999999
 50
180
 51
270
  0
ARC
  8
_0-0_
  6
CONTINUOUS
 62
    7
 10
52.625128367577076
 20
30.215770175729801
 40
0.2999999999999999
 50
0
 51
90
  0
ARC
  8
_0-0_
  6
CONTINUOUS
 62
    7
 10
53.225128367576986
 20
29.615770175729665
 40
0.2999999999999999
 50
180
 51
270
  0
ARC
  8
_0-0_
  6
CONTINUOUS
 62
    7
 10
55.425128367576804
 20
29.615770175729665
 40
0.2999999999999999
 50
270
 51
0
  0
ARC
  8
_0-0_
  6
CONTINUOUS
 62
    7
 10
56.025128367576713
 20
30.215770175729801
 40
0.2999999999999999
 50
90
 51
180
  0
ARC
  8
_0-0_
  6
CONTINUOUS
 62
    7
 10
56.925128367576804
 20
30.215770175729801
 40
0.2999999999999999
 50
0
 51
90
  0
ARC
  8
_0-0_
  6
CONTINUOUS
 62
    7
 10
56.725128367576986
 20
36.615770175729665
 40
0.5
 50
0
 51
90
  0
ARC
  8
_0-0_
  6
CONTINUOUS
 62
    7
 10
56.925128367576804
 20
26.515770175729699
 40
0.2999999999999999
 50
270
 51
0
  0
ARC
  8
_0-0_
  6
CONTINUOUS
 62
    7
 10
56.025128367576713
 20
26.515770175729699
 40
0.2999999999999999
 50
180
 51
270
  0
ARC
  8
_0-0_
  6
CONTINUOUS
 62
    7
 10
55.425128367576804
 20
27.115770175729608
 40
0.2999999999999999
 50
0
 51
90
  0
ARC
  8
_0-0_
  6
CONTINUOUS
 62
    7
 10
53.225128367576986
 20
27.115770175729608
 40
0.2999999999999999
 50
90
 51
180
  0
ARC
  8
_0-0_
  6
CONTINUOUS
 62
    7
 10
52.625128367577076
 20
26.515770175729699
 40
0.2999999999999999
 50
270
 51
0
  0
ARC
  8
_0-0_
  6
CONTINUOUS
 62
    7
 10
51.825128367576895
 20
25.915770175729563
 40
0.2999999999999999
 50
90
 51
180
  0
ARC
  8
_0-0_
  6
CONTINUOUS
 62
    7
 10
51.825128367576895
 20
23.315770175729654
 40
0.2999999999999999
 50
180
 51
270
  0
ARC
  8
_0-0_
  6
CONTINUOUS
 62
    7
 10
52.625128367577076
 20
22.715770175729745
 40
0.2999999999999999
 50
0
 51
90
  0
ARC
  8
_0-0_
  6
CONTINUOUS
 62
    7
 10
53.225128367576986
 20
22.115770175729608
 40
0.2999999999999999
 50
180
 51
270
  0
ARC
  8
_0-0_
  6
CONTINUOUS
 62
    7
 10
55.425128367576804
 20
22.115770175729608
 40
0.2999999999999999
 50
270
 51
0
  0
ARC
  8
_0-0_
  6
CONTINUOUS
 62
    7
 10
56.025128367576713
 20
22.715770175729745
 40
0.2999999999999999
 50
90
 51
180
  0
ARC
  8
_0-0_
  6
CONTINUOUS
 62
    7
 10
56.925128367576804
 20
22.715770175729745
 40
0.2999999999999999
 50
0
 51
90
  0
ARC
  8
_0-0_
  6
CONTINUOUS
 62
    7
 10
56.925128367576804
 20
19.015770175729699
 40
0.2999999999999999
 50
270
 51
0
  0
ARC
  8
_0-0_
  6
CONTINUOUS
 62
    7
 10
56.025128367576713
 20
19.015770175729699
 40
0.2999999999999999
 50
180
 51
270
  0
ARC
  8
_0-0_
  6
CONTINUOUS
 62
    7
 10
55.425128367576804
 20
19.615770175729608
 40
0.2999999999999999
 50
0
 51
90
  0
ARC
  8
_0-0_
  6
CONTINUOUS
 62
    7
 10
53.225128367576986
 20
19.615770175729608
 40
0.2999999999999999
 50
90
 51
180
  0
ARC
  8
_0-0_
  6
CONTINUOUS
 62
    7
 10
52.625128367577076
 20
19.015770175729699
 40
0.2999999999999999
 50
270
 51
0
  0
ARC
  8
_0-0_
  6
CONTINUOUS
 62
    7
 10
51.825128367576895
 20
18.415770175729563
 40
0.2999999999999999
 50
90
 51
180
  0
ARC
  8
_0-0_
  6
CONTINUOUS
 62
    7
 10
51.825128367576895
 20
15.815770175729654
 40
0.2999999999999999
 50
180
 51
270
  0
ARC
  8
_0-0_
  6
CONTINUOUS
 62
    7
 10
52.625128367577076
 20
15.215770175729745
 40
0.2999999999999999
 50
0
 51
90
  0
ARC
  8
_0-0_
  6
CONTINUOUS
 62
    7
 10
53.225128367576986
 20
14.615770175729608
 40
0.2999999999999999
 50
180
 51
270
  0
ARC
  8
_0-0_
  6
CONTINUOUS
 62
    7
 10
55.425128367576804
 20
14.615770175729608
 40
0.2999999999999999
 50
270
 51
0
  0
ARC
  8
_0-0_
  6
CONTINUOUS
 62
    7
 10
56.025128367576713
 20
15.215770175729745
 40
0.2999999999999999
 50
90
 51
180
  0
ARC
  8
_0-0_
  6
CONTINUOUS
 62
    7
 10
56.925128367576804
 20
15.215770175729745
 40
0.2999999999999999
 50
0
 51
90
  0
ARC
  8
_0-0_
  6
CONTINUOUS
 62
    7
 10
56.925128367576804
 20
11.515770175729699
 40
0.2999999999999999
 50
270
 51
0
  0
ARC
  8
_0-0_
  6
CONTINUOUS
 62
    7
 10
56.025128367576713
 20
11.515770175729699
 40
0.2999999999999999
 50
180
 51
270
  0
ARC
  8
_0-0_
  6
CONTINUOUS
 62
    7
 10
55.425128367576804
 20
12.115770175729608
 40
0.2999999999999999
 50
0
 51
90
  0
ARC
  8
_0-0_
  6
CONTINUOUS
 62
    7
 10
53.225128367576986
 20
12.115770175729608
 40
0.2999999999999999
 50
90
 51
180
  0
ARC
  8
_0-0_
  6
CONTINUOUS
 62
    7
 10
52.625128367577076
 20
11.515770175729699
 40
0.2999999999999999
 50
270
 51
0
  0
ARC
  8
_0-0_
  6
CONTINUOUS
 62
    7
 10
51.825128367576895
 20
10.915770175729563
 40
0.2999999999999999
 50
90
 51
180
  0
ARC
  8
_0-0_
  6
CONTINUOUS
 62
    7
 10
51.825128367576895
 20
8.3157701757296536
 40
0.2999999999999999
 50
180
 51
270
  0
ARC
  8
_0-0_
  6
CONTINUOUS
 62
    7
 10
52.625128367577076
 20
7.7157701757297446
 40
0.2999999999999999
 50
0
 51
90
  0
ARC
  8
_0-0_
  6
CONTINUOUS
 62
    7
 10
53.225128367576986
 20
7.1157701757296081
 40
0.2999999999999999
 50
180
 51
270
  0
ARC
  8
_0-0_
  6
CONTINUOUS
 62
    7
 10
55.425128367576804
 20
7.1157701757296081
 40
0.2999999999999999
 50
270
 51
0
  0
ARC
  8
_0-0_
  6
CONTINUOUS
 62
    7
 10
56.025128367576713
 20
7.7157701757297446
 40
0.2999999999999999
 50
90
 51
180
  0
ARC
  8
_0-0_
  6
CONTINUOUS
 62
    7
 10
56.925128367576804
 20
7.7157701757297446
 40
0.2999999999999999
 50
0
 51
90
  0
ARC
  8
_0-0_
  6
CONTINUOUS
 62
    7
 10
44.132235148763471
 20
36.615770175729665
 40
0.5
 50
90
 51
135
  0
ARC
  8
_0-0_
  6
CONTINUOUS
 62
    7
 10
42.425128367576804
 20
34.908663394543225
 40
0.5
 50
135.00000000000006
 51
180
  0
ARC
  8
_0-0_
  6
CONTINUOUS
 62
    7
 10
42.425128367576804
 20
29.615770175729665
 40
0.5
 50
180
 51
270
  0
ARC
  8
_0-0_
  6
CONTINUOUS
 62
    7
 10
44.218021586390591
 20
29.615770175729665
 40
0.5
 50
270
 51
315
  0
ARC
  8
_0-0_
  6
CONTINUOUS
 62
    7
 10
45.425128367576804
 20
30.822876956916332
 40
0.5
 50
315.00000000000006
 51
0
  0
ARC
  8
_0-0_
  6
CONTINUOUS
 62
    7
 10
46.425128367576804
 20
31.515770175729756
 40
0.5
 50
90
 51
180
  0
ARC
  8
_0-0_
  6
CONTINUOUS
 62
    7
 10
49.225128367576986
 20
31.515770175729756
 40
0.5
 50
0
 51
90
  0
ARC
  8
_0-0_
  6
CONTINUOUS
 62
    7
 10
56.725128367576986
 20
5.1157701757296081
 40
0.5
 50
270
 51
0
  0
ARC
  8
_0-0_
  6
CONTINUOUS
 62
    7
 10
50.225128367576986
 20
5.1157701757296081
 40
0.5
 50
180
 51
270
  0
ARC
  8
_0-0_
  6
CONTINUOUS
 62
    7
 10
43.425088367577359
 20
43.606750175729701
 40
0.5
 50
63.434947999999999
 51
180.00000000000003
  0
ARC
  8
_0-0_
  6
CONTINUOUS
 62
    7
 10
43.425088367577359
 20
37.61577017573012
 40
0.5
 50
180
 51
270
  0
ARC
  8
_0-0_
  6
CONTINUOUS
 62
    7
 10
48.225088367577087
 20
37.61577017573012
 40
0.5
 50
270
 51
0
  0
ARC
  8
_0-0_
  6
CONTINUOUS
 62
    7
 10
48.225088367577087
 20
38.281850175730085
 40
0.5
 50
0
 51
30.000684
  0
ARC
  8
_0-0_
  6
CONTINUOUS
 62
    7
 10
48.725108367577036
 20
39.415790175729796
 40
0.5
 50
150.00262000000001
 51
210.00068000000002
  0
ARC
  8
_0-0_
  6
CONTINUOUS
 62
    7
 10
48.225088367577087
 20
40.549800175730013
 40
0.5
 50
330.00262000000009
 51
0.0000000000001335
  0
ARC
  8
_0-0_
  6
CONTINUOUS
 62
    7
 10
48.225088367577087
 20
41.206750175730065
 40
0.5
 50
0
 51
63.434947999999999
  0
LINE
  8
_0-0_
  6
CONTINUOUS
 62
    7
 10
239.59307096208067
 20
4.6157701757296081
 11
239.59307096208067
 21
37.115770175729665
  0
LINE
  8
_0-0_
  6
CONTINUOUS
 62
    7
 10
98.421082362003062
 20
37.115770175729665
 11
128.42108236200306
 21
37.115770175729665
  0
LINE
  8
_0-0_
  6
CONTINUOUS
 62
    7
 10
128.42108236200306
 20
37.115770175729665
 11
128.42108236200306
 21
4.6157701757296081
  0
LINE
  8
_0-0_
  6
CONTINUOUS
 62
    7
 10
128.42108236200306
 20
4.6157701757296081
 11
98.421082362003062
 21
4.6157701757296081
  0
LINE
  8
_0-0_
  6
CONTINUOUS
 62
    7
 10
98.421082362003062
 20
4.6157701757296081
 11
98.421082362003062
 21
37.115770175729665
  0
LINE
  8
_0-0_
  6
CONTINUOUS
 62
    7
 10
165.11533206290756
 20
37.115770175729665
 11
165.11533206290756
 21
4.6157701757296081
  0
LINE
  8
_0-0_
  6
CONTINUOUS
 62
    7
 10
165.11533206290756
 20
4.6157701757296081
 11
205.11533206290756
 21
4.6157701757296081
  0
LINE
  8
_0-0_
  6
CONTINUOUS
 62
    7
 10
205.11533206290756
 20
4.6157701757296081
 11
205.11533206290756
 21
37.115770175729665
  0
LINE
  8
_0-0_
  6
CONTINUOUS
 62
    7
 10
205.11533206290756
 20
37.115770175729665
 11
165.11533206290756
 21
37.115770175729665
  0
LINE
  8
_0-0_
  6
CONTINUOUS
 62
    7
 10
50.225128367576986
 20
92.379603881187165
 11
56.725128367576986
 21
92.379603881187165
  0
LINE
  8
_0-0_
  6
CONTINUOUS
 62
    7
 10
57.225128367576986
 20
92.879603881187165
 11
57.225128367576986
 21
95.479603881187302
  0
LINE
  8
_0-0_
  6
CONTINUOUS
 62
    7
 10
56.925128367576804
 20
95.779603881187256
 11
56.025128367576713
 21
95.779603881187256
  0
LINE
  8
_0-0_
  6
CONTINUOUS
 62
    7
 10
55.725128367576986
 20
95.479603881187302
 11
55.725128367576986
 21
94.879603881187165
  0
LINE
  8
_0-0_
  6
CONTINUOUS
 62
    7
 10
55.425128367576804
 20
94.579603881187211
 11
53.225128367576986
 21
94.579603881187211
  0
LINE
  8
_0-0_
  6
CONTINUOUS
 62
    7
 10
52.925128367576804
 20
94.879603881187165
 11
52.925128367576804
 21
95.479603881187302
  0
LINE
  8
_0-0_
  6
CONTINUOUS
 62
    7
 10
52.625128367577076
 20
95.779603881187256
 11
51.825128367576895
 21
95.779603881187256
  0
LINE
  8
_0-0_
  6
CONTINUOUS
 62
    7
 10
51.525128367576713
 20
96.079603881187211
 11
51.525128367576713
 21
98.67960388118712
  0
LINE
  8
_0-0_
  6
CONTINUOUS
 62
    7
 10
51.825128367576895
 20
98.979603881187302
 11
52.625128367577076
 21
98.979603881187302
  0
LINE
  8
_0-0_
  6
CONTINUOUS
 62
    7
 10
52.925128367576804
 20
99.279603881187256
 11
52.925128367576804
 21
99.879603881187165
  0
LINE
  8
_0-0_
  6
CONTINUOUS
 62
    7
 10
53.225128367576986
 20
100.17960388118712
 11
55.425128367576804
 21
100.17960388118712
  0
LINE
  8
_0-0_
  6
CONTINUOUS
 62
    7
 10
55.725128367576986
 20
99.879603881187165
 11
55.725128367576986
 21
99.279603881187256
  0
LINE
  8
_0-0_
  6
CONTINUOUS
 62
    7
 10
56.025128367576713
 20
98.979603881187302
 11
56.925128367576804
 21
98.979603881187302
  0
LINE
  8
_0-0_
  6
CONTINUOUS
 62
    7
 10
57.225128367576986
 20
99.279603881187256
 11
57.225128367576986
 21
102.9796038811873
  0
LINE
  8
_0-0_
  6
CONTINUOUS
 62
    7
 10
56.925128367576804
 20
103.27960388118726
 11
56.025128367576713
 21
103.27960388118726
  0
LINE
  8
_0-0_
  6
CONTINUOUS
 62
    7
 10
55.725128367576986
 20
102.9796038811873
 11
55.725128367576986
 21
102.37960388118717
  0
LINE
  8
_0-0_
  6
CONTINUOUS
 62
    7
 10
55.425128367576804
 20
102.07960388118721
 11
53.225128367576986
 21
102.07960388118721
  0
LINE
  8
_0-0_
  6
CONTINUOUS
 62
    7
 10
52.925128367576804
 20
102.37960388118717
 11
52.925128367576804
 21
102.9796038811873
  0
LINE
  8
_0-0_
  6
CONTINUOUS
 62
    7
 10
52.625128367577076
 20
103.27960388118726
 11
51.825128367576895
 21
103.27960388118726
  0
LINE
  8
_0-0_
  6
CONTINUOUS
 62
    7
 10
51.525128367576713
 20
103.57960388118721
 11
51.525128367576713
 21
106.17960388118712
  0
LINE
  8
_0-0_
  6
CONTINUOUS
 62
    7
 10
51.825128367576895
 20
106.4796038811873
 11
52.625128367577076
 21
106.4796038811873
  0
LINE
  8
_0-0_
  6
CONTINUOUS
 62
    7
 10
52.925128367576804
 20
106.77960388118726
 11
52.925128367576804
 21
107.37960388118717
  0
LINE
  8
_0-0_
  6
CONTINUOUS
 62
    7
 10
53.225128367576986
 20
107.67960388118712
 11
55.425128367576804
 21
107.67960388118712
  0
LINE
  8
_0-0_
  6
CONTINUOUS
 62
    7
 10
55.725128367576986
 20
107.37960388118717
 11
55.725128367576986
 21
106.77960388118726
  0
LINE
  8
_0-0_
  6
CONTINUOUS
 62
    7
 10
56.025128367576713
 20
106.4796038811873
 11
56.925128367576804
 21
106.4796038811873
  0
LINE
  8
_0-0_
  6
CONTINUOUS
 62
    7
 10
57.225128367576986
 20
106.77960388118726
 11
57.225128367576986
 21
110.4796038811873
  0
LINE
  8
_0-0_
  6
CONTINUOUS
 62
    7
 10
56.925128367576804
 20
110.77960388118726
 11
56.025128367576713
 21
110.77960388118726
  0
LINE
  8
_0-0_
  6
CONTINUOUS
 62
    7
 10
55.725128367576986
 20
110.4796038811873
 11
55.725128367576986
 21
109.87960388118717
  0
LINE
  8
_0-0_
  6
CONTINUOUS
 62
    7
 10
55.425128367576804
 20
109.57960388118721
 11
53.225128367576986
 21
109.57960388118721
  0
LINE
  8
_0-0_
  6
CONTINUOUS
 62
    7
 10
52.925128367576804
 20
109.87960388118717
 11
52.925128367576804
 21
110.4796038811873
  0
LINE
  8
_0-0_
  6
CONTINUOUS
 62
    7
 10
52.625128367577076
 20
110.77960388118726
 11
51.825128367576895
 21
110.77960388118726
  0
LINE
  8
_0-0_
  6
CONTINUOUS
 62
    7
 10
51.525128367576713
 20
111.07960388118721
 11
51.525128367576713
 21
113.67960388118712
  0
LINE
  8
_0-0_
  6
CONTINUOUS
 62
    7
 10
51.825128367576895
 20
113.9796038811873
 11
52.625128367577076
 21
113.9796038811873
  0
LINE
  8
_0-0_
  6
CONTINUOUS
 62
    7
 10
52.925128367576804
 20
114.27960388118726
 11
52.925128367576804
 21
114.87960388118717
  0
LINE
  8
_0-0_
  6
CONTINUOUS
 62
    7
 10
53.225128367576986
 20
115.17960388118712
 11
55.425128367576804
 21
115.17960388118712
  0
LINE
  8
_0-0_
  6
CONTINUOUS
 62
    7
 10
55.725128367576986
 20
114.87960388118717
 11
55.725128367576986
 21
114.27960388118726
  0
LINE
  8
_0-0_
  6
CONTINUOUS
 62
    7
 10
56.025128367576713
 20
113.9796038811873
 11
56.925128367576804
 21
113.9796038811873
  0
LINE
  8
_0-0_
  6
CONTINUOUS
 62
    7
 10
57.225128367576986
 20
114.27960388118726
 11
57.225128367576986
 21
117.97960388118736
  0
LINE
  8
_0-0_
  6
CONTINUOUS
 62
    7
 10
56.925128367576804
 20
118.27960388118731
 11
56.025128367576713
 21
118.27960388118731
  0
LINE
  8
_0-0_
  6
CONTINUOUS
 62
    7
 10
55.725128367576986
 20
117.97960388118736
 11
55.725128367576986
 21
117.37960388118722
  0
LINE
  8
_0-0_
  6
CONTINUOUS
 62
    7
 10
55.425128367576804
 20
117.07960388118727
 11
53.225128367576986
 21
117.07960388118727
  0
LINE
  8
_0-0_
  6
CONTINUOUS
 62
    7
 10
52.925128367576804
 20
117.37960388118722
 11
52.925128367576804
 21
117.97960388118736
  0
LINE
  8
_0-0_
  6
CONTINUOUS
 62
    7
 10
52.625128367577076
 20
118.27960388118731
 11
51.825128367576895
 21
118.27960388118731
  0
LINE
  8
_0-0_
  6
CONTINUOUS
 62
    7
 10
51.525128367576713
 20
118.57960388118727
 11
51.525128367576713
 21
121.17960388118718
  0
LINE
  8
_0-0_
  6
CONTINUOUS
 62
    7
 10
51.825128367576895
 20
121.47960388118736
 11
52.625128367577076
 21
121.47960388118736
  0
LINE
  8
_0-0_
  6
CONTINUOUS
 62
    7
 10
52.925128367576804
 20
121.77960388118731
 11
52.925128367576804
 21
122.37960388118722
  0
LINE
  8
_0-0_
  6
CONTINUOUS
 62
    7
 10
53.225128367576986
 20
122.67960388118718
 11
55.425128367576804
 21
122.67960388118718
  0
LINE
  8
_0-0_
  6
CONTINUOUS
 62
    7
 10
55.725128367576986
 20
122.37960388118722
 11
55.725128367576986
 21
121.77960388118731
  0
LINE
  8
_0-0_
  6
CONTINUOUS
 62
    7
 10
56.025128367576713
 20
121.47960388118736
 11
56.925128367576804
 21
121.47960388118736
  0
LINE
  8
_0-0_
  6
CONTINUOUS
 62
    7
 10
57.225128367576986
 20
121.77960388118731
 11
57.225128367576986
 21
124.37960388118722
  0
LINE
  8
_0-0_
  6
CONTINUOUS
 62
    7
 10
56.725128367576986
 20
124.87960388118722
 11
43.425088367577359
 21
124.87960388118722
  0
LINE
  8
_0-0_
  6
CONTINUOUS
 62
    7
 10
43.778681758170137
 20
124.73315727178056
 11
42.071574976983925
 21
123.02605049059389
  0
LINE
  8
_0-0_
  6
CONTINUOUS
 62
    7
 10
41.925128367576804
 20
122.67249710000078
 11
41.925128367576804
 21
117.37960388118722
  0
LINE
  8
_0-0_
  6
CONTINUOUS
 62
    7
 10
42.425128367576804
 20
116.87960388118722
 11
44.218021586390591
 21
116.87960388118722
  0
LINE
  8
_0-0_
  6
CONTINUOUS
 62
    7
 10
44.571574976983925
 20
117.02605049059389
 11
45.778681758170137
 21
118.23315727178056
  0
LINE
  8
_0-0_
  6
CONTINUOUS
 62
    7
 10
45.925128367576804
 20
118.58671066237389
 11
45.925128367576804
 21
119.27960388118731
  0
LINE
  8
_0-0_
  6
CONTINUOUS
 62
    7
 10
46.425128367576804
 20
119.77960388118731
 11
49.225128367576986
 21
119.77960388118731
  0
LINE
  8
_0-0_
  6
CONTINUOUS
 62
    7
 10
49.725128367576986
 20
119.27960388118731
 11
49.725128367576986
 21
92.879603881187165
  0
ARC
  8
_0-0_
  6
CONTINUOUS
 62
    7
 10
56.925128367576804
 20
121.77960388118731
 40
0.2999999999999999
 50
270
 51
0
  0
ARC
  8
_0-0_
  6
CONTINUOUS
 62
    7
 10
56.025128367576713
 20
121.77960388118731
 40
0.2999999999999999
 50
180
 51
270
  0
ARC
  8
_0-0_
  6
CONTINUOUS
 62
    7
 10
55.425128367576804
 20
122.37960388118722
 40
0.2999999999999999
 50
0
 51
90
  0
ARC
  8
_0-0_
  6
CONTINUOUS
 62
    7
 10
53.225128367576986
 20
122.37960388118722
 40
0.2999999999999999
 50
90
 51
180
  0
ARC
  8
_0-0_
  6
CONTINUOUS
 62
    7
 10
52.625128367577076
 20
121.77960388118731
 40
0.2999999999999999
 50
270
 51
0
  0
ARC
  8
_0-0_
  6
CONTINUOUS
 62
    7
 10
51.825128367576895
 20
121.17960388118718
 40
0.2999999999999999
 50
90
 51
180
  0
ARC
  8
_0-0_
  6
CONTINUOUS
 62
    7
 10
51.825128367576895
 20
118.57960388118727
 40
0.2999999999999999
 50
180
 51
270
  0
ARC
  8
_0-0_
  6
CONTINUOUS
 62
    7
 10
52.625128367577076
 20
117.97960388118736
 40
0.2999999999999999
 50
0
 51
90
  0
ARC
  8
_0-0_
  6
CONTINUOUS
 62
    7
 10
53.225128367576986
 20
117.37960388118722
 40
0.2999999999999999
 50
180
 51
270
  0
ARC
  8
_0-0_
  6
CONTINUOUS
 62
    7
 10
55.425128367576804
 20
117.37960388118722
 40
0.2999999999999999
 50
270
 51
0
  0
ARC
  8
_0-0_
  6
CONTINUOUS
 62
    7
 10
56.025128367576713
 20
117.97960388118736
 40
0.2999999999999999
 50
90
 51
180
  0
ARC
  8
_0-0_
  6
CONTINUOUS
 62
    7
 10
56.925128367576804
 20
117.97960388118736
 40
0.2999999999999999
 50
0
 51
90
  0
ARC
  8
_0-0_
  6
CONTINUOUS
 62
    7
 10
56.725128367576986
 20
124.37960388118722
 40
0.5
 50
0
 51
90
  0
ARC
  8
_0-0_
  6
CONTINUOUS
 62
    7
 10
56.925128367576804
 20
114.27960388118726
 40
0.2999999999999999
 50
270
 51
0
  0
ARC
  8
_0-0_
  6
CONTINUOUS
 62
    7
 10
56.025128367576713
 20
114.27960388118726
 40
0.2999999999999999
 50
180
 51
270
  0
ARC
  8
_0-0_
  6
CONTINUOUS
 62
    7
 10
55.425128367576804
 20
114.87960388118717
 40
0.2999999999999999
 50
0
 51
90
  0
ARC
  8
_0-0_
  6
CONTINUOUS
 62
    7
 10
53.225128367576986
 20
114.87960388118717
 40
0.2999999999999999
 50
90
 51
180
  0
ARC
  8
_0-0_
  6
CONTINUOUS
 62
    7
 10
52.625128367577076
 20
114.27960388118726
 40
0.2999999999999999
 50
270
 51
0
  0
ARC
  8
_0-0_
  6
CONTINUOUS
 62
    7
 10
51.825128367576895
 20
113.67960388118712
 40
0.2999999999999999
 50
90
 51
180
  0
ARC
  8
_0-0_
  6
CONTINUOUS
 62
    7
 10
51.825128367576895
 20
111.07960388118721
 40
0.2999999999999999
 50
180
 51
270
  0
ARC
  8
_0-0_
  6
CONTINUOUS
 62
    7
 10
52.625128367577076
 20
110.4796038811873
 40
0.2999999999999999
 50
0
 51
90
  0
ARC
  8
_0-0_
  6
CONTINUOUS
 62
    7
 10
53.225128367576986
 20
109.87960388118717
 40
0.2999999999999999
 50
180
 51
270
  0
ARC
  8
_0-0_
  6
CONTINUOUS
 62
    7
 10
55.425128367576804
 20
109.87960388118717
 40
0.2999999999999999
 50
270
 51
0
  0
ARC
  8
_0-0_
  6
CONTINUOUS
 62
    7
 10
56.025128367576713
 20
110.4796038811873
 40
0.2999999999999999
 50
90
 51
180
  0
ARC
  8
_0-0_
  6
CONTINUOUS
 62
    7
 10
56.925128367576804
 20
110.4796038811873
 40
0.2999999999999999
 50
0
 51
90
  0
ARC
  8
_0-0_
  6
CONTINUOUS
 62
    7
 10
56.925128367576804
 20
106.77960388118726
 40
0.2999999999999999
 50
270
 51
0
  0
ARC
  8
_0-0_
  6
CONTINUOUS
 62
    7
 10
56.025128367576713
 20
106.77960388118726
 40
0.2999999999999999
 50
180
 51
270
  0
ARC
  8
_0-0_
  6
CONTINUOUS
 62
    7
 10
55.425128367576804
 20
107.37960388118717
 40
0.2999999999999999
 50
0
 51
90
  0
ARC
  8
_0-0_
  6
CONTINUOUS
 62
    7
 10
53.225128367576986
 20
107.37960388118717
 40
0.2999999999999999
 50
90
 51
180
  0
ARC
  8
_0-0_
  6
CONTINUOUS
 62
    7
 10
52.625128367577076
 20
106.77960388118726
 40
0.2999999999999999
 50
270
 51
0
  0
ARC
  8
_0-0_
  6
CONTINUOUS
 62
    7
 10
51.825128367576895
 20
106.17960388118712
 40
0.2999999999999999
 50
90
 51
180
  0
ARC
  8
_0-0_
  6
CONTINUOUS
 62
    7
 10
51.825128367576895
 20
103.57960388118721
 40
0.2999999999999999
 50
180
 51
270
  0
ARC
  8
_0-0_
  6
CONTINUOUS
 62
    7
 10
52.625128367577076
 20
102.9796038811873
 40
0.2999999999999999
 50
0
 51
90
  0
ARC
  8
_0-0_
  6
CONTINUOUS
 62
    7
 10
53.225128367576986
 20
102.37960388118717
 40
0.2999999999999999
 50
180
 51
270
  0
ARC
  8
_0-0_
  6
CONTINUOUS
 62
    7
 10
55.425128367576804
 20
102.37960388118717
 40
0.2999999999999999
 50
270
 51
0
  0
ARC
  8
_0-0_
  6
CONTINUOUS
 62
    7
 10
56.025128367576713
 20
102.9796038811873
 40
0.2999999999999999
 50
90
 51
180
  0
ARC
  8
_0-0_
  6
CONTINUOUS
 62
    7
 10
56.925128367576804
 20
102.9796038811873
 40
0.2999999999999999
 50
0
 51
90
  0
ARC
  8
_0-0_
  6
CONTINUOUS
 62
    7
 10
56.925128367576804
 20
99.279603881187256
 40
0.2999999999999999
 50
270
 51
0
  0
ARC
  8
_0-0_
  6
CONTINUOUS
 62
    7
 10
56.025128367576713
 20
99.279603881187256
 40
0.2999999999999999
 50
180
 51
270
  0
ARC
  8
_0-0_
  6
CONTINUOUS
 62
    7
 10
55.425128367576804
 20
99.879603881187165
 40
0.2999999999999999
 50
0
 51
90
  0
ARC
  8
_0-0_
  6
CONTINUOUS
 62
    7
 10
53.225128367576986
 20
99.879603881187165
 40
0.2999999999999999
 50
90
 51
180
  0
ARC
  8
_0-0_
  6
CONTINUOUS
 62
    7
 10
52.625128367577076
 20
99.279603881187256
 40
0.2999999999999999
 50
270
 51
0
  0
ARC
  8
_0-0_
  6
CONTINUOUS
 62
    7
 10
51.825128367576895
 20
98.67960388118712
 40
0.2999999999999999
 50
90
 51
180
  0
ARC
  8
_0-0_
  6
CONTINUOUS
 62
    7
 10
51.825128367576895
 20
96.079603881187211
 40
0.2999999999999999
 50
180
 51
270
  0
ARC
  8
_0-0_
  6
CONTINUOUS
 62
    7
 10
52.625128367577076
 20
95.479603881187302
 40
0.2999999999999999
 50
0
 51
90
  0
ARC
  8
_0-0_
  6
CONTINUOUS
 62
    7
 10
53.225128367576986
 20
94.879603881187165
 40
0.2999999999999999
 50
180
 51
270
  0
ARC
  8
_0-0_
  6
CONTINUOUS
 62
    7
 10
55.425128367576804
 20
94.879603881187165
 40
0.2999999999999999
 50
270
 51
0
  0
ARC
  8
_0-0_
  6
CONTINUOUS
 62
    7
 10
56.025128367576713
 20
95.479603881187302
 40
0.2999999999999999
 50
90
 51
180
  0
ARC
  8
_0-0_
  6
CONTINUOUS
 62
    7
 10
56.925128367576804
 20
95.479603881187302
 40
0.2999999999999999
 50
0
 51
90
  0
ARC
  8
_0-0_
  6
CONTINUOUS
 62
    7
 10
44.132235148763471
 20
124.37960388118722
 40
0.5
 50
90
 51
135
  0
ARC
  8
_0-0_
  6
CONTINUOUS
 62
    7
 10
42.425128367576804
 20
122.67249710000078
 40
0.5
 50
135.00000000000006
 51
180
  0
ARC
  8
_0-0_
  6
CONTINUOUS
 62
    7
 10
42.425128367576804
 20
117.37960388118722
 40
0.5
 50
180
 51
270
  0
ARC
  8
_0-0_
  6
CONTINUOUS
 62
    7
 10
44.218021586390591
 20
117.37960388118722
 40
0.5
 50
270
 51
315
  0
ARC
  8
_0-0_
  6
CONTINUOUS
 62
    7
 10
45.425128367576804
 20
118.58671066237389
 40
0.5
 50
315.00000000000006
 51
0
  0
ARC
  8
_0-0_
  6
CONTINUOUS
 62
    7
 10
46.425128367576804
 20
119.27960388118731
 40
0.5
 50
90
 51
180
  0
ARC
  8
_0-0_
  6
CONTINUOUS
 62
    7
 10
49.225128367576986
 20
119.27960388118731
 40
0.5
 50
0
 51
90
  0
ARC
  8
_0-0_
  6
CONTINUOUS
 62
    7
 10
56.725128367576986
 20
92.879603881187165
 40
0.5
 50
270
 51
0
  0
ARC
  8
_0-0_
  6
CONTINUOUS
 62
    7
 10
50.225128367576986
 20
92.879603881187165
 40
0.5
 50
180
 51
270
  0
LINE
  8
_0-0_
  6
CONTINUOUS
 62
    7
 10
98.421082362003062
 20
92.379603881187165
 11
98.421082362003062
 21
124.87960388118722
  0
LINE
  8
_0-0_
  6
CONTINUOUS
 62
    7
 10
198.42108236200306
 20
124.87960388118722
 11
198.42108236200306
 21
92.379603881187165
  0
LINE
  8
_0-0_
  6
CONTINUOUS
 62
    7
 10
198.42108236200306
 20
92.379603881187165
 11
149.26348664491468
 21
92.379603881187165
  0
LINE
  8
_0-0_
  6
CONTINUOUS
 62
    7
 10
148.13374442423878
 20
92.379603881187165
 11
98.421082362003062
 21
92.379603881187165
  0
LINE
  8
_0-0_
  6
CONTINUOUS
 62
    7
 10
98.421082362003062
 20
124.87960388118722
 11
139.42539567022732
 21
124.87960388118722
  0
LINE
  8
_0-0_
  6
CONTINUOUS
 62
    7
 10
140.55513789090321
 20
124.87960388118722
 11
198.42108236200306
 21
124.87960388118722
  0
LINE
  8
_0-0_
  6
CONTINUOUS
 62
    7
 10
98.421082362003062
 20
33.715770175729574
 11
128.42108236200306
 21
33.715770175729574
  0
LINE
  8
_0-0_
  6
CONTINUOUS
 62
    7
 10
128.42108236200306
 20
30.515770175729756
 11
98.421082362003062
 21
30.515770175729756
  0
LINE
  8
_0-0_
  6
CONTINUOUS
 62
    7
 10
98.421082362003062
 20
26.215770175729517
 11
128.42108236200306
 21
26.215770175729517
  0
LINE
  8
_0-0_
  6
CONTINUOUS
 62
    7
 10
128.42108236200306
 20
23.015770175729699
 11
98.421082362003062
 21
23.015770175729699
  0
LINE
  8
_0-0_
  6
CONTINUOUS
 62
    7
 10
98.421082362003062
 20
18.715770175729517
 11
128.42108236200306
 21
18.715770175729517
  0
LINE
  8
_0-0_
  6
CONTINUOUS
 62
    7
 10
128.42108236200306
 20
15.515770175729699
 11
98.421082362003062
 21
15.515770175729699
  0
LINE
  8
_0-0_
  6
CONTINUOUS
 62
    7
 10
98.421082362003062
 20
11.215770175729517
 11
128.42108236200306
 21
11.215770175729517
  0
LINE
  8
_0-0_
  6
CONTINUOUS
 62
    7
 10
128.42108236200306
 20
8.0157701757296991
 11
98.421082362003062
 21
8.0157701757296991
  0
LINE
  8
_0-0_
  6
CONTINUOUS
 62
    7
 10
165.11533206290756
 20
8.0157701757296991
 11
205.11533206290756
 21
8.0157701757296991
  0
LINE
  8
_0-0_
  6
CONTINUOUS
 62
    7
 10
205.11533206290756
 20
11.215770175729745
 11
165.11533206290756
 21
11.215770175729745
  0
LINE
  8
_0-0_
  6
CONTINUOUS
 62
    7
 10
165.11533206290756
 20
15.515770175729699
 11
205.11533206290756
 21
15.515770175729699
  0
LINE
  8
_0-0_
  6
CONTINUOUS
 62
    7
 10
205.11533206290756
 20
18.715770175729745
 11
165.11533206290756
 21
18.715770175729745
  0
LINE
  8
_0-0_
  6
CONTINUOUS
 62
    7
 10
165.11533206290756
 20
23.015770175729699
 11
205.11533206290756
 21
23.015770175729699
  0
LINE
  8
_0-0_
  6
CONTINUOUS
 62
    7
 10
205.11533206290756
 20
26.215770175729517
 11
165.11533206290756
 21
26.215770175729517
  0
LINE
  8
_0-0_
  6
CONTINUOUS
 62
    7
 10
165.11533206290756
 20
30.515770175729756
 11
205.11533206290756
 21
30.515770175729756
  0
LINE
  8
_0-0_
  6
CONTINUOUS
 62
    7
 10
205.11533206290756
 20
33.715770175729574
 11
165.11533206290756
 21
33.715770175729574
  0
LINE
  8
_0-0_
  6
CONTINUOUS
 62
    7
 10
198.42108236200306
 20
95.779603881187256
 11
148.35245939064885
 21
95.779603881187256
  0
LINE
  8
_0-0_
  6
CONTINUOUS
 62
    7
 10
147.22271716997295
 20
95.779603881187256
 11
98.421082362003062
 21
95.779603881187256
  0
LINE
  8
_0-0_
  6
CONTINUOUS
 62
    7
 10
98.421082362003062
 20
98.979603881187074
 11
146.36527975419335
 21
98.979603881187074
  0
LINE
  8
_0-0_
  6
CONTINUOUS
 62
    7
 10
147.49502197486925
 20
98.979603881187074
 11
198.42108236200306
 21
98.979603881187074
  0
LINE
  8
_0-0_
  6
CONTINUOUS
 62
    7
 10
198.42108236200306
 20
103.27960388118726
 11
146.34284044741537
 21
103.27960388118726
  0
LINE
  8
_0-0_
  6
CONTINUOUS
 62
    7
 10
145.21309822673948
 20
103.27960388118726
 11
98.421082362003062
 21
103.27960388118726
  0
LINE
  8
_0-0_
  6
CONTINUOUS
 62
    7
 10
98.421082362003062
 20
106.47960388118707
 11
144.35566081095999
 21
106.47960388118707
  0
LINE
  8
_0-0_
  6
CONTINUOUS
 62
    7
 10
145.48540303163588
 20
106.47960388118707
 11
198.42108236200306
 21
106.47960388118707
  0
LINE
  8
_0-0_
  6
CONTINUOUS
 62
    7
 10
198.42108236200306
 20
110.77960388118726
 11
144.33322150418201
 21
110.77960388118726
  0
LINE
  8
_0-0_
  6
CONTINUOUS
 62
    7
 10
143.20347928350611
 20
110.77960388118726
 11
98.421082362003062
 21
110.77960388118726
  0
LINE
  8
_0-0_
  6
CONTINUOUS
 62
    7
 10
98.421082362003062
 20
113.97960388118707
 11
142.34604186772651
 21
113.97960388118707
  0
LINE
  8
_0-0_
  6
CONTINUOUS
 62
    7
 10
143.47578408840241
 20
113.97960388118707
 11
198.42108236200306
 21
113.97960388118707
  0
LINE
  8
_0-0_
  6
CONTINUOUS
 62
    7
 10
198.42108236200306
 20
118.27960388118731
 11
142.32360256094853
 21
118.27960388118731
  0
LINE
  8
_0-0_
  6
CONTINUOUS
 62
    7
 10
141.19386034027264
 20
118.27960388118731
 11
98.421082362003062
 21
118.27960388118731
  0
LINE
  8
_0-0_
  6
CONTINUOUS
 62
    7
 10
98.421082362003062
 20
121.47960388118713
 11
140.33642292449315
 21
121.47960388118713
  0
LINE
  8
_0-0_
  6
CONTINUOUS
 62
    7
 10
141.46616514516904
 20
121.47960388118713
 11
198.42108236200306
 21
121.47960388118713
  0
LINE
  8
_0-1_
  6
CENTER1
 62
  152
 10
50.252822247103836
 20
9.6157701757296081
 11
56.725128367576986
 21
9.6157701757296081
  0
LINE
  8
_0-1_
  6
CENTER1
 62
  152
 10
56.725128367576986
 20
17.115770175729608
 11
50.252822247103836
 21
17.115770175729608
  0
LINE
  8
_0-1_
  6
CENTER1
 62
  152
 10
50.252822247103836
 20
24.615770175729608
 11
56.725128367576986
 21
24.615770175729608
  0
LINE
  8
_0-1_
  6
CENTER1
 62
  152
 10
56.725128367576986
 20
32.115770175729665
 11
50.252822247103836
 21
32.115770175729665
  0
LINE
  8
_0-1_
  6
CENTER1
 62
  152
 10
42.925088367577359
 20
40.415770175729847
 11
39.725088367577087
 21
40.415770175729847
  0
LINE
  8
_0-1_
  6
CENTER1
 62
  152
 10
40.225088367577087
 20
40.915770175729847
 11
40.225088367577087
 21
37.915770175729847
  0
LINE
  8
_0-1_
  6
CENTER1
 62
  152
 10
39.725088367577087
 20
38.415770175729847
 11
42.925088367577359
 21
38.415770175729847
  0
LINE
  8
_0-1_
  6
CENTER1
 62
  152
 10
39.725088367577087
 20
39.415770175729847
 11
48.725088367577087
 21
39.415770175729847
  0
LINE
  8
_0-1_
  6
CENTER1
 62
  152
 10
34.725128367576986
 20
37.115760175729918
 11
24.725088367577087
 21
37.115760175729918
  0
LINE
  8
_0-1_
  6
CENTER1
 62
  152
 10
29.725108367577036
 20
32.115740175730423
 11
29.725108367577036
 21
42.115790175730069
  0
TEXT
  8
_0-1_
 62
    7
 10
95.076834494292029
 20
43.21811686519186
 40
5
 41
1
 50
0
  1
ST3S-
  0
TEXT
  8
_0-1_
 62
    7
 10
161.77108419519652
 20
43.21811686519186
 40
5
 41
1
 50
0
  1
ST3S-
  0
TEXT
  8
_0-1_
 62
    7
 10
236.24882309436964
 20
43.21811686519186
 40
5
 41
1
 50
0
  1
ST3S-
  0
TEXT
  8
_0-1_
 62
    7
 10
107.57683449429203
 20
43.21811686519186
 40
5
 41
1
 50
0
  1
L30
  0
TEXT
  8
_0-1_
 62
    7
 10
174.27108419519652
 20
43.21811686519186
 40
5
 41
1
 50
0
  1
L40
  0
LINE
  8
_0-1_
  6
CENTER1
 62
  152
 10
50.252822247103836
 20
97.379603881187165
 11
56.725128367576986
 21
97.379603881187165
  0
LINE
  8
_0-1_
  6
CENTER1
 62
  152
 10
56.725128367576986
 20
104.87960388118717
 11
50.252822247103836
 21
104.87960388118717
  0
LINE
  8
_0-1_
  6
CENTER1
 62
  152
 10
50.252822247103836
 20
112.37960388118717
 11
56.725128367576986
 21
112.37960388118717
  0
LINE
  8
_0-1_
  6
CENTER1
 62
  152
 10
56.725128367576986
 20
119.87960388118722
 11
50.252822247103836
 21
119.87960388118722
  0
TEXT
  8
_0-1_
 62
    7
 10
95.076834494292029
 20
130.98195057064942
 40
5
 41
1
 50
0
  1
ST30
  0
LINE
  8
_0-1_
  6
PHANTOM1
 62
  152
 10
9.725108367577036
 20
17.115760175729861
 11
49.725108367577036
 21
17.115760175729861
  0
LINE
  8
_0-1_
  6
PHANTOM1
 62
  152
 10
9.725108367577036
 20
57.115760175729918
 11
9.725108367577036
 21
17.115760175729861
  0
LINE
  8
_0-1_
  6
PHANTOM1
 62
  152
 10
49.725108367577036
 20
57.115760175729918
 11
9.725108367577036
 21
57.115760175729918
  0
LINE
  8
_0-1_
  6
PHANTOM1
 62
  152
 10
49.725108367577036
 20
17.115760175729861
 11
49.725108367577036
 21
57.115760175729918
  0
LINE
  8
_0-1_
  6
PHANTOM1
 62
  152
 10
138.73118037067616
 20
127.47045065050349
 11
148.93206043687996
 21
89.400247961514538
  0
LINE
  8
_0-1_
  6
PHANTOM1
 62
  152
 10
139.86092259135205
 20
127.47045065050349
 11
150.06180265755586
 21
89.400247961514538
  0
LINE
  8
_0-0_
  6
CONTINUOUS
 62
    7
 10
289.59307096208067
 20
4.6157701757296081
 11
239.59307096208067
 21
4.6157701757296081
  0
LINE
  8
_0-0_
  6
CONTINUOUS
 62
    7
 10
239.59307096208067
 20
37.115770175729665
 11
289.59307096208067
 21
37.115770175729665
  0
LINE
  8
_0-0_
  6
CONTINUOUS
 62
    7
 10
289.59307096208067
 20
37.115770175729665
 11
289.59307096208067
 21
4.6157701757296081
  0
LINE
  8
_0-0_
  6
CONTINUOUS
 62
    7
 10
289.59307096208067
 20
8.0157701757296991
 11
239.59307096208067
 21
8.0157701757296991
  0
LINE
  8
_0-0_
  6
CONTINUOUS
 62
    7
 10
239.59307096208067
 20
11.215770175729517
 11
289.59307096208067
 21
11.215770175729517
  0
LINE
  8
_0-0_
  6
CONTINUOUS
 62
    7
 10
289.59307096208067
 20
15.515770175729699
 11
239.59307096208067
 21
15.515770175729699
  0
LINE
  8
_0-0_
  6
CONTINUOUS
 62
    7
 10
239.59307096208067
 20
18.715770175729517
 11
289.59307096208067
 21
18.715770175729517
  0
LINE
  8
_0-0_
  6
CONTINUOUS
 62
    7
 10
289.59307096208067
 20
23.015770175729699
 11
239.59307096208067
 21
23.015770175729699
  0
LINE
  8
_0-0_
  6
CONTINUOUS
 62
    7
 10
239.59307096208067
 20
26.215770175729517
 11
289.59307096208067
 21
26.215770175729517
  0
LINE
  8
_0-0_
  6
CONTINUOUS
 62
    7
 10
289.59307096208067
 20
30.515770175729756
 11
239.59307096208067
 21
30.515770175729756
  0
LINE
  8
_0-0_
  6
CONTINUOUS
 62
    7
 10
239.59307096208067
 20
33.715770175729574
 11
289.59307096208067
 21
33.715770175729574
  0
TEXT
  8
_0-1_
 62
    7
 10
248.74882309436964
 20
43.21811686519186
 40
5
 41
1
 50
0
  1
L50
  0
LINE
  8
_0-0_
  6
CONTINUOUS
 62
    7
 10
324.59307096208067
 20
4.6157701757296081
 11
324.59307096208067
 21
37.115770175729665
  0
TEXT
  8
_0-1_
 62
    7
 10
321.24882309436964
 20
43.21811686519186
 40
5
 41
1
 50
0
  1
ST3S-
  0
LINE
  8
_0-0_
  6
CONTINUOUS
 62
    7
 10
407.59307096208067
 20
4.6157701757296081
 11
324.59307096208067
 21
4.6157701757296081
  0
LINE
  8
_0-0_
  6
CONTINUOUS
 62
    7
 10
324.59307096208067
 20
37.115770175729665
 11
407.59307096208067
 21
37.115770175729665
  0
LINE
  8
_0-0_
  6
CONTINUOUS
 62
    7
 10
407.59307096208067
 20
37.115770175729665
 11
407.59307096208067
 21
4.6157701757296081
  0
LINE
  8
_0-0_
  6
CONTINUOUS
 62
    7
 10
407.59307096208067
 20
8.0157701757296991
 11
324.59307096208067
 21
8.0157701757296991
  0
LINE
  8
_0-0_
  6
CONTINUOUS
 62
    7
 10
324.59307096208067
 20
11.215770175729517
 11
407.59307096208067
 21
11.215770175729517
  0
LINE
  8
_0-0_
  6
CONTINUOUS
 62
    7
 10
407.59307096208067
 20
15.515770175729699
 11
324.59307096208067
 21
15.515770175729699
  0
LINE
  8
_0-0_
  6
CONTINUOUS
 62
    7
 10
324.59307096208067
 20
18.715770175729517
 11
407.59307096208067
 21
18.715770175729517
  0
LINE
  8
_0-0_
  6
CONTINUOUS
 62
    7
 10
407.59307096208067
 20
23.015770175729699
 11
324.59307096208067
 21
23.015770175729699
  0
LINE
  8
_0-0_
  6
CONTINUOUS
 62
    7
 10
324.59307096208067
 20
26.215770175729517
 11
407.59307096208067
 21
26.215770175729517
  0
LINE
  8
_0-0_
  6
CONTINUOUS
 62
    7
 10
407.59307096208067
 20
30.515770175729756
 11
324.59307096208067
 21
30.515770175729756
  0
LINE
  8
_0-0_
  6
CONTINUOUS
 62
    7
 10
324.59307096208067
 20
33.715770175729574
 11
407.59307096208067
 21
33.715770175729574
  0
TEXT
  8
_0-1_
 62
    7
 10
333.74882309436964
 20
43.21811686519186
 40
5
 41
1
 50
0
  1
L83
  0
ENDSEC
  0
EOF
