  0
SECTION
  2
HEADER
  9
$ACADVER
  1
AC1009
  9
$INSBASE
 10
0
 20
0
 30
0
  9
$EXTMIN
 10
0
 20
0
  9
$EXTMAX
 10
1189
 20
841
  9
$LIMMIN
 10
0
 20
0
  9
$LIMMAX
 10
1189
 20
841
  9
$LTSCALE
 40
1
  0
ENDSEC
  0
SECTION
  2
TABLES
  0
TABLE
  2
LTYPE
 70
     9
  0
LTYPE
  2
CONTINUOUS
 70
    64
  3
実線
 72
    65
 73
     0
 40
0.0
  0
LTYPE
  2
DASHED1
 70
    64
  3
--  --  --  --  --  --  --  --  
 72
    65
 73
     2
 40
2.5
 49
1.25
 49
-1.25
  0
LTYPE
  2
DASHED2
 70
    64
  3
----    ----    ----    ----    
 72
    65
 73
     2
 40
5.0
 49
2.5
 49
-2.5
  0
LTYPE
  2
DASHED3
 70
    64
  3
------  ------  ------  ------  
 72
    65
 73
     2
 40
5.0
 49
3.75
 49
-1.25
  0
LTYPE
  2
CENTER1
 70
    64
  3
----- - ----- - ----- - ----- - 
 72
    65
 73
     4
 40
10.0
 49
6.25
 49
-1.25
 49
1.25
 49
-1.25
  0
LTYPE
  2
CENTER2
 70
    64
  3
----------  --  ----------  --  
 72
    65
 73
     4
 40
20.0
 49
12.5
 49
-2.5
 49
2.5
 49
-2.5
  0
LTYPE
  2
PHANTOM1
 70
    64
  3
--- - - --- - - --- - - --- - - 
 72
    65
 73
     6
 40
10.0
 49
3.25
 49
-1.25
 49
1.25
 49
-1.25
 49
1.25
 49
-1.25
  0
LTYPE
  2
PHANTOM2
 70
    64
  3
--------  -  -  --------  -  -  
 72
    65
 73
     6
 40
20.0
 49
10.0
 49
-2.5
 49
1.25
 49
-2.5
 49
1.25
 49
-2.5
  0
LTYPE
  2
DOT
 70
    64
  3
-   -   -   -   -   -   -   -   
 72
    65
 73
     2
 40
2.5
 49
0.625
 49
-1.875
  0
LTYPE
  2
DUMMY
 70
    64
  3
ダミー
 72
    65
 73
     0
 40
0.0
  0
LTYPE
  2
RAND1
 70
    64
  3
ランダム線1
 72
    65
 73
     4
 40
10.0
 49
1.0
 49
-2.0
 49
3.0
 49
-4.0
  0
LTYPE
  2
RAND2
 70
    64
  3
ランダム線2
 72
    65
 73
     4
 40
14.0
 49
2.0
 49
-3.0
 49
4.0
 49
-5.0
  0
LTYPE
  2
RAND3
 70
    64
  3
ランダム線3
 72
    65
 73
     4
 40
18.0
 49
3.0
 49
-4.0
 49
5.0
 49
-6.0
  0
LTYPE
  2
RAND4
 70
    64
  3
ランダム線4
 72
    65
 73
     4
 40
22.0
 49
4.0
 49
-5.0
 49
6.0
 49
-7.0
  0
LTYPE
  2
RAND5
 70
    64
  3
ランダム線5
 72
    65
 73
     4
 40
26.0
 49
5.0
 49
-6.0
 49
7.0
 49
-8.0
  0
LTYPE
  2
LONG1
 70
    64
  3
----------  --  ----------  --  
 72
    65
 73
     4
 40
40.0
 49
32.5
 49
-2.5
 49
2.5
 49
-2.5
  0
LTYPE
  2
LONG2
 70
    64
  3
--------  -  -  --------  -  -  
 72
    65
 73
     6
 40
40.0
 49
30.0
 49
-2.5
 49
1.25
 49
-2.5
 49
1.25
 49
-2.5
  0
LTYPE
  2
LONG3
 70
    64
  3
+++++++++++++++..+++++++++++++++
 72
    65
 73
     2
 40
40.0
 49
37.5
 49
-2.5
  0
LTYPE
  2
LONG4
 70
    64
  3
+++++++++++++++..+++++++++++++++
 72
    65
 73
     2
 40
80.0
 49
75.0
 49
-5.0
  0
LTYPE
  2
LONG5
 70
    64
  3
----------  --  ----------  --  
 72
    65
 73
     4
 40
60.0
 49
37.5
 49
-7.5
 49
7.5
 49
-7.5
  0
LTYPE
  2
dashed
 70
   64
  3
-------   -------------   ------
 72
   65
 73
    2
 40
7.5
 49
6
 49
-1.5
  0
LTYPE
  2
dashed_spaced
 70
   64
  3
----        --------        ----
 72
   65
 73
    2
 40
12
 49
6
 49
-6
  0
LTYPE
  2
long_dashed_dotted
 70
   64
  3
------------- --- --------------
 72
   65
 73
    4
 40
15.25
 49
12
 49
-1.5
 49
0.25
 49
-1.5
  0
LTYPE
  2
long_dashed_double-dotted
 70
   64
  3
----------- --- --- ------------
 72
   65
 73
    6
 40
17
 49
12
 49
-1.5
 49
0.25
 49
-1.5
 49
0.25
 49
-1.5
  0
LTYPE
  2
long_dashed_triplicate-dotted
 70
   64
  3
--------- --- --- --- ----------
 72
   65
 73
    8
 40
18.75
 49
12
 49
-1.5
 49
0.25
 49
-1.5
 49
0.25
 49
-1.5
 49
0.25
 49
-1.5
  0
LTYPE
  2
dotted
 70
   64
  3
   -       -       -       -    
 72
   65
 73
    2
 40
1.75
 49
0.25
 49
-1.5
  0
LTYPE
  2
chain
 70
   64
  3
-------------- -- --------------
 72
   65
 73
    4
 40
18.5
 49
12
 49
-1.5
 49
3.5
 49
-1.5
  0
LTYPE
  2
chain_double_dash
 70
   64
  3
------------ -- -- -------------
 72
   65
 73
    6
 40
23.5
 49
12
 49
-1.5
 49
3.5
 49
-1.5
 49
3.5
 49
-1.5
  0
LTYPE
  2
dashed_dotted
 70
   64
  3
-----------     -     ----------
 72
   65
 73
    4
 40
9.25
 49
6
 49
-1.5
 49
0.25
 49
-1.5
  0
LTYPE
  2
double-dashed_dotted
 70
   64
  3
------   -----------   -   -----
 72
   65
 73
    6
 40
16.75
 49
6
 49
-1.5
 49
6
 49
-1.5
 49
0.25
 49
-1.5
  0
LTYPE
  2
dashed_double-dotted
 70
   64
  3
---------    -    -    ---------
 72
   65
 73
    6
 40
11
 49
6
 49
-1.5
 49
0.25
 49
-1.5
 49
0.25
 49
-1.5
  0
LTYPE
  2
double-dashed_double-dotted
 70
   64
  3
-----   ---------   -   -   ----
 72
   65
 73
    8
 40
18.5
 49
6
 49
-1.5
 49
6
 49
-1.5
 49
0.25
 49
-1.5
 49
0.25
 49
-1.5
  0
LTYPE
  2
dashed_triplicate-dotted
 70
   64
  3
-------    -    -    -    ------
 72
   65
 73
    8
 40
12.75
 49
6
 49
-1.5
 49
0.25
 49
-1.5
 49
0.25
 49
-1.5
 49
0.25
 49
-1.5
  0
LTYPE
  2
double-dashed_triplicate-dotted
 70
   64
  3
-----  ---------  -  -  -  -----
 72
   65
 73
   10
 40
20.25
 49
6
 49
-1.5
 49
6
 49
-1.5
 49
0.25
 49
-1.5
 49
0.25
 49
-1.5
 49
0.25
 49
-1.5
  0
LTYPE
  2
undefined
 70
   64
  3
--------------------------------
 72
   65
 73
    0
 40
0
  0
ENDTAB
  0
TABLE
  2
STYLE
  5
3
100
AcDbSymbolTable
 70
     1
  0
STYLE
  5
10
100
AcDbSymbolTableRecord
100
AcDbTextStyleTableRecord
  2
STANDARD
 70
     0
 40
0.0
 41
1.0
 50
0.0
 71
     0
 42
0.2
  3
txt
  4
bigfont.shx
  0
STYLE
  5
26
100
AcDbSymbolTableRecord
100
AcDbTextStyleTableRecord
  2
TATEGAKI
 70
    68
 40
0.0
 41
1.0
 50
0.0
 71
     0
 42
1.0
  3
txt
  4
bigfont.shx
  0
ENDTAB
  0
TABLE
  2
LAYER
 70
    3
  0
LAYER
  2
_0-0_
 70
   64
 62
    7
  6
CONTINUOUS
  0
LAYER
  2
_0-1_
 70
   64
 62
    7
  6
CONTINUOUS
  0
LAYER
  2
ADD_LINE
 70
   64
 62
    7
  6
CONTINUOUS
  0
ENDTAB
  0
ENDSEC
  0
SECTION
  2
BLOCKS
  0
ENDSEC
  0
SECTION
  2
ENTITIES
  0
LINE
  8
_0-0_
  6
CONTINUOUS
 62
    7
 10
45.056914169613378
 20
30.936183926746367
 11
38.181178238325288
 21
30.936183926746367
  0
LINE
  8
_0-0_
  6
CONTINUOUS
 62
    7
 10
37.969046203969469
 20
31.024051892390503
 11
36.644782135257287
 21
32.348315961102458
  0
LINE
  8
_0-0_
  6
CONTINUOUS
 62
    7
 10
36.432650100901469
 20
32.436183926746367
 11
35.727734562863247
 21
32.436183926746367
  0
LINE
  8
_0-0_
  6
CONTINUOUS
 62
    7
 10
35.780524070436627
 20
32.497986680533472
 11
30.9805240704369
 21
30.097986680533836
  0
LINE
  8
_0-0_
  6
CONTINUOUS
 62
    7
 10
30.256914070436892
 20
30.545199680533301
 11
30.256914070436892
 21
36.536182580533136
  0
LINE
  8
_0-0_
  6
CONTINUOUS
 62
    7
 10
30.256914070436892
 20
36.136181180533754
 11
29.856914070436801
 21
35.736182580533864
  0
LINE
  8
_0-0_
  6
CONTINUOUS
 62
    7
 10
29.856914070436801
 20
35.736182580533864
 11
29.856914070436801
 21
33.736182680533716
  0
LINE
  8
_0-0_
  6
CONTINUOUS
 62
    7
 10
29.856914070436801
 20
33.736182680533716
 11
30.256914070436892
 21
33.336184680533847
  0
LINE
  8
_0-0_
  6
CONTINUOUS
 62
    7
 10
30.756914070436892
 20
37.036182580534046
 11
35.556914070436619
 21
37.036182580534046
  0
LINE
  8
_0-0_
  6
CONTINUOUS
 62
    7
 10
36.056914070436619
 20
36.536182580533136
 11
36.056914070436619
 21
35.870098680533488
  0
LINE
  8
_0-0_
  6
CONTINUOUS
 62
    7
 10
35.989924070436814
 20
35.620093480533001
 11
35.623924070436829
 21
34.98617168053363
  0
LINE
  8
_0-0_
  6
CONTINUOUS
 62
    7
 10
35.623904070436879
 20
34.486186680533251
 11
35.989944070436763
 21
33.852129680533949
  0
LINE
  8
_0-0_
  6
CONTINUOUS
 62
    7
 10
36.056914070436619
 20
33.602148680533105
 11
36.056914070436619
 21
32.945199680533847
  0
LINE
  8
_0-0_
  6
CONTINUOUS
 62
    7
 10
35.593570484213274
 20
32.40451208404636
 11
32.422750090963405
 21
30.819101887421425
  0
LINE
  8
_0-0_
  6
CONTINUOUS
 62
    7
 10
32.256914169613651
 20
30.550773730121477
 11
32.256914169613651
 21
27.536183926746503
  0
LINE
  8
_0-0_
  6
CONTINUOUS
 62
    7
 10
32.556914169613378
 20
27.236183926746321
 11
33.956914169613469
 21
27.236183926746321
  0
LINE
  8
_0-0_
  6
CONTINUOUS
 62
    7
 10
34.256914169613651
 20
27.536183926746503
 11
34.256914169613651
 21
29.536183926746503
  0
LINE
  8
_0-0_
  6
CONTINUOUS
 62
    7
 10
34.556914169613378
 20
29.836183926746457
 11
35.932650100901469
 21
29.836183926746457
  0
LINE
  8
_0-0_
  6
CONTINUOUS
 62
    7
 10
36.144782135257287
 20
29.748315961102321
 11
37.469046203969469
 21
28.424051892390366
  0
LINE
  8
_0-0_
  6
CONTINUOUS
 62
    7
 10
37.556914169613378
 20
28.211919858034548
 11
37.556914169613378
 21
24.736183926746321
  0
LINE
  8
_0-0_
  6
CONTINUOUS
 62
    7
 10
37.256914169613651
 20
24.436183926746367
 11
36.35691416961356
 21
24.436183926746367
  0
LINE
  8
_0-0_
  6
CONTINUOUS
 62
    7
 10
36.056914169613378
 20
24.136183926746412
 11
36.056914169613378
 21
22.10938900750341
  0
LINE
  8
_0-0_
  6
CONTINUOUS
 62
    7
 10
36.206914169613469
 20
21.849581386367959
 11
38.406914169613287
 21
20.579410794150704
  0
LINE
  8
_0-0_
  6
CONTINUOUS
 62
    7
 10
38.556914169613378
 20
20.31960317301548
 11
38.556914169613378
 21
6.9361839267463665
  0
LINE
  8
_0-0_
  6
CONTINUOUS
 62
    7
 10
39.556914169613378
 20
5.9361839267463665
 11
45.056914169613378
 21
5.9361839267463665
  0
LINE
  8
_0-0_
  6
CONTINUOUS
 62
    7
 10
46.056914169613378
 20
6.9361839267463665
 11
46.056914169613378
 21
9.0361839267465029
  0
LINE
  8
_0-0_
  6
CONTINUOUS
 62
    7
 10
45.756914169613651
 20
9.3361839267464575
 11
44.85691416961356
 21
9.3361839267464575
  0
LINE
  8
_0-0_
  6
CONTINUOUS
 62
    7
 10
44.556914169613378
 20
9.0361839267465029
 11
44.556914169613378
 21
8.4361839267463665
  0
LINE
  8
_0-0_
  6
CONTINUOUS
 62
    7
 10
44.256914169613651
 20
8.136183926746412
 11
42.056914169613378
 21
8.136183926746412
  0
LINE
  8
_0-0_
  6
CONTINUOUS
 62
    7
 10
41.756914169613651
 20
8.4361839267463665
 11
41.756914169613651
 21
9.0361839267465029
  0
LINE
  8
_0-0_
  6
CONTINUOUS
 62
    7
 10
41.456914169613469
 20
9.3361839267464575
 11
40.656914169613287
 21
9.3361839267464575
  0
LINE
  8
_0-0_
  6
CONTINUOUS
 62
    7
 10
40.35691416961356
 20
9.636183926746412
 11
40.35691416961356
 21
12.236183926746321
  0
LINE
  8
_0-0_
  6
CONTINUOUS
 62
    7
 10
40.656914169613287
 20
12.536183926746503
 11
41.456914169613469
 21
12.536183926746503
  0
LINE
  8
_0-0_
  6
CONTINUOUS
 62
    7
 10
41.756914169613651
 20
12.836183926746457
 11
41.756914169613651
 21
13.436183926746367
  0
LINE
  8
_0-0_
  6
CONTINUOUS
 62
    7
 10
42.056914169613378
 20
13.736183926746321
 11
44.256914169613651
 21
13.736183926746321
  0
LINE
  8
_0-0_
  6
CONTINUOUS
 62
    7
 10
44.556914169613378
 20
13.436183926746367
 11
44.556914169613378
 21
12.836183926746457
  0
LINE
  8
_0-0_
  6
CONTINUOUS
 62
    7
 10
44.85691416961356
 20
12.536183926746503
 11
45.756914169613651
 21
12.536183926746503
  0
LINE
  8
_0-0_
  6
CONTINUOUS
 62
    7
 10
46.056914169613378
 20
12.836183926746457
 11
46.056914169613378
 21
16.536183926746503
  0
LINE
  8
_0-0_
  6
CONTINUOUS
 62
    7
 10
45.756914169613651
 20
16.836183926746457
 11
44.85691416961356
 21
16.836183926746457
  0
LINE
  8
_0-0_
  6
CONTINUOUS
 62
    7
 10
44.556914169613378
 20
16.536183926746503
 11
44.556914169613378
 21
15.936183926746367
  0
LINE
  8
_0-0_
  6
CONTINUOUS
 62
    7
 10
44.256914169613651
 20
15.636183926746412
 11
42.056914169613378
 21
15.636183926746412
  0
LINE
  8
_0-0_
  6
CONTINUOUS
 62
    7
 10
41.756914169613651
 20
15.936183926746367
 11
41.756914169613651
 21
16.536183926746503
  0
LINE
  8
_0-0_
  6
CONTINUOUS
 62
    7
 10
41.456914169613469
 20
16.836183926746457
 11
40.656914169613287
 21
16.836183926746457
  0
LINE
  8
_0-0_
  6
CONTINUOUS
 62
    7
 10
40.35691416961356
 20
17.136183926746412
 11
40.35691416961356
 21
19.736183926746321
  0
LINE
  8
_0-0_
  6
CONTINUOUS
 62
    7
 10
40.656914169613287
 20
20.036183926746503
 11
41.456914169613469
 21
20.036183926746503
  0
LINE
  8
_0-0_
  6
CONTINUOUS
 62
    7
 10
41.756914169613651
 20
20.336183926746457
 11
41.756914169613651
 21
20.936183926746367
  0
LINE
  8
_0-0_
  6
CONTINUOUS
 62
    7
 10
42.056914169613378
 20
21.236183926746321
 11
44.256914169613651
 21
21.236183926746321
  0
LINE
  8
_0-0_
  6
CONTINUOUS
 62
    7
 10
44.556914169613378
 20
20.936183926746367
 11
44.556914169613378
 21
20.336183926746457
  0
LINE
  8
_0-0_
  6
CONTINUOUS
 62
    7
 10
44.85691416961356
 20
20.036183926746503
 11
45.756914169613651
 21
20.036183926746503
  0
LINE
  8
_0-0_
  6
CONTINUOUS
 62
    7
 10
46.056914169613378
 20
20.336183926746457
 11
46.056914169613378
 21
24.036183926746503
  0
LINE
  8
_0-0_
  6
CONTINUOUS
 62
    7
 10
45.756914169613651
 20
24.336183926746457
 11
44.85691416961356
 21
24.336183926746457
  0
LINE
  8
_0-0_
  6
CONTINUOUS
 62
    7
 10
44.556914169613378
 20
24.036183926746503
 11
44.556914169613378
 21
23.436183926746367
  0
LINE
  8
_0-0_
  6
CONTINUOUS
 62
    7
 10
44.256914169613651
 20
23.136183926746412
 11
42.056914169613378
 21
23.136183926746412
  0
LINE
  8
_0-0_
  6
CONTINUOUS
 62
    7
 10
41.756914169613651
 20
23.436183926746367
 11
41.756914169613651
 21
24.036183926746503
  0
LINE
  8
_0-0_
  6
CONTINUOUS
 62
    7
 10
41.456914169613469
 20
24.336183926746457
 11
40.656914169613287
 21
24.336183926746457
  0
LINE
  8
_0-0_
  6
CONTINUOUS
 62
    7
 10
40.35691416961356
 20
24.636183926746412
 11
40.35691416961356
 21
27.236183926746321
  0
LINE
  8
_0-0_
  6
CONTINUOUS
 62
    7
 10
40.656914169613287
 20
27.536183926746503
 11
41.456914169613469
 21
27.536183926746503
  0
LINE
  8
_0-0_
  6
CONTINUOUS
 62
    7
 10
41.756914169613651
 20
27.836183926746457
 11
41.756914169613651
 21
28.436183926746367
  0
LINE
  8
_0-0_
  6
CONTINUOUS
 62
    7
 10
42.056914169613378
 20
28.736183926746321
 11
44.256914169613651
 21
28.736183926746321
  0
LINE
  8
_0-0_
  6
CONTINUOUS
 62
    7
 10
44.556914169613378
 20
28.436183926746367
 11
44.556914169613378
 21
27.836183926746457
  0
LINE
  8
_0-0_
  6
CONTINUOUS
 62
    7
 10
44.85691416961356
 20
27.536183926746503
 11
45.756914169613651
 21
27.536183926746503
  0
LINE
  8
_0-0_
  6
CONTINUOUS
 62
    7
 10
46.056914169613378
 20
27.836183926746457
 11
46.056914169613378
 21
29.936183926746367
  0
ARC
  8
_0-0_
  6
CONTINUOUS
 62
    7
 10
35.556914070436619
 20
33.602148680533105
 40
0.5
 50
0
 51
29.997370000000007
  0
ARC
  8
_0-0_
  6
CONTINUOUS
 62
    7
 10
35.556914070436619
 20
35.870098680533488
 40
0.5
 50
329.99931500000002
 51
0.0000000000000254
  0
ARC
  8
_0-0_
  6
CONTINUOUS
 62
    7
 10
36.056934070437023
 20
34.736166680533756
 40
0.5
 50
149.99931000000001
 51
209.99736999999999
  0
ARC
  8
_0-0_
  6
CONTINUOUS
 62
    7
 10
35.556914070436619
 20
32.945199680533847
 40
0.5
 50
296.56505099999998
 51
0
  0
ARC
  8
_0-0_
  6
CONTINUOUS
 62
    7
 10
35.556914070436619
 20
36.536182580533136
 40
0.5
 50
0
 51
90
  0
ARC
  8
_0-0_
  6
CONTINUOUS
 62
    7
 10
30.756914070436892
 20
36.536182580533136
 40
0.5
 50
90
 51
180
  0
ARC
  8
_0-0_
  6
CONTINUOUS
 62
    7
 10
30.756914070436892
 20
30.545199680533301
 40
0.5
 50
180
 51
296.56505100000004
  0
ARC
  8
_0-0_
  6
CONTINUOUS
 62
    7
 10
39.556914169613378
 20
6.9361839267463665
 40
1
 50
180
 51
270
  0
ARC
  8
_0-0_
  6
CONTINUOUS
 62
    7
 10
45.056914169613378
 20
6.9361839267463665
 40
1
 50
270
 51
0
  0
ARC
  8
_0-0_
  6
CONTINUOUS
 62
    7
 10
45.756914169613651
 20
9.0361839267465029
 40
0.2999999999999999
 50
0
 51
90
  0
ARC
  8
_0-0_
  6
CONTINUOUS
 62
    7
 10
44.85691416961356
 20
9.0361839267465029
 40
0.2999999999999999
 50
90
 51
180
  0
ARC
  8
_0-0_
  6
CONTINUOUS
 62
    7
 10
44.256914169613651
 20
8.4361839267463665
 40
0.2999999999999999
 50
270
 51
0
  0
ARC
  8
_0-0_
  6
CONTINUOUS
 62
    7
 10
42.056914169613378
 20
8.4361839267463665
 40
0.2999999999999999
 50
180
 51
270
  0
ARC
  8
_0-0_
  6
CONTINUOUS
 62
    7
 10
41.456914169613469
 20
9.0361839267465029
 40
0.2999999999999999
 50
0
 51
90
  0
ARC
  8
_0-0_
  6
CONTINUOUS
 62
    7
 10
40.656914169613287
 20
9.636183926746412
 40
0.2999999999999999
 50
180
 51
270
  0
ARC
  8
_0-0_
  6
CONTINUOUS
 62
    7
 10
45.756914169613651
 20
12.836183926746457
 40
0.2999999999999999
 50
270
 51
0
  0
ARC
  8
_0-0_
  6
CONTINUOUS
 62
    7
 10
44.85691416961356
 20
12.836183926746457
 40
0.2999999999999999
 50
180
 51
270
  0
ARC
  8
_0-0_
  6
CONTINUOUS
 62
    7
 10
44.256914169613651
 20
13.436183926746367
 40
0.2999999999999999
 50
0
 51
90
  0
ARC
  8
_0-0_
  6
CONTINUOUS
 62
    7
 10
42.056914169613378
 20
13.436183926746367
 40
0.2999999999999999
 50
89.999999999999986
 51
180
  0
ARC
  8
_0-0_
  6
CONTINUOUS
 62
    7
 10
41.456914169613469
 20
12.836183926746457
 40
0.2999999999999999
 50
270
 51
0
  0
ARC
  8
_0-0_
  6
CONTINUOUS
 62
    7
 10
40.656914169613287
 20
12.236183926746321
 40
0.2999999999999999
 50
89.999999999999986
 51
180
  0
ARC
  8
_0-0_
  6
CONTINUOUS
 62
    7
 10
45.756914169613651
 20
16.536183926746503
 40
0.2999999999999999
 50
0
 51
90
  0
ARC
  8
_0-0_
  6
CONTINUOUS
 62
    7
 10
44.85691416961356
 20
16.536183926746503
 40
0.2999999999999999
 50
90
 51
180
  0
ARC
  8
_0-0_
  6
CONTINUOUS
 62
    7
 10
44.256914169613651
 20
15.936183926746367
 40
0.2999999999999999
 50
270
 51
0
  0
ARC
  8
_0-0_
  6
CONTINUOUS
 62
    7
 10
42.056914169613378
 20
15.936183926746367
 40
0.2999999999999999
 50
180
 51
270
  0
ARC
  8
_0-0_
  6
CONTINUOUS
 62
    7
 10
41.456914169613469
 20
16.536183926746503
 40
0.2999999999999999
 50
0
 51
90
  0
ARC
  8
_0-0_
  6
CONTINUOUS
 62
    7
 10
40.656914169613287
 20
17.136183926746412
 40
0.2999999999999999
 50
180
 51
270
  0
ARC
  8
_0-0_
  6
CONTINUOUS
 62
    7
 10
45.756914169613651
 20
20.336183926746457
 40
0.2999999999999999
 50
270
 51
0
  0
ARC
  8
_0-0_
  6
CONTINUOUS
 62
    7
 10
44.85691416961356
 20
20.336183926746457
 40
0.2999999999999999
 50
180
 51
270
  0
ARC
  8
_0-0_
  6
CONTINUOUS
 62
    7
 10
44.256914169613651
 20
20.936183926746367
 40
0.2999999999999999
 50
0
 51
90
  0
ARC
  8
_0-0_
  6
CONTINUOUS
 62
    7
 10
42.056914169613378
 20
20.936183926746367
 40
0.2999999999999999
 50
89.999999999999986
 51
180
  0
ARC
  8
_0-0_
  6
CONTINUOUS
 62
    7
 10
41.456914169613469
 20
20.336183926746457
 40
0.2999999999999999
 50
270
 51
0
  0
ARC
  8
_0-0_
  6
CONTINUOUS
 62
    7
 10
40.656914169613287
 20
19.736183926746321
 40
0.2999999999999999
 50
89.999999999999986
 51
180
  0
ARC
  8
_0-0_
  6
CONTINUOUS
 62
    7
 10
45.756914169613651
 20
24.036183926746503
 40
0.2999999999999999
 50
0
 51
90
  0
ARC
  8
_0-0_
  6
CONTINUOUS
 62
    7
 10
44.85691416961356
 20
24.036183926746503
 40
0.2999999999999999
 50
90
 51
180
  0
ARC
  8
_0-0_
  6
CONTINUOUS
 62
    7
 10
44.256914169613651
 20
23.436183926746367
 40
0.2999999999999999
 50
270
 51
0
  0
ARC
  8
_0-0_
  6
CONTINUOUS
 62
    7
 10
42.056914169613378
 20
23.436183926746367
 40
0.2999999999999999
 50
180
 51
270
  0
ARC
  8
_0-0_
  6
CONTINUOUS
 62
    7
 10
41.456914169613469
 20
24.036183926746503
 40
0.2999999999999999
 50
0
 51
90
  0
ARC
  8
_0-0_
  6
CONTINUOUS
 62
    7
 10
40.656914169613287
 20
24.636183926746412
 40
0.2999999999999999
 50
180
 51
270
  0
ARC
  8
_0-0_
  6
CONTINUOUS
 62
    7
 10
45.756914169613651
 20
27.836183926746457
 40
0.2999999999999999
 50
270
 51
0
  0
ARC
  8
_0-0_
  6
CONTINUOUS
 62
    7
 10
44.85691416961356
 20
27.836183926746457
 40
0.2999999999999999
 50
180
 51
270
  0
ARC
  8
_0-0_
  6
CONTINUOUS
 62
    7
 10
44.256914169613651
 20
28.436183926746367
 40
0.2999999999999999
 50
0
 51
90
  0
ARC
  8
_0-0_
  6
CONTINUOUS
 62
    7
 10
42.056914169613378
 20
28.436183926746367
 40
0.2999999999999999
 50
89.999999999999986
 51
180
  0
ARC
  8
_0-0_
  6
CONTINUOUS
 62
    7
 10
41.456914169613469
 20
27.836183926746457
 40
0.2999999999999999
 50
270
 51
0
  0
ARC
  8
_0-0_
  6
CONTINUOUS
 62
    7
 10
40.656914169613287
 20
27.236183926746321
 40
0.2999999999999999
 50
89.999999999999986
 51
180
  0
ARC
  8
_0-0_
  6
CONTINUOUS
 62
    7
 10
45.056914169613378
 20
29.936183926746367
 40
1
 50
0
 51
89.999999999999986
  0
ARC
  8
_0-0_
  6
CONTINUOUS
 62
    7
 10
38.181178238325288
 20
31.236183926746321
 40
0.2999999999999999
 50
225
 51
270
  0
ARC
  8
_0-0_
  6
CONTINUOUS
 62
    7
 10
36.432650100901469
 20
32.136183926746412
 40
0.2999999999999999
 50
45
 51
90
  0
ARC
  8
_0-0_
  6
CONTINUOUS
 62
    7
 10
35.727734562863247
 20
32.136183926746412
 40
0.2999999999999999
 50
90
 51
116.56505117707805
  0
ARC
  8
_0-0_
  6
CONTINUOUS
 62
    7
 10
32.556914169613378
 20
30.550773730121477
 40
0.2999999999999999
 50
116.56505117707802
 51
180
  0
ARC
  8
_0-0_
  6
CONTINUOUS
 62
    7
 10
32.556914169613378
 20
27.536183926746503
 40
0.2999999999999999
 50
180
 51
270
  0
ARC
  8
_0-0_
  6
CONTINUOUS
 62
    7
 10
33.956914169613469
 20
27.536183926746503
 40
0.2999999999999999
 50
270
 51
0
  0
ARC
  8
_0-0_
  6
CONTINUOUS
 62
    7
 10
34.556914169613378
 20
29.536183926746503
 40
0.2999999999999999
 50
90
 51
180
  0
ARC
  8
_0-0_
  6
CONTINUOUS
 62
    7
 10
35.932650100901469
 20
29.536183926746503
 40
0.2999999999999999
 50
45
 51
90
  0
ARC
  8
_0-0_
  6
CONTINUOUS
 62
    7
 10
37.256914169613651
 20
28.211919858034548
 40
0.2999999999999999
 50
0.0000000000000254
 51
45.000000000000043
  0
ARC
  8
_0-0_
  6
CONTINUOUS
 62
    7
 10
37.256914169613651
 20
24.736183926746321
 40
0.2999999999999999
 50
270
 51
0
  0
ARC
  8
_0-0_
  6
CONTINUOUS
 62
    7
 10
36.35691416961356
 20
24.136183926746412
 40
0.2999999999999999
 50
90
 51
180
  0
ARC
  8
_0-0_
  6
CONTINUOUS
 62
    7
 10
36.35691416961356
 20
22.10938900750341
 40
0.2999999999999999
 50
180
 51
240.00000000000003
  0
ARC
  8
_0-0_
  6
CONTINUOUS
 62
    7
 10
38.256914169613651
 20
20.31960317301548
 40
0.2999999999999999
 50
0.0000000000000254
 51
60.000000000000036
  0
LINE
  8
_0-0_
  6
CONTINUOUS
 62
    7
 10
225.55766234144744
 20
32.436182680533534
 11
225.55766234144744
 21
5.9361826805337614
  0
LINE
  8
_0-0_
  6
CONTINUOUS
 62
    7
 10
225.55766234144744
 20
5.9361826805337614
 11
275.55766234144744
 21
5.9361826805337614
  0
LINE
  8
_0-0_
  6
CONTINUOUS
 62
    7
 10
275.55766234144744
 20
5.9361826805337614
 11
275.55766234144744
 21
32.436182680533534
  0
LINE
  8
_0-0_
  6
CONTINUOUS
 62
    7
 10
275.55766234144744
 20
32.436182680533534
 11
225.55766234144744
 21
32.436182680533534
  0
LINE
  8
_0-0_
  6
CONTINUOUS
 62
    7
 10
225.55766234144744
 20
30.936182680533534
 11
275.55766234144744
 21
30.936182680533534
  0
LINE
  8
_0-0_
  6
CONTINUOUS
 62
    7
 10
148.2715092420674
 20
5.9361826805337614
 11
148.2715092420674
 21
32.436182680533534
  0
LINE
  8
_0-0_
  6
CONTINUOUS
 62
    7
 10
148.2715092420674
 20
32.436182680533534
 11
188.2715092420674
 21
32.436182680533534
  0
LINE
  8
_0-0_
  6
CONTINUOUS
 62
    7
 10
188.2715092420674
 20
32.436182680533534
 11
188.2715092420674
 21
5.9361826805337614
  0
LINE
  8
_0-0_
  6
CONTINUOUS
 62
    7
 10
188.2715092420674
 20
5.9361826805337614
 11
148.2715092420674
 21
5.9361826805337614
  0
LINE
  8
_0-0_
  6
CONTINUOUS
 62
    7
 10
148.2715092420674
 20
30.936182680533534
 11
188.2715092420674
 21
30.936182680533534
  0
LINE
  8
_0-0_
  6
CONTINUOUS
 62
    7
 10
110.97738882798171
 20
30.936182680533534
 11
80.977388827981713
 21
30.936182680533534
  0
LINE
  8
_0-0_
  6
CONTINUOUS
 62
    7
 10
80.977388827981713
 20
32.436182680533534
 11
110.97738882798171
 21
32.436182680533534
  0
LINE
  8
_0-0_
  6
CONTINUOUS
 62
    7
 10
110.97738882798171
 20
32.436182680533534
 11
110.97738882798171
 21
5.9361826805337614
  0
LINE
  8
_0-0_
  6
CONTINUOUS
 62
    7
 10
110.97738882798171
 20
5.9361826805337614
 11
80.977388827981713
 21
5.9361826805337614
  0
LINE
  8
_0-0_
  6
CONTINUOUS
 62
    7
 10
80.977388827981713
 20
5.9361826805337614
 11
80.977388827981713
 21
32.436182680533534
  0
LINE
  8
_0-1_
  6
CONTINUOUS
 62
  152
 10
29.856914070436801
 20
33.736182680533716
 11
30.256914070436892
 21
33.736182680533716
  0
LINE
  8
_0-1_
  6
CONTINUOUS
 62
  152
 10
30.256914070436892
 20
35.736182580533864
 11
29.856914070436801
 21
35.736182580533864
  0
LINE
  8
_0-1_
  6
CENTER1
 62
  152
 10
40.330912095305962
 20
25.936183926746367
 11
46.056914169613378
 21
25.936183926746367
  0
LINE
  8
_0-1_
  6
CENTER1
 62
  152
 10
46.056914169613378
 20
18.436183926746367
 11
40.35691416961356
 21
18.436183926746367
  0
LINE
  8
_0-1_
  6
CENTER1
 62
  152
 10
40.35691416961356
 20
10.936183926746367
 11
46.056914169613378
 21
10.936183926746367
  0
TEXT
  8
_0-1_
 62
    7
 10
77.945592605046613
 20
36.570106454888787
 40
5
 41
1
 50
0
  1
ST2S-L30
  0
TEXT
  8
_0-1_
 62
    7
 10
145.2397130191323
 20
36.570106454888787
 40
5
 41
1
 50
0
  1
ST2S-L40
  0
TEXT
  8
_0-1_
 62
    7
 10
222.52586611851234
 20
36.570106454888787
 40
5
 41
1
 50
0
  1
ST2S-L50
  0
LINE
  8
_0-1_
  6
CENTER2
 62
  152
 10
23.556914169613492
 20
37.724573158330656
 11
23.556914169613492
 21
29.391264487973103
  0
LINE
  8
_0-1_
  6
CENTER2
 62
  152
 10
17.10957389381133
 20
33.436182580534023
 11
29.164554397532356
 21
33.436182580534023
  0
LINE
  8
_0-1_
  6
PHANTOM1
 62
  152
 10
11.056914169613492
 20
45.936182580534023
 11
11.056914169613492
 21
20.93618258053408
  0
LINE
  8
_0-1_
  6
PHANTOM1
 62
  152
 10
11.056914169613492
 20
20.93618258053408
 11
36.056914169613492
 21
20.93618258053408
  0
LINE
  8
_0-1_
  6
PHANTOM1
 62
  152
 10
36.056914169613492
 20
20.93618258053408
 11
36.056914169613492
 21
45.936182580534023
  0
LINE
  8
_0-1_
  6
PHANTOM1
 62
  152
 10
11.056914169613492
 20
45.936182580534023
 11
36.056914169613492
 21
45.936182580534023
  0
LINE
  8
_0-0_
  6
CONTINUOUS
 62
    7
 10
80.977388827981713
 20
12.53618268053367
 11
110.97738882798171
 21
12.53618268053367
  0
LINE
  8
_0-0_
  6
CONTINUOUS
 62
    7
 10
110.97738882798171
 20
9.3361826805338524
 11
80.977388827981713
 21
9.3361826805338524
  0
LINE
  8
_0-0_
  6
CONTINUOUS
 62
    7
 10
80.977388827981713
 20
16.836182680533852
 11
110.97738882798171
 21
16.836182680533852
  0
LINE
  8
_0-0_
  6
CONTINUOUS
 62
    7
 10
110.97738882798171
 20
20.03618268053367
 11
80.977388827981713
 21
20.03618268053367
  0
LINE
  8
_0-0_
  6
CONTINUOUS
 62
    7
 10
80.977388827981713
 20
24.33618268053408
 11
110.97738882798171
 21
24.33618268053408
  0
LINE
  8
_0-0_
  6
CONTINUOUS
 62
    7
 10
110.97738882798171
 20
27.536182680533898
 11
80.977388827981713
 21
27.536182680533898
  0
LINE
  8
_0-0_
  6
CONTINUOUS
 62
    7
 10
148.2715092420674
 20
27.536182680533898
 11
188.2715092420674
 21
27.536182680533898
  0
LINE
  8
_0-0_
  6
CONTINUOUS
 62
    7
 10
188.2715092420674
 20
24.33618268053408
 11
148.2715092420674
 21
24.33618268053408
  0
LINE
  8
_0-0_
  6
CONTINUOUS
 62
    7
 10
148.2715092420674
 20
20.03618268053367
 11
188.2715092420674
 21
20.03618268053367
  0
LINE
  8
_0-0_
  6
CONTINUOUS
 62
    7
 10
188.2715092420674
 20
16.836182680533852
 11
148.2715092420674
 21
16.836182680533852
  0
LINE
  8
_0-0_
  6
CONTINUOUS
 62
    7
 10
148.2715092420674
 20
12.53618268053367
 11
188.2715092420674
 21
12.53618268053367
  0
LINE
  8
_0-0_
  6
CONTINUOUS
 62
    7
 10
188.2715092420674
 20
9.3361826805338524
 11
148.2715092420674
 21
9.3361826805338524
  0
LINE
  8
_0-0_
  6
CONTINUOUS
 62
    7
 10
275.55766234144744
 20
9.3361826805338524
 11
225.55766234144744
 21
9.3361826805338524
  0
LINE
  8
_0-0_
  6
CONTINUOUS
 62
    7
 10
225.55766234144744
 20
12.53618268053367
 11
275.55766234144744
 21
12.53618268053367
  0
LINE
  8
_0-0_
  6
CONTINUOUS
 62
    7
 10
275.55766234144744
 20
16.836182680533852
 11
225.55766234144744
 21
16.836182680533852
  0
LINE
  8
_0-0_
  6
CONTINUOUS
 62
    7
 10
225.55766234144744
 20
20.03618268053367
 11
275.55766234144744
 21
20.03618268053367
  0
LINE
  8
_0-0_
  6
CONTINUOUS
 62
    7
 10
275.55766234144744
 20
24.33618268053408
 11
225.55766234144744
 21
24.33618268053408
  0
LINE
  8
_0-0_
  6
CONTINUOUS
 62
    7
 10
225.55766234144744
 20
27.536182680533898
 11
275.55766234144744
 21
27.536182680533898
  0
ENDSEC
  0
EOF
