  0
SECTION
  2
HEADER
  9
$ACADVER
  1
AC1009
  9
$INSBASE
 10
0
 20
0
 30
0
  9
$EXTMIN
 10
0
 20
0
  9
$EXTMAX
 10
1189
 20
841
  9
$LIMMIN
 10
0
 20
0
  9
$LIMMAX
 10
1189
 20
841
  9
$LTSCALE
 40
1
  0
ENDSEC
  0
SECTION
  2
TABLES
  0
TABLE
  2
LTYPE
 70
     9
  0
LTYPE
  2
CONTINUOUS
 70
    64
  3
実線
 72
    65
 73
     0
 40
0.0
  0
LTYPE
  2
DASHED1
 70
    64
  3
--  --  --  --  --  --  --  --  
 72
    65
 73
     2
 40
2.5
 49
1.25
 49
-1.25
  0
LTYPE
  2
DASHED2
 70
    64
  3
----    ----    ----    ----    
 72
    65
 73
     2
 40
5.0
 49
2.5
 49
-2.5
  0
LTYPE
  2
DASHED3
 70
    64
  3
------  ------  ------  ------  
 72
    65
 73
     2
 40
5.0
 49
3.75
 49
-1.25
  0
LTYPE
  2
CENTER1
 70
    64
  3
----- - ----- - ----- - ----- - 
 72
    65
 73
     4
 40
10.0
 49
6.25
 49
-1.25
 49
1.25
 49
-1.25
  0
LTYPE
  2
CENTER2
 70
    64
  3
----------  --  ----------  --  
 72
    65
 73
     4
 40
20.0
 49
12.5
 49
-2.5
 49
2.5
 49
-2.5
  0
LTYPE
  2
PHANTOM1
 70
    64
  3
--- - - --- - - --- - - --- - - 
 72
    65
 73
     6
 40
10.0
 49
3.25
 49
-1.25
 49
1.25
 49
-1.25
 49
1.25
 49
-1.25
  0
LTYPE
  2
PHANTOM2
 70
    64
  3
--------  -  -  --------  -  -  
 72
    65
 73
     6
 40
20.0
 49
10.0
 49
-2.5
 49
1.25
 49
-2.5
 49
1.25
 49
-2.5
  0
LTYPE
  2
DOT
 70
    64
  3
-   -   -   -   -   -   -   -   
 72
    65
 73
     2
 40
2.5
 49
0.625
 49
-1.875
  0
LTYPE
  2
DUMMY
 70
    64
  3
ダミー
 72
    65
 73
     0
 40
0.0
  0
LTYPE
  2
RAND1
 70
    64
  3
ランダム線1
 72
    65
 73
     4
 40
10.0
 49
1.0
 49
-2.0
 49
3.0
 49
-4.0
  0
LTYPE
  2
RAND2
 70
    64
  3
ランダム線2
 72
    65
 73
     4
 40
14.0
 49
2.0
 49
-3.0
 49
4.0
 49
-5.0
  0
LTYPE
  2
RAND3
 70
    64
  3
ランダム線3
 72
    65
 73
     4
 40
18.0
 49
3.0
 49
-4.0
 49
5.0
 49
-6.0
  0
LTYPE
  2
RAND4
 70
    64
  3
ランダム線4
 72
    65
 73
     4
 40
22.0
 49
4.0
 49
-5.0
 49
6.0
 49
-7.0
  0
LTYPE
  2
RAND5
 70
    64
  3
ランダム線5
 72
    65
 73
     4
 40
26.0
 49
5.0
 49
-6.0
 49
7.0
 49
-8.0
  0
LTYPE
  2
LONG1
 70
    64
  3
----------  --  ----------  --  
 72
    65
 73
     4
 40
40.0
 49
32.5
 49
-2.5
 49
2.5
 49
-2.5
  0
LTYPE
  2
LONG2
 70
    64
  3
--------  -  -  --------  -  -  
 72
    65
 73
     6
 40
40.0
 49
30.0
 49
-2.5
 49
1.25
 49
-2.5
 49
1.25
 49
-2.5
  0
LTYPE
  2
LONG3
 70
    64
  3
+++++++++++++++..+++++++++++++++
 72
    65
 73
     2
 40
40.0
 49
37.5
 49
-2.5
  0
LTYPE
  2
LONG4
 70
    64
  3
+++++++++++++++..+++++++++++++++
 72
    65
 73
     2
 40
80.0
 49
75.0
 49
-5.0
  0
LTYPE
  2
LONG5
 70
    64
  3
----------  --  ----------  --  
 72
    65
 73
     4
 40
60.0
 49
37.5
 49
-7.5
 49
7.5
 49
-7.5
  0
LTYPE
  2
dashed
 70
   64
  3
-------   -------------   ------
 72
   65
 73
    2
 40
7.5
 49
6
 49
-1.5
  0
LTYPE
  2
dashed_spaced
 70
   64
  3
----        --------        ----
 72
   65
 73
    2
 40
12
 49
6
 49
-6
  0
LTYPE
  2
long_dashed_dotted
 70
   64
  3
------------- --- --------------
 72
   65
 73
    4
 40
15.25
 49
12
 49
-1.5
 49
0.25
 49
-1.5
  0
LTYPE
  2
long_dashed_double-dotted
 70
   64
  3
----------- --- --- ------------
 72
   65
 73
    6
 40
17
 49
12
 49
-1.5
 49
0.25
 49
-1.5
 49
0.25
 49
-1.5
  0
LTYPE
  2
long_dashed_triplicate-dotted
 70
   64
  3
--------- --- --- --- ----------
 72
   65
 73
    8
 40
18.75
 49
12
 49
-1.5
 49
0.25
 49
-1.5
 49
0.25
 49
-1.5
 49
0.25
 49
-1.5
  0
LTYPE
  2
dotted
 70
   64
  3
   -       -       -       -    
 72
   65
 73
    2
 40
1.75
 49
0.25
 49
-1.5
  0
LTYPE
  2
chain
 70
   64
  3
-------------- -- --------------
 72
   65
 73
    4
 40
18.5
 49
12
 49
-1.5
 49
3.5
 49
-1.5
  0
LTYPE
  2
chain_double_dash
 70
   64
  3
------------ -- -- -------------
 72
   65
 73
    6
 40
23.5
 49
12
 49
-1.5
 49
3.5
 49
-1.5
 49
3.5
 49
-1.5
  0
LTYPE
  2
dashed_dotted
 70
   64
  3
-----------     -     ----------
 72
   65
 73
    4
 40
9.25
 49
6
 49
-1.5
 49
0.25
 49
-1.5
  0
LTYPE
  2
double-dashed_dotted
 70
   64
  3
------   -----------   -   -----
 72
   65
 73
    6
 40
16.75
 49
6
 49
-1.5
 49
6
 49
-1.5
 49
0.25
 49
-1.5
  0
LTYPE
  2
dashed_double-dotted
 70
   64
  3
---------    -    -    ---------
 72
   65
 73
    6
 40
11
 49
6
 49
-1.5
 49
0.25
 49
-1.5
 49
0.25
 49
-1.5
  0
LTYPE
  2
double-dashed_double-dotted
 70
   64
  3
-----   ---------   -   -   ----
 72
   65
 73
    8
 40
18.5
 49
6
 49
-1.5
 49
6
 49
-1.5
 49
0.25
 49
-1.5
 49
0.25
 49
-1.5
  0
LTYPE
  2
dashed_triplicate-dotted
 70
   64
  3
-------    -    -    -    ------
 72
   65
 73
    8
 40
12.75
 49
6
 49
-1.5
 49
0.25
 49
-1.5
 49
0.25
 49
-1.5
 49
0.25
 49
-1.5
  0
LTYPE
  2
double-dashed_triplicate-dotted
 70
   64
  3
-----  ---------  -  -  -  -----
 72
   65
 73
   10
 40
20.25
 49
6
 49
-1.5
 49
6
 49
-1.5
 49
0.25
 49
-1.5
 49
0.25
 49
-1.5
 49
0.25
 49
-1.5
  0
LTYPE
  2
undefined
 70
   64
  3
--------------------------------
 72
   65
 73
    0
 40
0
  0
LTYPE
  2
破線
 70
   64
  3
----        --------        ----
 72
   65
 73
    2
 40
2
 49
1
 49
-1
  0
LTYPE
  2
一点鎖線
 70
   64
  3
----------    ----    ----------
 72
   65
 73
    4
 40
18
 49
12
 49
-2
 49
2
 49
-2
  0
LTYPE
  2
二点鎖線
 70
   64
  3
---------   ---   ---   --------
 72
   65
 73
    6
 40
22
 49
12
 49
-2
 49
2
 49
-2
 49
2
 49
-2
  0
ENDTAB
  0
TABLE
  2
STYLE
  5
3
100
AcDbSymbolTable
 70
     1
  0
STYLE
  5
10
100
AcDbSymbolTableRecord
100
AcDbTextStyleTableRecord
  2
STANDARD
 70
     0
 40
0.0
 41
1.0
 50
0.0
 71
     0
 42
0.2
  3
txt
  4
bigfont.shx
  0
STYLE
  5
26
100
AcDbSymbolTableRecord
100
AcDbTextStyleTableRecord
  2
TATEGAKI
 70
    68
 40
0.0
 41
1.0
 50
0.0
 71
     0
 42
1.0
  3
txt
  4
bigfont.shx
  0
ENDTAB
  0
TABLE
  2
LAYER
 70
    3
  0
LAYER
  2
_0-4_THICK_SOLID_LAYER
 70
   64
 62
    7
  6
CONTINUOUS
  0
LAYER
  2
_0-f_
 70
   64
 62
    7
  6
CONTINUOUS
  0
LAYER
  2
ADD_LINE
 70
   64
 62
    7
  6
CONTINUOUS
  0
ENDTAB
  0
ENDSEC
  0
SECTION
  2
BLOCKS
  0
ENDSEC
  0
SECTION
  2
ENTITIES
  0
TEXT
  8
_0-f_
 62
    7
 10
2.8563139376735762
 20
4.1900464194903861
 40
4.2999999999999998
 41
0.744186046511628
 50
0
  1
SS25
  0
LINE
  8
_0-4_THICK_SOLID_LAYER
  6
CONTINUOUS
 62
    7
 10
48.3838142888942
 20
41.655336353278074
 11
48.3838142888942
 21
47.655336353249481
  0
LINE
  8
_0-4_THICK_SOLID_LAYER
  6
CONTINUOUS
 62
    7
 10
48.3838142888942
 20
47.655336353249481
 11
49.3838142888942
 21
47.655336353249481
  0
LINE
  8
_0-4_THICK_SOLID_LAYER
  6
CONTINUOUS
 62
    7
 10
48.583814288894246
 20
41.655336353278074
 11
48.583814288894246
 21
40.655336353278074
  0
LINE
  8
_0-4_THICK_SOLID_LAYER
  6
CONTINUOUS
 62
    7
 10
48.3838142888942
 20
41.655336353278074
 11
48.583814288894246
 21
41.655336353278074
  0
LINE
  8
_0-4_THICK_SOLID_LAYER
  6
CONTINUOUS
 62
    7
 10
49.3838142888942
 20
47.655336353249481
 11
54.993916097999545
 21
47.655336353249481
  0
LINE
  8
_0-4_THICK_SOLID_LAYER
  6
CONTINUOUS
 62
    7
 10
66.773714107065643
 20
47.655336353249481
 11
72.3838142888942
 21
47.655336353249481
  0
LINE
  8
_0-4_THICK_SOLID_LAYER
  6
CONTINUOUS
 62
    7
 10
72.3838142888942
 20
39.355345639183497
 11
47.3838142888942
 21
39.355345639183497
  0
LINE
  8
_0-4_THICK_SOLID_LAYER
  6
CONTINUOUS
 62
    7
 10
49.3838142888942
 20
40.65533635327796
 11
47.3838142888942
 21
40.65533635327796
  0
LINE
  8
_0-4_THICK_SOLID_LAYER
  6
CONTINUOUS
 62
    7
 10
47.3838142888942
 20
39.355345639183497
 11
47.184303672225496
 21
39.355345236244489
  0
LINE
  8
_0-4_THICK_SOLID_LAYER
  6
CONTINUOUS
 62
    7
 10
47.184303672225496
 20
39.355345236244489
 11
46.992815112195103
 21
39.355344043628918
  0
LINE
  8
_0-4_THICK_SOLID_LAYER
  6
CONTINUOUS
 62
    7
 10
46.992815112195103
 20
39.355344043628918
 11
46.817048109210418
 21
39.355342109290461
  0
LINE
  8
_0-4_THICK_SOLID_LAYER
  6
CONTINUOUS
 62
    7
 10
46.817048109210418
 20
39.355342109290461
 11
46.66407002077176
 21
39.35533951100615
  0
LINE
  8
_0-4_THICK_SOLID_LAYER
  6
CONTINUOUS
 62
    7
 10
46.66407002077176
 20
39.35533951100615
 11
46.540031892424395
 21
39.355336353249584
  0
LINE
  8
_0-4_THICK_SOLID_LAYER
  6
CONTINUOUS
 62
    7
 10
46.540031892425532
 20
39.355336353249584
 11
46.517788885109894
 21
38.655336353249709
  0
LINE
  8
_0-4_THICK_SOLID_LAYER
  6
CONTINUOUS
 62
    7
 10
46.517788885109894
 20
38.655336353249709
 11
46.3838142888942
 21
38.655336353249709
  0
LINE
  8
_0-4_THICK_SOLID_LAYER
  6
CONTINUOUS
 62
    7
 10
46.3838142888942
 20
38.655336353249709
 11
46.3838142888942
 21
40.65533635327796
  0
LINE
  8
_0-4_THICK_SOLID_LAYER
  6
CONTINUOUS
 62
    7
 10
46.3838142888942
 20
40.65533635327796
 11
47.3838142888942
 21
40.65533635327796
  0
LINE
  8
_0-4_THICK_SOLID_LAYER
  6
CONTINUOUS
 62
    7
 10
73.227596685362869
 20
39.355336353249584
 11
73.103558557015504
 21
39.35533951100615
  0
LINE
  8
_0-4_THICK_SOLID_LAYER
  6
CONTINUOUS
 62
    7
 10
73.103558557015504
 20
39.35533951100615
 11
72.950580468576845
 21
39.355342109290461
  0
LINE
  8
_0-4_THICK_SOLID_LAYER
  6
CONTINUOUS
 62
    7
 10
72.950580468576845
 20
39.355342109290461
 11
72.774813465592388
 21
39.355344043628918
  0
LINE
  8
_0-4_THICK_SOLID_LAYER
  6
CONTINUOUS
 62
    7
 10
72.774813465592388
 20
39.355344043628918
 11
72.583324905562677
 21
39.355345236244489
  0
LINE
  8
_0-4_THICK_SOLID_LAYER
  6
CONTINUOUS
 62
    7
 10
72.583324905562677
 20
39.355345236244489
 11
72.3838142888942
 21
39.355345639183497
  0
LINE
  8
_0-4_THICK_SOLID_LAYER
  6
CONTINUOUS
 62
    7
 10
46.540031892425532
 20
39.355336353249584
 11
73.227596685362869
 21
39.355336353249584
  0
LINE
  8
_0-4_THICK_SOLID_LAYER
  6
CONTINUOUS
 62
    7
 10
66.467527875011228
 20
47.655336335849881
 11
66.773714107065643
 21
47.655336353249481
  0
LINE
  8
_0-4_THICK_SOLID_LAYER
  6
CONTINUOUS
 62
    7
 10
54.993916097999545
 20
47.655336353249481
 11
55.300101196114156
 21
47.655336353249481
  0
LINE
  8
_0-4_THICK_SOLID_LAYER
  6
CONTINUOUS
 62
    7
 10
73.3838142888942
 20
47.655336353249481
 11
73.3838142888942
 21
38.655336353249709
  0
LINE
  8
_0-4_THICK_SOLID_LAYER
  6
CONTINUOUS
 62
    7
 10
73.3838142888942
 20
38.655336353249709
 11
73.249839692678506
 21
38.655336353249652
  0
LINE
  8
_0-4_THICK_SOLID_LAYER
  6
CONTINUOUS
 62
    7
 10
73.249839692678506
 20
38.655336353249652
 11
73.227596685362869
 21
39.355336353249584
  0
LINE
  8
_0-4_THICK_SOLID_LAYER
  6
CONTINUOUS
 62
    7
 10
72.3838142888942
 20
47.655336353249481
 11
73.3838142888942
 21
47.655336353249481
  0
LINE
  8
_0-4_THICK_SOLID_LAYER
  6
CONTINUOUS
 62
    7
 10
65.27620031822903
 20
47.655336353258917
 11
56.491429886836158
 21
47.655336353258917
  0
LINE
  8
_0-4_THICK_SOLID_LAYER
  6
CONTINUOUS
 62
    7
 10
65.27620031822903
 20
47.655336353258917
 11
65.459912044774683
 21
47.655336335849881
  0
LINE
  8
_0-4_THICK_SOLID_LAYER
  6
CONTINUOUS
 62
    7
 10
56.307718150996379
 20
47.655336353249481
 11
56.491429886836158
 21
47.655336353258917
  0
LINE
  8
_0-4_THICK_SOLID_LAYER
  6
CONTINUOUS
 62
    7
 10
55.300101196114156
 20
47.655336353249481
 11
56.307718150996379
 21
47.655336353249481
  0
LINE
  8
_0-4_THICK_SOLID_LAYER
  6
CONTINUOUS
 62
    7
 10
65.459912044774683
 20
47.655336335849881
 11
66.467527875011228
 21
47.655336335849881
  0
LINE
  8
_0-4_THICK_SOLID_LAYER
  6
CONTINUOUS
 62
    7
 10
46.517788885109894
 20
38.655336353249709
 11
73.249839692678506
 21
38.655336353249652
  0
ARC
  8
_0-4_THICK_SOLID_LAYER
  6
CONTINUOUS
 62
    7
 10
65.483814288894337
 20
49.355336353249641
 40
0.3000000000000023
 50
0
 51
90
  0
LINE
  8
_0-4_THICK_SOLID_LAYER
  6
CONTINUOUS
 62
    7
 10
57.368091955108639
 20
49.355336353249584
 11
57.383402585094245
 21
49.647480576780708
  0
LINE
  8
_0-4_THICK_SOLID_LAYER
  6
CONTINUOUS
 62
    7
 10
64.384225992693018
 20
49.647480576780026
 11
64.399536622678625
 21
49.355336353249641
  0
LINE
  8
_0-4_THICK_SOLID_LAYER
  6
CONTINUOUS
 62
    7
 10
57.384225428467289
 20
49.663181363653564
 11
57.383402585094245
 21
49.647480576780708
  0
LINE
  8
_0-4_THICK_SOLID_LAYER
  6
CONTINUOUS
 62
    7
 10
64.384225992693018
 20
49.647480576780026
 11
64.383403149319975
 21
49.663181363652996
  0
LINE
  8
_0-4_THICK_SOLID_LAYER
  6
CONTINUOUS
 62
    7
 10
65.483814288894337
 20
49.655336353249652
 11
64.383814288893745
 21
49.655336353249652
  0
LINE
  8
_0-4_THICK_SOLID_LAYER
  6
CONTINUOUS
 62
    7
 10
65.783814288894291
 20
47.655336335849881
 11
65.783814288894291
 21
49.355336353249641
  0
LINE
  8
_0-4_THICK_SOLID_LAYER
  6
CONTINUOUS
 62
    7
 10
55.983814288894109
 20
47.655336353249481
 11
55.983814288894109
 21
49.355336353249584
  0
ARC
  8
_0-4_THICK_SOLID_LAYER
  6
CONTINUOUS
 62
    7
 10
56.283814288894064
 20
49.355336353249584
 40
0.2999999999999404
 50
90
 51
180
  0
LINE
  8
_0-4_THICK_SOLID_LAYER
  6
CONTINUOUS
 62
    7
 10
57.383814288893745
 20
49.655336353249652
 11
56.283814288894064
 21
49.655336353249652
  0
ARC
  8
_0-4_THICK_SOLID_LAYER
  6
CONTINUOUS
 62
    7
 10
59.069300035381502
 20
53.155336353249652
 40
1.500000000000004
 50
158.39387340856919
 51
176.99999999999926
  0
ARC
  8
_0-4_THICK_SOLID_LAYER
  6
CONTINUOUS
 62
    7
 10
62.698328542405761
 20
53.155336353249652
 40
1.5000000000000011
 50
3.0000000000005729
 51
21.606126591430829
  0
LINE
  8
_0-4_THICK_SOLID_LAYER
  6
CONTINUOUS
 62
    7
 10
57.571355733249447
 20
53.233840287614044
 11
57.384225428467289
 21
49.663181363653564
  0
LINE
  8
_0-4_THICK_SOLID_LAYER
  6
CONTINUOUS
 62
    7
 10
64.383403149319975
 20
49.663181363652996
 11
64.196272844537816
 21
53.2338402876141
  0
LINE
  8
_0-4_THICK_SOLID_LAYER
  6
CONTINUOUS
 62
    7
 10
59.069300035381502
 20
54.655336353249652
 11
62.698328542405761
 21
54.655336353249652
  0
LINE
  8
_0-4_THICK_SOLID_LAYER
  6
CONTINUOUS
 62
    7
 10
64.092934218373557
 20
53.707672309492636
 11
64.043511414730119
 21
53.81888179235915
  0
LINE
  8
_0-4_THICK_SOLID_LAYER
  6
CONTINUOUS
 62
    7
 10
64.043511414730119
 20
53.81888179235915
 11
63.983591194900782
 21
53.92849549017177
  0
LINE
  8
_0-4_THICK_SOLID_LAYER
  6
CONTINUOUS
 62
    7
 10
63.983591194900782
 20
53.92849549017177
 11
63.937812483800144
 21
53.999984502737561
  0
LINE
  8
_0-4_THICK_SOLID_LAYER
  6
CONTINUOUS
 62
    7
 10
63.937812483800144
 20
53.999984502737561
 11
63.887368254394914
 21
54.069715580982631
  0
LINE
  8
_0-4_THICK_SOLID_LAYER
  6
CONTINUOUS
 62
    7
 10
63.887368254394914
 20
54.069715580982631
 11
63.832258506684866
 21
54.137274658903323
  0
LINE
  8
_0-4_THICK_SOLID_LAYER
  6
CONTINUOUS
 62
    7
 10
63.832258506684866
 20
54.137274658903323
 11
63.773648102480365
 21
54.201096366291097
  0
LINE
  8
_0-4_THICK_SOLID_LAYER
  6
CONTINUOUS
 62
    7
 10
63.773648102480365
 20
54.201096366291097
 11
63.709603508336613
 21
54.263108715364694
  0
LINE
  8
_0-4_THICK_SOLID_LAYER
  6
CONTINUOUS
 62
    7
 10
63.709603508336613
 20
54.263108715364694
 11
63.640124724253837
 21
54.32275359178891
  0
LINE
  8
_0-4_THICK_SOLID_LAYER
  6
CONTINUOUS
 62
    7
 10
63.640124724253837
 20
54.32275359178891
 11
63.565211750231811
 21
54.379447027804019
  0
LINE
  8
_0-4_THICK_SOLID_LAYER
  6
CONTINUOUS
 62
    7
 10
63.565211750231811
 20
54.379447027804019
 11
63.48486458627076
 21
54.432583804490662
  0
LINE
  8
_0-4_THICK_SOLID_LAYER
  6
CONTINUOUS
 62
    7
 10
63.48486458627076
 20
54.432583804490662
 11
63.429860145139855
 21
54.464844202174277
  0
LINE
  8
_0-4_THICK_SOLID_LAYER
  6
CONTINUOUS
 62
    7
 10
63.429860145139855
 20
54.464844202174277
 11
63.371168938237815
 21
54.495916983883774
  0
LINE
  8
_0-4_THICK_SOLID_LAYER
  6
CONTINUOUS
 62
    7
 10
63.371168938237815
 20
54.495916983883774
 11
63.30879096556464
 21
54.525434679448097
  0
LINE
  8
_0-4_THICK_SOLID_LAYER
  6
CONTINUOUS
 62
    7
 10
63.30879096556464
 20
54.525434679448097
 11
63.242726227119874
 21
54.553007562897847
  0
LINE
  8
_0-4_THICK_SOLID_LAYER
  6
CONTINUOUS
 62
    7
 10
63.242726227119874
 20
54.553007562897847
 11
63.172974722903973
 21
54.578225381098093
  0
LINE
  8
_0-4_THICK_SOLID_LAYER
  6
CONTINUOUS
 62
    7
 10
63.172974722903973
 20
54.578225381098093
 11
63.099536452916709
 21
54.600659688594135
  0
LINE
  8
_0-4_THICK_SOLID_LAYER
  6
CONTINUOUS
 62
    7
 10
63.099536452916709
 20
54.600659688594135
 11
62.995499947181997
 21
54.625547440110722
  0
LINE
  8
_0-4_THICK_SOLID_LAYER
  6
CONTINUOUS
 62
    7
 10
62.995499947181997
 20
54.625547440110722
 11
62.861763977011833
 21
54.646377326787274
  0
LINE
  8
_0-4_THICK_SOLID_LAYER
  6
CONTINUOUS
 62
    7
 10
62.861763977011833
 20
54.646377326787274
 11
62.698328542405761
 21
54.655336353249652
  0
LINE
  8
_0-4_THICK_SOLID_LAYER
  6
CONTINUOUS
 62
    7
 10
59.069300035381502
 20
54.655336353249652
 11
58.983884971536327
 21
54.652896467628409
  0
LINE
  8
_0-4_THICK_SOLID_LAYER
  6
CONTINUOUS
 62
    7
 10
58.983884971536327
 20
54.652896467628409
 11
58.905888739194779
 21
54.64637995888387
  0
LINE
  8
_0-4_THICK_SOLID_LAYER
  6
CONTINUOUS
 62
    7
 10
58.905888739194779
 20
54.64637995888387
 11
58.83531133835686
 21
54.636921276184978
  0
LINE
  8
_0-4_THICK_SOLID_LAYER
  6
CONTINUOUS
 62
    7
 10
58.83531133835686
 20
54.636921276184978
 11
58.772152769022568
 21
54.625552214630432
  0
LINE
  8
_0-4_THICK_SOLID_LAYER
  6
CONTINUOUS
 62
    7
 10
58.772152769022568
 20
54.625552214630432
 11
58.716413031191905
 21
54.613195027693791
  0
LINE
  8
_0-4_THICK_SOLID_LAYER
  6
CONTINUOUS
 62
    7
 10
58.716413031191905
 20
54.613195027693791
 11
58.66809212486487
 21
54.600659688596181
  0
LINE
  8
_0-4_THICK_SOLID_LAYER
  6
CONTINUOUS
 62
    7
 10
58.66809212486487
 20
54.600659688596181
 11
58.580432069742983
 21
54.573398864807132
  0
LINE
  8
_0-4_THICK_SOLID_LAYER
  6
CONTINUOUS
 62
    7
 10
58.580432069742983
 20
54.573398864807132
 11
58.498069228847044
 21
54.542252143555459
  0
LINE
  8
_0-4_THICK_SOLID_LAYER
  6
CONTINUOUS
 62
    7
 10
58.498069228847044
 20
54.542252143555459
 11
58.421003602177507
 21
54.507948457720261
  0
LINE
  8
_0-4_THICK_SOLID_LAYER
  6
CONTINUOUS
 62
    7
 10
58.421003602177507
 20
54.507948457720261
 11
58.349235189733918
 21
54.471177326510485
  0
LINE
  8
_0-4_THICK_SOLID_LAYER
  6
CONTINUOUS
 62
    7
 10
58.349235189733918
 20
54.471177326510485
 11
58.282763991516731
 21
54.432583804490548
  0
LINE
  8
_0-4_THICK_SOLID_LAYER
  6
CONTINUOUS
 62
    7
 10
58.282763991516731
 20
54.432583804490548
 11
58.183204964597735
 21
54.365603075170327
  0
LINE
  8
_0-4_THICK_SOLID_LAYER
  6
CONTINUOUS
 62
    7
 10
58.183204964597735
 20
54.365603075170327
 11
58.092119635555719
 21
54.293292093456159
  0
LINE
  8
_0-4_THICK_SOLID_LAYER
  6
CONTINUOUS
 62
    7
 10
58.092119635555719
 20
54.293292093456159
 11
58.009508004390455
 21
54.216813825328074
  0
LINE
  8
_0-4_THICK_SOLID_LAYER
  6
CONTINUOUS
 62
    7
 10
58.009508004390455
 20
54.216813825328074
 11
57.93537007110217
 21
54.137274658903323
  0
LINE
  8
_0-4_THICK_SOLID_LAYER
  6
CONTINUOUS
 62
    7
 10
57.93537007110217
 20
54.137274658903323
 11
57.854460869660215
 21
54.035109480020822
  0
LINE
  8
_0-4_THICK_SOLID_LAYER
  6
CONTINUOUS
 62
    7
 10
57.854460869660215
 20
54.035109480020822
 11
57.784045183898115
 21
53.928514463977478
  0
LINE
  8
_0-4_THICK_SOLID_LAYER
  6
CONTINUOUS
 62
    7
 10
57.784045183898115
 20
53.928514463977478
 11
57.724123013816097
 21
53.818896386153881
  0
LINE
  8
_0-4_THICK_SOLID_LAYER
  6
CONTINUOUS
 62
    7
 10
57.724123013816097
 20
53.818896386153881
 11
57.674694359413706
 21
53.707672309492636
  0
LINE
  8
_0-4_THICK_SOLID_LAYER
  6
CONTINUOUS
 62
    7
 10
46.3838142888942
 20
14.50964293395117
 11
73.3838142888942
 21
14.50964293395117
  0
LINE
  8
_0-4_THICK_SOLID_LAYER
  6
CONTINUOUS
 62
    7
 10
46.3838142888942
 20
15.309642933951238
 11
46.3838142888942
 21
14.50964293395117
  0
LINE
  8
_0-4_THICK_SOLID_LAYER
  6
CONTINUOUS
 62
    7
 10
46.3838142888942
 20
15.309642933951238
 11
73.3838142888942
 21
15.309642933951125
  0
LINE
  8
_0-4_THICK_SOLID_LAYER
  6
CONTINUOUS
 62
    7
 10
73.3838142888942
 20
15.309642933951125
 11
73.3838142888942
 21
14.50964293395117
  0
LINE
  8
_0-4_THICK_SOLID_LAYER
  6
CONTINUOUS
 62
    7
 10
46.81893079677684
 20
12.909642933950863
 11
58.985788999282022
 21
12.909642933950863
  0
LINE
  8
_0-4_THICK_SOLID_LAYER
  6
CONTINUOUS
 62
    7
 10
46.38415932726366
 20
13.709642933951045
 11
46.406862843426325
 21
13.522191440458641
  0
LINE
  8
_0-4_THICK_SOLID_LAYER
  6
CONTINUOUS
 62
    7
 10
46.406862843426325
 20
13.522191440458641
 11
46.464304083047409
 21
13.342340475889557
  0
LINE
  8
_0-4_THICK_SOLID_LAYER
  6
CONTINUOUS
 62
    7
 10
46.464304083047409
 20
13.342340475889557
 11
46.554440592629135
 21
13.17648504902337
  0
LINE
  8
_0-4_THICK_SOLID_LAYER
  6
CONTINUOUS
 62
    7
 10
46.554440592629135
 20
13.17648504902337
 11
46.67406736422754
 21
13.030522525567619
  0
LINE
  8
_0-4_THICK_SOLID_LAYER
  6
CONTINUOUS
 62
    7
 10
46.67406736422754
 20
13.030522525567619
 11
46.81893079677684
 21
12.90964293395092
  0
LINE
  8
_0-4_THICK_SOLID_LAYER
  6
CONTINUOUS
 62
    7
 10
46.38415932726366
 20
13.709642933951045
 11
73.3838142888942
 21
13.709642933951045
  0
ARC
  8
_0-4_THICK_SOLID_LAYER
  6
CONTINUOUS
 62
    7
 10
72.3838142888942
 20
13.409642933951375
 40
1
 50
329.99999999996783
 51
0
  0
LINE
  8
_0-4_THICK_SOLID_LAYER
  6
CONTINUOUS
 62
    7
 10
62.781839578506379
 20
12.909642933950863
 11
73.249839692678279
 21
12.909642933950863
  0
LINE
  8
_0-4_THICK_SOLID_LAYER
  6
CONTINUOUS
 62
    7
 10
73.3838142888942
 20
13.709642933951045
 11
73.3838142888942
 21
13.409642933951375
  0
ARC
  8
_0-4_THICK_SOLID_LAYER
  6
CONTINUOUS
 62
    7
 10
60.8838142888942
 20
9.9096429339515453
 40
3.550000000000411
 50
57.679481854281804
 51
122.32051814571798
  0
LINE
  8
_0-4_THICK_SOLID_LAYER
  6
CONTINUOUS
 62
    7
 10
46.818857462041024
 20
12.873007764580962
 11
58.929084414821773
 21
12.873007764580962
  0
LINE
  8
_0-4_THICK_SOLID_LAYER
  6
CONTINUOUS
 62
    7
 10
46.81893079677684
 20
12.909642933950863
 11
46.818857462041024
 21
12.873007764580962
  0
ARC
  8
_0-4_THICK_SOLID_LAYER
  6
CONTINUOUS
 62
    7
 10
60.8838142888942
 20
9.9096429339515453
 40
3.550000000000411
 50
122.3205181457174
 51
123.41011623197311
  0
LINE
  8
_0-4_THICK_SOLID_LAYER
  6
CONTINUOUS
 62
    7
 10
46.3838142888942
 20
16.109642933951363
 11
73.3838142888942
 21
16.109642933951363
  0
LINE
  8
_0-4_THICK_SOLID_LAYER
  6
CONTINUOUS
 62
    7
 10
46.3838142888942
 20
16.409642933951488
 11
46.3838142888942
 21
16.109642933951363
  0
ARC
  8
_0-4_THICK_SOLID_LAYER
  6
CONTINUOUS
 62
    7
 10
47.3838142888942
 20
16.409642933951488
 40
1
 50
149.9999999999911
 51
179.99999999999841
  0
LINE
  8
_0-4_THICK_SOLID_LAYER
  6
CONTINUOUS
 62
    7
 10
46.517788885109894
 20
16.909642933951545
 11
73.249839692678506
 21
16.909642933951545
  0
ARC
  8
_0-4_THICK_SOLID_LAYER
  6
CONTINUOUS
 62
    7
 10
72.3838142888942
 20
16.409642933951488
 40
1
 50
359.99999999999841
 51
30.000000000006093
  0
LINE
  8
_0-4_THICK_SOLID_LAYER
  6
CONTINUOUS
 62
    7
 10
73.3838142888942
 20
16.409642933951488
 11
73.3838142888942
 21
16.109642933951363
  0
LINE
  8
_0-4_THICK_SOLID_LAYER
  6
CONTINUOUS
 62
    7
 10
46.3838142888942
 20
15.309642933951238
 11
46.3838142888942
 21
15.346278103321254
  0
LINE
  8
_0-4_THICK_SOLID_LAYER
  6
CONTINUOUS
 62
    7
 10
46.3838142888942
 20
15.346278103321254
 11
73.3838142888942
 21
15.34627810332114
  0
LINE
  8
_0-4_THICK_SOLID_LAYER
  6
CONTINUOUS
 62
    7
 10
73.3838142888942
 20
15.309642933951125
 11
73.3838142888942
 21
15.34627810332114
  0
ARC
  8
_0-4_THICK_SOLID_LAYER
  6
CONTINUOUS
 62
    7
 10
47.3838142888942
 20
16.409642933951488
 40
1
 50
147.54171346986021
 51
149.99999999999611
  0
LINE
  8
_0-4_THICK_SOLID_LAYER
  6
CONTINUOUS
 62
    7
 10
46.540031892425532
 20
16.946328379449653
 11
73.227596685362869
 21
16.94632837944954
  0
ARC
  8
_0-4_THICK_SOLID_LAYER
  6
CONTINUOUS
 62
    7
 10
72.3838142888942
 20
16.409642933951488
 40
1
 50
30.000000000009138
 51
32.458286530143319
  0
LINE
  8
_0-4_THICK_SOLID_LAYER
  6
CONTINUOUS
 62
    7
 10
46.3838142888942
 20
13.746278103320947
 11
73.3838142888942
 21
13.746278103320947
  0
LINE
  8
_0-4_THICK_SOLID_LAYER
  6
CONTINUOUS
 62
    7
 10
46.3838142888942
 20
13.722785462466845
 11
46.38415932726366
 21
13.709642933951159
  0
LINE
  8
_0-4_THICK_SOLID_LAYER
  6
CONTINUOUS
 62
    7
 10
46.3838142888942
 20
13.722785462466845
 11
46.3838142888942
 21
13.746278103320947
  0
LINE
  8
_0-4_THICK_SOLID_LAYER
  6
CONTINUOUS
 62
    7
 10
73.3838142888942
 20
13.709642933951045
 11
73.3838142888942
 21
13.746278103320947
  0
LINE
  8
_0-4_THICK_SOLID_LAYER
  6
CONTINUOUS
 62
    7
 10
46.3838142888942
 20
14.473007764581155
 11
73.3838142888942
 21
14.473007764581041
  0
LINE
  8
_0-4_THICK_SOLID_LAYER
  6
CONTINUOUS
 62
    7
 10
46.3838142888942
 20
14.473007764581155
 11
46.3838142888942
 21
14.50964293395117
  0
LINE
  8
_0-4_THICK_SOLID_LAYER
  6
CONTINUOUS
 62
    7
 10
73.3838142888942
 20
14.473007764581041
 11
73.3838142888942
 21
14.50964293395117
  0
LINE
  8
_0-4_THICK_SOLID_LAYER
  6
CONTINUOUS
 62
    7
 10
46.3838142888942
 20
16.073007764581462
 11
73.3838142888942
 21
16.073007764581462
  0
LINE
  8
_0-4_THICK_SOLID_LAYER
  6
CONTINUOUS
 62
    7
 10
46.3838142888942
 20
16.073007764581462
 11
46.3838142888942
 21
16.109642933951363
  0
LINE
  8
_0-4_THICK_SOLID_LAYER
  6
CONTINUOUS
 62
    7
 10
73.3838142888942
 20
16.073007764581462
 11
73.3838142888942
 21
16.109642933951363
  0
LINE
  8
_0-4_THICK_SOLID_LAYER
  6
CONTINUOUS
 62
    7
 10
46.818857462041251
 20
12.873007764580962
 11
46.99416205312923
 21
12.777034632543348
  0
LINE
  8
_0-4_THICK_SOLID_LAYER
  6
CONTINUOUS
 62
    7
 10
46.99416205312923
 20
12.777034632543348
 11
47.185020514376447
 21
12.717874282140826
  0
LINE
  8
_0-4_THICK_SOLID_LAYER
  6
CONTINUOUS
 62
    7
 10
47.185020514376447
 20
12.717874282140826
 11
47.3838142888942
 21
12.69788823558298
  0
LINE
  8
_0-4_THICK_SOLID_LAYER
  6
CONTINUOUS
 62
    7
 10
46.3838142888942
 20
13.631130468511458
 11
46.403029003044821
 21
13.435772442489565
  0
LINE
  8
_0-4_THICK_SOLID_LAYER
  6
CONTINUOUS
 62
    7
 10
46.403029003044821
 20
13.435772442489565
 11
46.459934735017214
 21
13.247921913721882
  0
LINE
  8
_0-4_THICK_SOLID_LAYER
  6
CONTINUOUS
 62
    7
 10
46.459934735017214
 20
13.247921913721882
 11
46.552344630064226
 21
13.074797870634995
  0
LINE
  8
_0-4_THICK_SOLID_LAYER
  6
CONTINUOUS
 62
    7
 10
46.552344630064226
 20
13.074797870634995
 11
46.676707428749978
 21
12.923053371229742
  0
LINE
  8
_0-4_THICK_SOLID_LAYER
  6
CONTINUOUS
 62
    7
 10
46.676707428749978
 20
12.923053371229742
 11
46.828243939819004
 21
12.798519869866368
  0
LINE
  8
_0-4_THICK_SOLID_LAYER
  6
CONTINUOUS
 62
    7
 10
46.828243939819004
 20
12.798519869866368
 11
47.001130701784177
 21
12.705983117806568
  0
LINE
  8
_0-4_THICK_SOLID_LAYER
  6
CONTINUOUS
 62
    7
 10
47.001130701784177
 20
12.705983117806568
 11
47.188723775222343
 21
12.648999249528856
  0
LINE
  8
_0-4_THICK_SOLID_LAYER
  6
CONTINUOUS
 62
    7
 10
47.188723775222343
 20
12.648999249528856
 11
47.383814065568004
 21
12.629758122513579
  0
LINE
  8
_0-4_THICK_SOLID_LAYER
  6
CONTINUOUS
 62
    7
 10
46.3838142888942
 20
13.631130468511458
 11
46.3838142888942
 21
13.722785462466845
  0
LINE
  8
_0-4_THICK_SOLID_LAYER
  6
CONTINUOUS
 62
    7
 10
46.3838142888942
 20
3.7096429339511587
 11
73.3838142888942
 21
3.7096429339511587
  0
LINE
  8
_0-4_THICK_SOLID_LAYER
  6
CONTINUOUS
 62
    7
 10
46.3838142888942
 20
3.7462781033210604
 11
46.3838142888942
 21
3.7096429339511587
  0
LINE
  8
_0-4_THICK_SOLID_LAYER
  6
CONTINUOUS
 62
    7
 10
46.3838142888942
 20
3.7462781033210604
 11
73.3838142888942
 21
3.7462781033210604
  0
LINE
  8
_0-4_THICK_SOLID_LAYER
  6
CONTINUOUS
 62
    7
 10
73.3838142888942
 20
3.7462781033210604
 11
73.3838142888942
 21
3.7096429339511587
  0
LINE
  8
_0-4_THICK_SOLID_LAYER
  6
CONTINUOUS
 62
    7
 10
46.3838142888942
 20
5.3096429339514657
 11
73.3838142888942
 21
5.309642933951352
  0
LINE
  8
_0-4_THICK_SOLID_LAYER
  6
CONTINUOUS
 62
    7
 10
73.3838142888942
 20
5.309642933951352
 11
73.3838142888942
 21
4.5096429339513406
  0
LINE
  8
_0-4_THICK_SOLID_LAYER
  6
CONTINUOUS
 62
    7
 10
46.3838142888942
 20
4.5096429339513406
 11
73.3838142888942
 21
4.5096429339513406
  0
LINE
  8
_0-4_THICK_SOLID_LAYER
  6
CONTINUOUS
 62
    7
 10
46.3838142888942
 20
5.3096429339514657
 11
46.3838142888942
 21
4.5096429339513406
  0
ARC
  8
_0-4_THICK_SOLID_LAYER
  6
CONTINUOUS
 62
    7
 10
72.3838142888942
 20
3.4096429339513747
 40
1
 50
327.5417134698331
 51
329.99999999996669
  0
LINE
  8
_0-4_THICK_SOLID_LAYER
  6
CONTINUOUS
 62
    7
 10
46.540031892425759
 20
2.8729574884529825
 11
73.227596685362641
 21
2.8729574884528688
  0
ARC
  8
_0-4_THICK_SOLID_LAYER
  6
CONTINUOUS
 62
    7
 10
47.3838142888942
 20
3.4096429339514884
 40
1
 50
210.00000000002851
 51
212.4582865301652
  0
LINE
  8
_0-4_THICK_SOLID_LAYER
  6
CONTINUOUS
 62
    7
 10
46.517788885110122
 20
2.9096429339510337
 11
73.249839692678279
 21
2.90964293395092
  0
LINE
  8
_0-4_THICK_SOLID_LAYER
  6
CONTINUOUS
 62
    7
 10
73.3838142888942
 20
3.7096429339511587
 11
73.3838142888942
 21
3.4096429339513747
  0
ARC
  8
_0-4_THICK_SOLID_LAYER
  6
CONTINUOUS
 62
    7
 10
72.3838142888942
 20
3.4096429339513747
 40
1
 50
329.99999999996783
 51
359.99999999999841
  0
ARC
  8
_0-4_THICK_SOLID_LAYER
  6
CONTINUOUS
 62
    7
 10
47.3838142888942
 20
3.4096429339514884
 40
1
 50
179.99999999999841
 51
210.00000000003016
  0
LINE
  8
_0-4_THICK_SOLID_LAYER
  6
CONTINUOUS
 62
    7
 10
46.3838142888942
 20
3.7096429339511587
 11
46.3838142888942
 21
3.4096429339514884
  0
LINE
  8
_0-4_THICK_SOLID_LAYER
  6
CONTINUOUS
 62
    7
 10
46.38415932726366
 20
6.1096429339514202
 11
73.3838142888942
 21
6.1096429339514202
  0
LINE
  8
_0-4_THICK_SOLID_LAYER
  6
CONTINUOUS
 62
    7
 10
46.818930796776158
 20
6.909642933951659
 11
46.674067364227085
 21
6.7887633423348461
  0
LINE
  8
_0-4_THICK_SOLID_LAYER
  6
CONTINUOUS
 62
    7
 10
46.674067364227085
 20
6.7887633423348461
 11
46.55444059262868
 21
6.642800818879266
  0
LINE
  8
_0-4_THICK_SOLID_LAYER
  6
CONTINUOUS
 62
    7
 10
46.55444059262868
 20
6.642800818879266
 11
46.464304083047182
 21
6.4769453920129649
  0
LINE
  8
_0-4_THICK_SOLID_LAYER
  6
CONTINUOUS
 62
    7
 10
46.464304083047182
 20
6.4769453920129649
 11
46.406862843426097
 21
6.2970944274439375
  0
LINE
  8
_0-4_THICK_SOLID_LAYER
  6
CONTINUOUS
 62
    7
 10
46.406862843426097
 20
6.2970944274439375
 11
46.38415932726366
 21
6.1096429339514202
  0
LINE
  8
_0-4_THICK_SOLID_LAYER
  6
CONTINUOUS
 62
    7
 10
46.818930796776158
 20
6.909642933951659
 11
58.985788999283159
 21
6.909642933951659
  0
LINE
  8
_0-4_THICK_SOLID_LAYER
  6
CONTINUOUS
 62
    7
 10
62.781839578505469
 20
6.909642933951659
 11
73.249839692678279
 21
6.909642933951659
  0
LINE
  8
_0-4_THICK_SOLID_LAYER
  6
CONTINUOUS
 62
    7
 10
73.3838142888942
 20
6.4096429339512611
 11
73.3838142888942
 21
6.1096429339514202
  0
ARC
  8
_0-4_THICK_SOLID_LAYER
  6
CONTINUOUS
 62
    7
 10
72.3838142888942
 20
6.4096429339512611
 40
1
 50
0
 51
30.000000000030028
  0
ARC
  8
_0-4_THICK_SOLID_LAYER
  6
CONTINUOUS
 62
    7
 10
60.8838142888942
 20
9.9096429339515453
 40
3.550000000000411
 50
237.67948185430211
 51
302.32051814569729
  0
ARC
  8
_0-4_THICK_SOLID_LAYER
  6
CONTINUOUS
 62
    7
 10
72.3838142888942
 20
13.409642933951375
 40
1
 50
327.54512733030629
 51
329.99999999996618
  0
LINE
  8
_0-4_THICK_SOLID_LAYER
  6
CONTINUOUS
 62
    7
 10
62.838544162966855
 20
12.873007764580962
 11
73.227628661250264
 21
12.873007764580962
  0
ARC
  8
_0-4_THICK_SOLID_LAYER
  6
CONTINUOUS
 62
    7
 10
60.8838142888942
 20
9.9096429339515453
 40
3.550000000000411
 50
56.589883768026148
 51
57.679481854281981
  0
LINE
  8
_0-4_THICK_SOLID_LAYER
  6
CONTINUOUS
 62
    7
 10
46.3838142888942
 20
5.346278103321481
 11
73.3838142888942
 21
5.3462781033213673
  0
LINE
  8
_0-4_THICK_SOLID_LAYER
  6
CONTINUOUS
 62
    7
 10
73.3838142888942
 20
5.3462781033213673
 11
73.3838142888942
 21
5.309642933951352
  0
LINE
  8
_0-4_THICK_SOLID_LAYER
  6
CONTINUOUS
 62
    7
 10
46.3838142888942
 20
5.346278103321481
 11
46.3838142888942
 21
5.3096429339514657
  0
LINE
  8
_0-4_THICK_SOLID_LAYER
  6
CONTINUOUS
 62
    7
 10
47.3838142888942
 20
7.1213976323199404
 11
47.18502051437622
 21
7.1014115857620368
  0
LINE
  8
_0-4_THICK_SOLID_LAYER
  6
CONTINUOUS
 62
    7
 10
47.18502051437622
 20
7.1014115857620368
 11
46.994162053128775
 21
7.0422512353593447
  0
LINE
  8
_0-4_THICK_SOLID_LAYER
  6
CONTINUOUS
 62
    7
 10
46.994162053128775
 20
7.0422512353593447
 11
46.818857462040569
 21
6.9462781033215606
  0
LINE
  8
_0-4_THICK_SOLID_LAYER
  6
CONTINUOUS
 62
    7
 10
46.818857462040569
 20
6.9462781033215606
 11
46.818930796776158
 21
6.909642933951659
  0
LINE
  8
_0-4_THICK_SOLID_LAYER
  6
CONTINUOUS
 62
    7
 10
46.38415932726366
 20
6.1096429339516476
 11
46.3838142888942
 21
6.0965002428834509
  0
LINE
  8
_0-4_THICK_SOLID_LAYER
  6
CONTINUOUS
 62
    7
 10
47.3838142888942
 20
7.189527745389455
 11
47.188723966878115
 21
7.1702866565491945
  0
LINE
  8
_0-4_THICK_SOLID_LAYER
  6
CONTINUOUS
 62
    7
 10
47.188723966878115
 20
7.1702866565491945
 11
47.001130856529016
 21
7.1133028142817807
  0
LINE
  8
_0-4_THICK_SOLID_LAYER
  6
CONTINUOUS
 62
    7
 10
47.001130856529016
 20
7.1133028142817807
 11
46.82824405587462
 21
7.0207660756888686
  0
LINE
  8
_0-4_THICK_SOLID_LAYER
  6
CONTINUOUS
 62
    7
 10
46.82824405587462
 20
7.0207660756888686
 11
46.676707507707761
 21
6.8962325757393614
  0
LINE
  8
_0-4_THICK_SOLID_LAYER
  6
CONTINUOUS
 62
    7
 10
46.676707507707761
 20
6.8962325757393614
 11
46.552344676591702
 21
6.7444880669969507
  0
LINE
  8
_0-4_THICK_SOLID_LAYER
  6
CONTINUOUS
 62
    7
 10
46.552344676591702
 20
6.7444880669969507
 11
46.459934756382836
 21
6.571364005833459
  0
LINE
  8
_0-4_THICK_SOLID_LAYER
  6
CONTINUOUS
 62
    7
 10
46.459934756382836
 20
6.571364005833459
 11
46.403029008490876
 21
6.3835134528302433
  0
LINE
  8
_0-4_THICK_SOLID_LAYER
  6
CONTINUOUS
 62
    7
 10
46.403029008490876
 20
6.3835134528302433
 11
46.3838142888942
 21
6.1881553993914622
  0
LINE
  8
_0-4_THICK_SOLID_LAYER
  6
CONTINUOUS
 62
    7
 10
46.3838142888942
 20
6.0965004054359611
 11
46.3838142888942
 21
6.1881553993914622
  0
LINE
  8
_0-4_THICK_SOLID_LAYER
  6
CONTINUOUS
 62
    7
 10
46.818857462040569
 20
6.9462781033215606
 11
58.929084414822682
 21
6.9462781033215606
  0
ARC
  8
_0-4_THICK_SOLID_LAYER
  6
CONTINUOUS
 62
    7
 10
60.8838142888942
 20
9.9096429339515453
 40
3.550000000000411
 50
236.58988376804666
 51
237.67948185430257
  0
LINE
  8
_0-4_THICK_SOLID_LAYER
  6
CONTINUOUS
 62
    7
 10
46.3838142888942
 20
4.4730077645813822
 11
73.3838142888942
 21
4.4730077645812685
  0
LINE
  8
_0-4_THICK_SOLID_LAYER
  6
CONTINUOUS
 62
    7
 10
73.3838142888942
 20
4.5096429339513406
 11
73.3838142888942
 21
4.4730077645812685
  0
LINE
  8
_0-4_THICK_SOLID_LAYER
  6
CONTINUOUS
 62
    7
 10
46.3838142888942
 20
4.5096429339513406
 11
46.3838142888942
 21
4.4730077645813822
  0
LINE
  8
_0-4_THICK_SOLID_LAYER
  6
CONTINUOUS
 62
    7
 10
62.838544162965945
 20
6.9462781033215606
 11
73.227628661250492
 21
6.9462781033215606
  0
ARC
  8
_0-4_THICK_SOLID_LAYER
  6
CONTINUOUS
 62
    7
 10
72.3838142888942
 20
6.4096429339512611
 40
1
 50
30.000000000030067
 51
32.454872669689621
  0
ARC
  8
_0-4_THICK_SOLID_LAYER
  6
CONTINUOUS
 62
    7
 10
60.8838142888942
 20
9.9096429339515453
 40
3.550000000000411
 50
302.32051814569792
 51
303.41011623195413
  0
LINE
  8
_0-4_THICK_SOLID_LAYER
  6
CONTINUOUS
 62
    7
 10
46.3838142888942
 20
6.0730077645815186
 11
73.3838142888942
 21
6.0730077645815186
  0
LINE
  8
_0-4_THICK_SOLID_LAYER
  6
CONTINUOUS
 62
    7
 10
73.3838142888942
 20
6.1096429339514202
 11
73.3838142888942
 21
6.0730077645815186
  0
LINE
  8
_0-4_THICK_SOLID_LAYER
  6
CONTINUOUS
 62
    7
 10
46.3838142888942
 20
6.0965004054359611
 11
46.3838142888942
 21
6.0730077645815186
  0
LINE
  8
_0-4_THICK_SOLID_LAYER
  6
CONTINUOUS
 62
    7
 10
47.3838142888942
 20
12.697888235582468
 11
58.686500442868692
 21
12.697888235582468
  0
ARC
  8
_0-4_THICK_SOLID_LAYER
  6
CONTINUOUS
 62
    7
 10
60.8838142888942
 20
9.9096429339515453
 40
3.550000000000411
 50
123.41011623197359
 51
128.24034800638287
  0
LINE
  8
_0-4_THICK_SOLID_LAYER
  6
CONTINUOUS
 62
    7
 10
46.3838142888942
 20
15.346278103321254
 11
46.3838142888942
 21
16.073007764581462
  0
LINE
  8
_0-4_THICK_SOLID_LAYER
  6
CONTINUOUS
 62
    7
 10
73.3838142888942
 20
15.34627810332114
 11
73.3838142888942
 21
16.073007764581462
  0
LINE
  8
_0-4_THICK_SOLID_LAYER
  6
CONTINUOUS
 62
    7
 10
48.3838142888942
 20
12.424542424363665
 11
48.3838142888942
 21
12.577350343230421
  0
LINE
  8
_0-4_THICK_SOLID_LAYER
  6
CONTINUOUS
 62
    7
 10
48.3838142888942
 20
12.577350343230421
 11
48.583814288894246
 21
12.577350343230421
  0
LINE
  8
_0-4_THICK_SOLID_LAYER
  6
CONTINUOUS
 62
    7
 10
48.583814288894246
 20
12.577350343230421
 11
48.583814288894246
 21
12.629758122513465
  0
LINE
  8
_0-4_THICK_SOLID_LAYER
  6
CONTINUOUS
 62
    7
 10
48.583814288894246
 20
12.629758122513465
 11
47.3838142888942
 21
12.629758122513579
  0
ARC
  8
_0-4_THICK_SOLID_LAYER
  6
CONTINUOUS
 62
    7
 10
60.8838142888942
 20
9.9096429339515453
 40
3.550000000000411
 50
128.24034800638199
 51
134.89329868181699
  0
LINE
  8
_0-4_THICK_SOLID_LAYER
  6
CONTINUOUS
 62
    7
 10
46.3838142888942
 20
13.746278103320947
 11
46.3838142888942
 21
14.473007764581155
  0
LINE
  8
_0-4_THICK_SOLID_LAYER
  6
CONTINUOUS
 62
    7
 10
73.3838142888942
 20
13.746278103320947
 11
73.3838142888942
 21
14.473007764581041
  0
LINE
  8
_0-4_THICK_SOLID_LAYER
  6
CONTINUOUS
 62
    7
 10
63.081128134919936
 20
12.697888235582468
 11
73.086242398632066
 21
12.697888235582468
  0
ARC
  8
_0-4_THICK_SOLID_LAYER
  6
CONTINUOUS
 62
    7
 10
72.3838142888942
 20
13.409642933951375
 40
1
 50
279.90293771029849
 51
314.6221376645907
  0
ARC
  8
_0-4_THICK_SOLID_LAYER
  6
CONTINUOUS
 62
    7
 10
60.8838142888942
 20
9.9096429339515453
 40
3.550000000000411
 50
45.106701318182303
 51
51.759651993617219
  0
ARC
  8
_0-4_THICK_SOLID_LAYER
  6
CONTINUOUS
 62
    7
 10
72.3838142888942
 20
13.409642933951375
 40
1
 50
314.62213766459018
 51
327.545127330306
  0
ARC
  8
_0-4_THICK_SOLID_LAYER
  6
CONTINUOUS
 62
    7
 10
60.8838142888942
 20
9.9096429339515453
 40
3.550000000000411
 50
51.759651993616792
 51
56.589883768025857
  0
LINE
  8
_0-4_THICK_SOLID_LAYER
  6
CONTINUOUS
 62
    7
 10
72.3838142888942
 20
17.409642933951488
 11
47.3838142888942
 21
17.409642933951488
  0
ARC
  8
_0-4_THICK_SOLID_LAYER
  6
CONTINUOUS
 62
    7
 10
47.3838142888942
 20
16.409642933951488
 40
1.0000000002008489
 50
90
 51
147.54171346985751
  0
ARC
  8
_0-4_THICK_SOLID_LAYER
  6
CONTINUOUS
 62
    7
 10
72.3838142888942
 20
16.409642933951488
 40
1.0000000002008489
 50
32.458286530139411
 51
90
  0
LINE
  8
_0-4_THICK_SOLID_LAYER
  6
CONTINUOUS
 62
    7
 10
63.081128134919027
 20
7.1213976323200541
 11
73.086242398632066
 21
7.1213976323200541
  0
ARC
  8
_0-4_THICK_SOLID_LAYER
  6
CONTINUOUS
 62
    7
 10
72.3838142888942
 20
6.4096429339512611
 40
1
 50
45.377862335403208
 51
80.09706228980852
  0
ARC
  8
_0-4_THICK_SOLID_LAYER
  6
CONTINUOUS
 62
    7
 10
60.8838142888942
 20
9.9096429339515453
 40
3.550000000000411
 50
308.24034800636412
 51
314.89329868181142
  0
LINE
  8
_0-4_THICK_SOLID_LAYER
  6
CONTINUOUS
 62
    7
 10
47.3838142888942
 20
2.4096429339514884
 11
72.3838142888942
 21
2.4096429339513747
  0
ARC
  8
_0-4_THICK_SOLID_LAYER
  6
CONTINUOUS
 62
    7
 10
72.3838142888942
 20
3.4096429339513747
 40
1.0000000002008489
 50
270
 51
327.54171346983418
  0
ARC
  8
_0-4_THICK_SOLID_LAYER
  6
CONTINUOUS
 62
    7
 10
47.3838142888942
 20
3.4096429339514884
 40
1.0000000002008489
 50
212.45828653016818
 51
270
  0
LINE
  8
_0-4_THICK_SOLID_LAYER
  6
CONTINUOUS
 62
    7
 10
48.583814288894246
 20
7.189527745389455
 11
48.583814288894246
 21
7.2419355246724422
  0
LINE
  8
_0-4_THICK_SOLID_LAYER
  6
CONTINUOUS
 62
    7
 10
48.583814288894246
 20
7.2419355246724422
 11
48.3838142888942
 21
7.2419355246724422
  0
LINE
  8
_0-4_THICK_SOLID_LAYER
  6
CONTINUOUS
 62
    7
 10
48.3838142888942
 20
7.2419355246724422
 11
48.3838142888942
 21
7.394743443539312
  0
LINE
  8
_0-4_THICK_SOLID_LAYER
  6
CONTINUOUS
 62
    7
 10
47.3838142888942
 20
7.1213976323200541
 11
58.686500442869601
 21
7.1213976323200541
  0
LINE
  8
_0-4_THICK_SOLID_LAYER
  6
CONTINUOUS
 62
    7
 10
47.3838142888942
 20
7.189527745389455
 11
48.583814288894246
 21
7.189527745389455
  0
ARC
  8
_0-4_THICK_SOLID_LAYER
  6
CONTINUOUS
 62
    7
 10
60.8838142888942
 20
9.9096429339515453
 40
3.550000000000411
 50
225.10670131819003
 51
231.75965199363759
  0
ARC
  8
_0-4_THICK_SOLID_LAYER
  6
CONTINUOUS
 62
    7
 10
60.8838142888942
 20
9.9096429339515453
 40
3.550000000000411
 50
231.75965199363719
 51
236.58988376804669
  0
ARC
  8
_0-4_THICK_SOLID_LAYER
  6
CONTINUOUS
 62
    7
 10
72.3838142888942
 20
6.4096429339512611
 40
1
 50
32.454872669690737
 51
45.377862335402504
  0
ARC
  8
_0-4_THICK_SOLID_LAYER
  6
CONTINUOUS
 62
    7
 10
60.8838142888942
 20
9.9096429339515453
 40
3.550000000000411
 50
303.41011623195357
 51
308.24034800636309
  0
LINE
  8
_0-4_THICK_SOLID_LAYER
  6
CONTINUOUS
 62
    7
 10
73.3838142888942
 20
6.0730077645815186
 11
73.3838142888942
 21
5.3462781033213673
  0
LINE
  8
_0-4_THICK_SOLID_LAYER
  6
CONTINUOUS
 62
    7
 10
46.3838142888942
 20
6.0730077645815186
 11
46.3838142888942
 21
5.346278103321481
  0
LINE
  8
_0-4_THICK_SOLID_LAYER
  6
CONTINUOUS
 62
    7
 10
73.3838142888942
 20
4.4730077645812685
 11
73.3838142888942
 21
3.7462781033210604
  0
LINE
  8
_0-4_THICK_SOLID_LAYER
  6
CONTINUOUS
 62
    7
 10
46.3838142888942
 20
4.4730077645813822
 11
46.3838142888942
 21
3.7462781033210604
  0
LINE
  8
_0-4_THICK_SOLID_LAYER
  6
CONTINUOUS
 62
    7
 10
48.3838142888942
 20
7.2419355246724422
 11
48.3838142888942
 21
7.189527745389455
  0
LINE
  8
_0-4_THICK_SOLID_LAYER
  6
CONTINUOUS
 62
    7
 10
48.3838142888942
 20
12.629758122513465
 11
48.3838142888942
 21
12.577350343230421
  0
LINE
  8
_0-4_THICK_SOLID_LAYER
  6
CONTINUOUS
 62
    7
 10
48.3838142888942
 20
7.394743443539312
 11
48.3838142888942
 21
7.6943323039656661
  0
LINE
  8
_0-4_THICK_SOLID_LAYER
  6
CONTINUOUS
 62
    7
 10
58.109846226231184
 20
7.6943323039656661
 11
58.205928272858273
 21
7.5791008328254179
  0
LINE
  8
_0-4_THICK_SOLID_LAYER
  6
CONTINUOUS
 62
    7
 10
58.205928272858273
 20
7.5791008328254179
 11
58.257561690995999
 21
7.5210899950077419
  0
LINE
  8
_0-4_THICK_SOLID_LAYER
  6
CONTINUOUS
 62
    7
 10
58.257561690995999
 20
7.5210899950077419
 11
58.305222880970177
 21
7.469690813318266
  0
LINE
  8
_0-4_THICK_SOLID_LAYER
  6
CONTINUOUS
 62
    7
 10
58.305222880970177
 20
7.469690813318266
 11
58.351365506068078
 21
7.4218320162239593
  0
LINE
  8
_0-4_THICK_SOLID_LAYER
  6
CONTINUOUS
 62
    7
 10
58.351365506068078
 20
7.4218320162239593
 11
58.374140221866128
 21
7.3988589772382625
  0
LINE
  8
_0-4_THICK_SOLID_LAYER
  6
CONTINUOUS
 62
    7
 10
58.374140221866128
 20
7.3988589772382625
 11
58.378264338658482
 21
7.3947434435392552
  0
LINE
  8
_0-4_THICK_SOLID_LAYER
  6
CONTINUOUS
 62
    7
 10
69.583814288895155
 20
12.409642933951375
 11
69.546858413305699
 21
12.407358004546438
  0
LINE
  8
_0-4_THICK_SOLID_LAYER
  6
CONTINUOUS
 62
    7
 10
69.546858413305699
 20
12.407358004546438
 11
69.493377552714946
 21
12.39568698082013
  0
LINE
  8
_0-4_THICK_SOLID_LAYER
  6
CONTINUOUS
 62
    7
 10
69.493377552714946
 20
12.39568698082013
 11
69.440831157374305
 21
12.373377315669984
  0
LINE
  8
_0-4_THICK_SOLID_LAYER
  6
CONTINUOUS
 62
    7
 10
69.440831157374305
 20
12.373377315669984
 11
69.392455503204701
 21
12.340687983972032
  0
LINE
  8
_0-4_THICK_SOLID_LAYER
  6
CONTINUOUS
 62
    7
 10
69.392455503204701
 20
12.340687983972032
 11
69.329072271030782
 21
12.268093255296378
  0
LINE
  8
_0-4_THICK_SOLID_LAYER
  6
CONTINUOUS
 62
    7
 10
69.329072271030782
 20
12.268093255296378
 11
69.29626827942343
 21
12.195184107878163
  0
LINE
  8
_0-4_THICK_SOLID_LAYER
  6
CONTINUOUS
 62
    7
 10
69.29626827942343
 20
12.195184107878163
 11
69.284205235945592
 21
12.12495356393714
  0
LINE
  8
_0-4_THICK_SOLID_LAYER
  6
CONTINUOUS
 62
    7
 10
72.3838142888942
 20
12.409642933951375
 11
69.583814288895155
 21
12.409642933951375
  0
LINE
  8
_0-4_THICK_SOLID_LAYER
  6
CONTINUOUS
 62
    7
 10
72.3838142888942
 20
12.409642933951375
 11
72.456499517045131
 21
12.412288003343065
  0
LINE
  8
_0-4_THICK_SOLID_LAYER
  6
CONTINUOUS
 62
    7
 10
72.456499517045131
 20
12.412288003343065
 11
72.523847738546692
 21
12.419496160498852
  0
LINE
  8
_0-4_THICK_SOLID_LAYER
  6
CONTINUOUS
 62
    7
 10
72.523847738546692
 20
12.419496160498852
 11
72.543933848003007
 21
12.422545306160259
  0
LINE
  8
_0-4_THICK_SOLID_LAYER
  6
CONTINUOUS
 62
    7
 10
72.543933848003007
 20
12.422545306160259
 11
72.555793898179445
 21
12.424542424363551
  0
LINE
  8
_0-4_THICK_SOLID_LAYER
  6
CONTINUOUS
 62
    7
 10
63.657782351557444
 20
12.12495356393714
 11
63.561700304930582
 21
12.240185035077445
  0
LINE
  8
_0-4_THICK_SOLID_LAYER
  6
CONTINUOUS
 62
    7
 10
63.561700304930582
 20
12.240185035077445
 11
63.510066886792629
 21
12.298195872895178
  0
LINE
  8
_0-4_THICK_SOLID_LAYER
  6
CONTINUOUS
 62
    7
 10
63.510066886792629
 20
12.298195872895178
 11
63.462405696818678
 21
12.349595054584654
  0
LINE
  8
_0-4_THICK_SOLID_LAYER
  6
CONTINUOUS
 62
    7
 10
63.462405696818678
 20
12.349595054584654
 11
63.416263071720778
 21
12.397453851678847
  0
LINE
  8
_0-4_THICK_SOLID_LAYER
  6
CONTINUOUS
 62
    7
 10
63.416263071720778
 20
12.397453851678847
 11
63.393488355922727
 21
12.420426890664658
  0
LINE
  8
_0-4_THICK_SOLID_LAYER
  6
CONTINUOUS
 62
    7
 10
63.393488355922727
 20
12.420426890664658
 11
63.389364239130373
 21
12.424542424363551
  0
LINE
  8
_0-4_THICK_SOLID_LAYER
  6
CONTINUOUS
 62
    7
 10
69.284205235945365
 20
7.6943323039656661
 11
69.299038954124399
 21
7.615287177866719
  0
LINE
  8
_0-4_THICK_SOLID_LAYER
  6
CONTINUOUS
 62
    7
 10
69.299038954124399
 20
7.615287177866719
 11
69.331705366857932
 21
7.5470357648923141
  0
LINE
  8
_0-4_THICK_SOLID_LAYER
  6
CONTINUOUS
 62
    7
 10
69.331705366857932
 20
7.5470357648923141
 11
69.398985808481484
 21
7.4733413621642626
  0
LINE
  8
_0-4_THICK_SOLID_LAYER
  6
CONTINUOUS
 62
    7
 10
69.398985808481484
 20
7.4733413621642626
 11
69.449107474690663
 21
7.4415868312283351
  0
LINE
  8
_0-4_THICK_SOLID_LAYER
  6
CONTINUOUS
 62
    7
 10
69.449107474690663
 20
7.4415868312283351
 11
69.507073625216663
 21
7.4196241922494437
  0
LINE
  8
_0-4_THICK_SOLID_LAYER
  6
CONTINUOUS
 62
    7
 10
69.507073625216663
 20
7.4196241922494437
 11
69.549815224044096
 21
7.4115757207436559
  0
LINE
  8
_0-4_THICK_SOLID_LAYER
  6
CONTINUOUS
 62
    7
 10
69.549815224044096
 20
7.4115757207436559
 11
69.583814288895155
 21
7.4096429339510337
  0
LINE
  8
_0-4_THICK_SOLID_LAYER
  6
CONTINUOUS
 62
    7
 10
69.583814288895155
 20
7.4096429339510337
 11
72.3838142888942
 21
7.4096429339510337
  0
LINE
  8
_0-4_THICK_SOLID_LAYER
  6
CONTINUOUS
 62
    7
 10
72.555793898177626
 20
7.3947434435392552
 11
72.544695522648226
 21
7.3966167069693824
  0
LINE
  8
_0-4_THICK_SOLID_LAYER
  6
CONTINUOUS
 62
    7
 10
72.544695522648226
 20
7.3966167069693824
 11
72.52080572631462
 21
7.4002151655796524
  0
LINE
  8
_0-4_THICK_SOLID_LAYER
  6
CONTINUOUS
 62
    7
 10
72.52080572631462
 20
7.4002151655796524
 11
72.470803988244825
 21
7.4058521450143644
  0
LINE
  8
_0-4_THICK_SOLID_LAYER
  6
CONTINUOUS
 62
    7
 10
72.470803988244825
 20
7.4058521450143644
 11
72.383814288913754
 21
7.4096429339517158
  0
LINE
  8
_0-4_THICK_SOLID_LAYER
  6
CONTINUOUS
 62
    7
 10
63.389364239130146
 20
7.3947434435392552
 11
63.404756328428448
 21
7.4101727434288591
  0
LINE
  8
_0-4_THICK_SOLID_LAYER
  6
CONTINUOUS
 62
    7
 10
63.404756328428448
 20
7.4101727434288591
 11
63.437417781279692
 21
7.4435510452174753
  0
LINE
  8
_0-4_THICK_SOLID_LAYER
  6
CONTINUOUS
 62
    7
 10
63.437417781279692
 20
7.4435510452174753
 11
63.503929996144961
 21
7.5143363396674658
  0
LINE
  8
_0-4_THICK_SOLID_LAYER
  6
CONTINUOUS
 62
    7
 10
63.503929996144961
 20
7.5143363396674658
 11
63.552477586376426
 21
7.5685628689292912
  0
LINE
  8
_0-4_THICK_SOLID_LAYER
  6
CONTINUOUS
 62
    7
 10
63.552477586376426
 20
7.5685628689292912
 11
63.602728033302583
 21
7.6270987283621139
  0
LINE
  8
_0-4_THICK_SOLID_LAYER
  6
CONTINUOUS
 62
    7
 10
63.602728033302583
 20
7.6270987283621139
 11
63.657782351557216
 21
7.6943323039654956
  0
LINE
  8
_0-4_THICK_SOLID_LAYER
  6
CONTINUOUS
 62
    7
 10
48.3838142888942
 20
12.124953563937254
 11
48.3838142888942
 21
12.424542424363665
  0
LINE
  8
_0-4_THICK_SOLID_LAYER
  6
CONTINUOUS
 62
    7
 10
58.378264338658028
 20
12.424542424363551
 11
58.362872249359725
 21
12.409113124474061
  0
LINE
  8
_0-4_THICK_SOLID_LAYER
  6
CONTINUOUS
 62
    7
 10
58.362872249359725
 20
12.409113124474061
 11
58.330210796508709
 21
12.375734822685445
  0
LINE
  8
_0-4_THICK_SOLID_LAYER
  6
CONTINUOUS
 62
    7
 10
58.330210796508709
 20
12.375734822685445
 11
58.263698581643439
 21
12.304949528235568
  0
LINE
  8
_0-4_THICK_SOLID_LAYER
  6
CONTINUOUS
 62
    7
 10
58.263698581643439
 20
12.304949528235568
 11
58.215150991411747
 21
12.250722998973686
  0
LINE
  8
_0-4_THICK_SOLID_LAYER
  6
CONTINUOUS
 62
    7
 10
58.215150991411747
 20
12.250722998973686
 11
58.16490054448559
 21
12.192187139540749
  0
LINE
  8
_0-4_THICK_SOLID_LAYER
  6
CONTINUOUS
 62
    7
 10
58.16490054448559
 20
12.192187139540749
 11
58.109846226230957
 21
12.124953563937368
  0
LINE
  8
_0-4_THICK_SOLID_LAYER
  6
CONTINUOUS
 62
    7
 10
48.3838142888942
 20
7.6943323039656661
 11
48.3838142888942
 21
12.124953563937254
  0
ARC
  8
_0-4_THICK_SOLID_LAYER
  6
CONTINUOUS
 62
    7
 10
60.8838142888942
 20
9.9096429339515453
 40
3.550000000000411
 50
141.38888729979712
 51
218.61111270020939
  0
LINE
  8
_0-4_THICK_SOLID_LAYER
  6
CONTINUOUS
 62
    7
 10
69.283814288895428
 20
12.109642933951648
 11
69.283814288895201
 21
7.7096429339510451
  0
ARC
  8
_0-4_THICK_SOLID_LAYER
  6
CONTINUOUS
 62
    7
 10
69.583814288895155
 20
12.109642933951648
 40
0.299999999999705
 50
177.07461421121911
 51
180.00000000001631
  0
ARC
  8
_0-4_THICK_SOLID_LAYER
  6
CONTINUOUS
 62
    7
 10
69.583814288895155
 20
7.7096429339510451
 40
0.2999999999999756
 50
179.9999999999946
 51
182.9253857887565
  0
ARC
  8
_0-4_THICK_SOLID_LAYER
  6
CONTINUOUS
 62
    7
 10
60.8838142888942
 20
9.9096429339515453
 40
3.550000000000411
 50
321.38888729979033
 51
38.611112700203321
  0
CIRCLE
  8
_0-4_THICK_SOLID_LAYER
  6
CONTINUOUS
 62
    7
 10
60.8838142888942
 20
9.9096429339515453
 40
1.649999999999971
  0
CIRCLE
  8
_0-4_THICK_SOLID_LAYER
  6
CONTINUOUS
 62
    7
 10
60.883814288894428
 20
9.9096429339512611
 40
1.64999999996799
  0
CIRCLE
  8
_0-4_THICK_SOLID_LAYER
  6
CONTINUOUS
 62
    7
 10
60.883814288894428
 20
9.9096429339512611
 40
1.5000000000000011
  0
ARC
  8
_0-4_THICK_SOLID_LAYER
  6
CONTINUOUS
 62
    7
 10
60.883814288894428
 20
9.9096429339512611
 40
1.376841718685001
 50
25.834932986546999
 51
154.16506701333981
  0
ARC
  8
_0-4_THICK_SOLID_LAYER
  6
CONTINUOUS
 62
    7
 10
60.883814288894428
 20
9.9096429339512611
 40
1.376841718685001
 50
154.16506701334231
 51
205.83493298660579
  0
ARC
  8
_0-4_THICK_SOLID_LAYER
  6
CONTINUOUS
 62
    7
 10
60.883814288894428
 20
9.9096429339512611
 40
1.376841718685001
 50
205.83493298660346
 51
334.16506701339722
  0
ARC
  8
_0-4_THICK_SOLID_LAYER
  6
CONTINUOUS
 62
    7
 10
60.883814288894428
 20
9.9096429339512611
 40
1.376841718685001
 50
334.16506701339739
 51
25.834932986547994
  0
LINE
  8
_0-4_THICK_SOLID_LAYER
  6
CONTINUOUS
 62
    7
 10
59.644583431341289
 20
9.309642933951352
 11
62.123045146447339
 21
9.309642933951352
  0
LINE
  8
_0-4_THICK_SOLID_LAYER
  6
CONTINUOUS
 62
    7
 10
59.644583431343335
 20
10.509642933951568
 11
62.123045146448021
 21
10.509642933949863
  0
LINE
  8
_0-4_THICK_SOLID_LAYER
  6
CONTINUOUS
 62
    7
 10
102.72804505812542
 20
38.655336353249652
 11
102.69140988875552
 21
39.355336353249584
  0
LINE
  8
_0-4_THICK_SOLID_LAYER
  6
CONTINUOUS
 62
    7
 10
101.96468022749542
 20
39.355336353249584
 11
101.92804505812535
 21
38.655336353249652
  0
LINE
  8
_0-4_THICK_SOLID_LAYER
  6
CONTINUOUS
 62
    7
 10
101.12804505812528
 20
38.655336353249652
 11
101.92804505812535
 21
38.655336353249652
  0
LINE
  8
_0-4_THICK_SOLID_LAYER
  6
CONTINUOUS
 62
    7
 10
101.12804505812528
 20
38.655336353249652
 11
101.09140988875532
 21
39.355336353249584
  0
LINE
  8
_0-4_THICK_SOLID_LAYER
  6
CONTINUOUS
 62
    7
 10
101.09140988875532
 20
39.355336353249584
 11
100.364680227495
 21
39.355336353249584
  0
LINE
  8
_0-4_THICK_SOLID_LAYER
  6
CONTINUOUS
 62
    7
 10
100.364680227495
 20
39.355336353249584
 11
100.3280450581251
 21
38.655336353249652
  0
LINE
  8
_0-4_THICK_SOLID_LAYER
  6
CONTINUOUS
 62
    7
 10
100.02804505812503
 20
38.655336353249709
 11
100.3280450581251
 21
38.655336353249709
  0
LINE
  8
_0-4_THICK_SOLID_LAYER
  6
CONTINUOUS
 62
    7
 10
103.02804505812514
 20
47.655336353249481
 11
100.02804505812503
 21
47.655336353249481
  0
LINE
  8
_0-4_THICK_SOLID_LAYER
  6
CONTINUOUS
 62
    7
 10
102.72804505812542
 20
38.655336353249652
 11
103.02804505812514
 21
38.655336353249709
  0
LINE
  8
_0-4_THICK_SOLID_LAYER
  6
CONTINUOUS
 62
    7
 10
102.69140988875552
 20
39.355336353249584
 11
101.96468022749542
 21
39.355336353249584
  0
LINE
  8
_0-4_THICK_SOLID_LAYER
  6
CONTINUOUS
 62
    7
 10
104.02804505812514
 20
47.655336353249481
 11
104.02804505812514
 21
44.649999165010968
  0
LINE
  8
_0-4_THICK_SOLID_LAYER
  6
CONTINUOUS
 62
    7
 10
104.02804505812514
 20
44.649999165010968
 11
104.0253999887334
 21
44.641633526784119
  0
LINE
  8
_0-4_THICK_SOLID_LAYER
  6
CONTINUOUS
 62
    7
 10
104.0253999887334
 20
44.641633526784119
 11
104.01819183157761
 21
44.612346259932508
  0
LINE
  8
_0-4_THICK_SOLID_LAYER
  6
CONTINUOUS
 62
    7
 10
104.01819183157761
 20
44.612346259932508
 11
104.0151426859162
 21
44.593320549185989
  0
LINE
  8
_0-4_THICK_SOLID_LAYER
  6
CONTINUOUS
 62
    7
 10
104.0151426859162
 20
44.593320549185989
 11
104.01314556771291
 21
44.571085140141918
  0
LINE
  8
_0-4_THICK_SOLID_LAYER
  6
CONTINUOUS
 62
    7
 10
104.01314556771291
 20
44.571085140141975
 11
103.73979975649399
 21
39.355336353249584
  0
LINE
  8
_0-4_THICK_SOLID_LAYER
  6
CONTINUOUS
 62
    7
 10
103.73979975649399
 20
39.355336353249584
 11
103.5646802274955
 21
39.355336353249584
  0
LINE
  8
_0-4_THICK_SOLID_LAYER
  6
CONTINUOUS
 62
    7
 10
103.5646802274955
 20
39.355336353249584
 11
103.5280450581256
 21
38.655336353249709
  0
LINE
  8
_0-4_THICK_SOLID_LAYER
  6
CONTINUOUS
 62
    7
 10
103.5280450581256
 20
38.655336353249709
 11
103.02804505812514
 21
38.655336353249709
  0
LINE
  8
_0-4_THICK_SOLID_LAYER
  6
CONTINUOUS
 62
    7
 10
103.02804505812514
 20
47.655336353249481
 11
104.02804505812514
 21
47.655336353249481
  0
LINE
  8
_0-4_THICK_SOLID_LAYER
  6
CONTINUOUS
 62
    7
 10
112.7280450581253
 20
38.655336353249709
 11
113.02804505812514
 21
38.655336353249709
  0
LINE
  8
_0-4_THICK_SOLID_LAYER
  6
CONTINUOUS
 62
    7
 10
112.6914098887554
 20
39.355336353249697
 11
112.7280450581253
 21
38.655336353249766
  0
LINE
  8
_0-4_THICK_SOLID_LAYER
  6
CONTINUOUS
 62
    7
 10
111.96468022749525
 20
39.355336353249697
 11
112.6914098887554
 21
39.355336353249697
  0
LINE
  8
_0-4_THICK_SOLID_LAYER
  6
CONTINUOUS
 62
    7
 10
111.92804505812512
 20
38.655336353249766
 11
111.96468022749525
 21
39.355336353249697
  0
LINE
  8
_0-4_THICK_SOLID_LAYER
  6
CONTINUOUS
 62
    7
 10
111.12804505812511
 20
38.655336353249766
 11
111.92804505812512
 21
38.655336353249766
  0
LINE
  8
_0-4_THICK_SOLID_LAYER
  6
CONTINUOUS
 62
    7
 10
111.09140988875509
 20
39.355336353249697
 11
111.12804505812511
 21
38.655336353249766
  0
LINE
  8
_0-4_THICK_SOLID_LAYER
  6
CONTINUOUS
 62
    7
 10
110.36468022749489
 20
39.355336353249697
 11
111.09140988875509
 21
39.355336353249697
  0
LINE
  8
_0-4_THICK_SOLID_LAYER
  6
CONTINUOUS
 62
    7
 10
110.32804505812499
 20
38.655336353249766
 11
110.36468022749489
 21
39.355336353249697
  0
LINE
  8
_0-4_THICK_SOLID_LAYER
  6
CONTINUOUS
 62
    7
 10
110.0280450581252
 20
38.655336353249709
 11
110.32804505812499
 21
38.655336353249766
  0
LINE
  8
_0-4_THICK_SOLID_LAYER
  6
CONTINUOUS
 62
    7
 10
113.02804505812514
 20
47.655336353249481
 11
110.0280450581252
 21
47.655336353249481
  0
LINE
  8
_0-4_THICK_SOLID_LAYER
  6
CONTINUOUS
 62
    7
 10
99.528045058124917
 20
38.655336353249652
 11
99.491359612626866
 21
39.355336353249584
  0
LINE
  8
_0-4_THICK_SOLID_LAYER
  6
CONTINUOUS
 62
    7
 10
99.491359612626866
 20
39.355336353249584
 11
99.028045058125031
 21
39.355345639183497
  0
LINE
  8
_0-4_THICK_SOLID_LAYER
  6
CONTINUOUS
 62
    7
 10
99.028045058125031
 20
39.355345639183497
 11
99.028045058125031
 21
47.655336353249481
  0
LINE
  8
_0-4_THICK_SOLID_LAYER
  6
CONTINUOUS
 62
    7
 10
100.02804505812503
 20
38.655336353249709
 11
99.528045058124917
 21
38.655336353249652
  0
LINE
  8
_0-4_THICK_SOLID_LAYER
  6
CONTINUOUS
 62
    7
 10
99.028045058125031
 20
47.655336353249481
 11
100.02804505812503
 21
47.655336353249481
  0
LINE
  8
_0-4_THICK_SOLID_LAYER
  6
CONTINUOUS
 62
    7
 10
109.5280450581248
 20
38.655336353249766
 11
109.4914098887549
 21
39.355336353249697
  0
LINE
  8
_0-4_THICK_SOLID_LAYER
  6
CONTINUOUS
 62
    7
 10
109.4914098887549
 20
39.355336353249697
 11
109.31629035975641
 21
39.355336353249697
  0
LINE
  8
_0-4_THICK_SOLID_LAYER
  6
CONTINUOUS
 62
    7
 10
109.31629035975641
 20
39.355336353249697
 11
109.04294454853721
 21
44.571085140141975
  0
LINE
  8
_0-4_THICK_SOLID_LAYER
  6
CONTINUOUS
 62
    7
 10
109.04294454853721
 20
44.571085140141975
 11
109.04107128510714
 21
44.592335987944011
  0
LINE
  8
_0-4_THICK_SOLID_LAYER
  6
CONTINUOUS
 62
    7
 10
109.04107128510714
 20
44.592335987944011
 11
109.03747282649681
 21
44.614503799373153
  0
LINE
  8
_0-4_THICK_SOLID_LAYER
  6
CONTINUOUS
 62
    7
 10
109.03747282649681
 20
44.614503799373153
 11
109.0318358470621
 21
44.637720237861231
  0
LINE
  8
_0-4_THICK_SOLID_LAYER
  6
CONTINUOUS
 62
    7
 10
109.0318358470621
 20
44.637720237861231
 11
109.02804505812469
 21
44.649999165073439
  0
LINE
  8
_0-4_THICK_SOLID_LAYER
  6
CONTINUOUS
 62
    7
 10
109.02804505812537
 20
44.649999165009547
 11
109.0280450581252
 21
47.655336353249481
  0
LINE
  8
_0-4_THICK_SOLID_LAYER
  6
CONTINUOUS
 62
    7
 10
110.0280450581252
 20
38.655336353249709
 11
109.5280450581248
 21
38.655336353249766
  0
LINE
  8
_0-4_THICK_SOLID_LAYER
  6
CONTINUOUS
 62
    7
 10
109.0280450581252
 20
47.655336353249481
 11
110.0280450581252
 21
47.655336353249481
  0
LINE
  8
_0-4_THICK_SOLID_LAYER
  6
CONTINUOUS
 62
    7
 10
113.56473050362365
 20
39.355336353249697
 11
113.52804505812549
 21
38.655336353249709
  0
LINE
  8
_0-4_THICK_SOLID_LAYER
  6
CONTINUOUS
 62
    7
 10
114.02804505812514
 20
47.655336353249481
 11
114.02804505812514
 21
39.355345639183611
  0
LINE
  8
_0-4_THICK_SOLID_LAYER
  6
CONTINUOUS
 62
    7
 10
114.02804505812514
 20
39.355345639183611
 11
113.56473050362365
 21
39.355336353249697
  0
LINE
  8
_0-4_THICK_SOLID_LAYER
  6
CONTINUOUS
 62
    7
 10
113.52804505812549
 20
38.655336353249709
 11
113.02804505812514
 21
38.655336353249709
  0
LINE
  8
_0-4_THICK_SOLID_LAYER
  6
CONTINUOUS
 62
    7
 10
113.02804505812514
 20
47.655336353249481
 11
114.02804505812514
 21
47.655336353249481
  0
LINE
  8
_0-4_THICK_SOLID_LAYER
  6
CONTINUOUS
 62
    7
 10
108.72804505812542
 20
44.85538435326913
 11
108.7433556881108
 21
44.85538435326913
  0
LINE
  8
_0-4_THICK_SOLID_LAYER
  6
CONTINUOUS
 62
    7
 10
108.72804505812542
 20
47.155336353249425
 11
109.02804505812537
 21
47.155336353249425
  0
LINE
  8
_0-4_THICK_SOLID_LAYER
  6
CONTINUOUS
 62
    7
 10
108.7433556881108
 20
44.85538435326913
 11
108.82240081420969
 21
44.844783503302381
  0
LINE
  8
_0-4_THICK_SOLID_LAYER
  6
CONTINUOUS
 62
    7
 10
108.82240081420969
 20
44.844783503302381
 11
108.89065222718409
 21
44.816734175494048
  0
LINE
  8
_0-4_THICK_SOLID_LAYER
  6
CONTINUOUS
 62
    7
 10
108.89065222718409
 20
44.816734175494048
 11
108.9643466299122
 21
44.758271030117669
  0
LINE
  8
_0-4_THICK_SOLID_LAYER
  6
CONTINUOUS
 62
    7
 10
108.9643466299122
 20
44.758271030117669
 11
108.99610116084807
 21
44.717000336423041
  0
LINE
  8
_0-4_THICK_SOLID_LAYER
  6
CONTINUOUS
 62
    7
 10
108.99610116084807
 20
44.717000336423041
 11
109.01806379982702
 21
44.675947421234753
  0
LINE
  8
_0-4_THICK_SOLID_LAYER
  6
CONTINUOUS
 62
    7
 10
109.01806379982702
 20
44.675947421234753
 11
109.02611227133281
 21
44.655627630572837
  0
LINE
  8
_0-4_THICK_SOLID_LAYER
  6
CONTINUOUS
 62
    7
 10
109.02611227133281
 20
44.655627630572837
 11
109.02804505812537
 21
44.64999916500966
  0
LINE
  8
_0-4_THICK_SOLID_LAYER
  6
CONTINUOUS
 62
    7
 10
104.31273442813932
 20
44.85538435326913
 11
104.32804505812481
 21
44.85538435326913
  0
LINE
  8
_0-4_THICK_SOLID_LAYER
  6
CONTINUOUS
 62
    7
 10
104.02804505812514
 20
47.155336353249425
 11
104.32804505812481
 21
47.155336353249425
  0
LINE
  8
_0-4_THICK_SOLID_LAYER
  6
CONTINUOUS
 62
    7
 10
104.02804505812514
 20
44.649999165010968
 11
104.03032998752997
 21
44.656615435078322
  0
LINE
  8
_0-4_THICK_SOLID_LAYER
  6
CONTINUOUS
 62
    7
 10
104.03032998752997
 20
44.656615435078322
 11
104.04200101125627
 21
44.684626053129875
  0
LINE
  8
_0-4_THICK_SOLID_LAYER
  6
CONTINUOUS
 62
    7
 10
104.04200101125627
 20
44.684626053129875
 11
104.06431067640654
 21
44.723567704332766
  0
LINE
  8
_0-4_THICK_SOLID_LAYER
  6
CONTINUOUS
 62
    7
 10
104.06431067640654
 20
44.723567704332766
 11
104.09700000810437
 21
44.763851760823002
  0
LINE
  8
_0-4_THICK_SOLID_LAYER
  6
CONTINUOUS
 62
    7
 10
104.09700000810437
 20
44.763851760823002
 11
104.16959473678014
 21
44.819033796199619
  0
LINE
  8
_0-4_THICK_SOLID_LAYER
  6
CONTINUOUS
 62
    7
 10
104.16959473678014
 20
44.819033796199619
 11
104.2425038841983
 21
44.847047979211254
  0
LINE
  8
_0-4_THICK_SOLID_LAYER
  6
CONTINUOUS
 62
    7
 10
104.2425038841983
 20
44.847047979211254
 11
104.31273442813932
 21
44.85538435326913
  0
LINE
  8
_0-4_THICK_SOLID_LAYER
  6
CONTINUOUS
 62
    7
 10
104.32804505812481
 20
44.85538435326913
 11
108.72804505812542
 21
44.85538435326913
  0
LINE
  8
_0-4_THICK_SOLID_LAYER
  6
CONTINUOUS
 62
    7
 10
104.32804505812481
 20
47.155336353249425
 11
108.72804505812542
 21
47.155336353249425
  0
LINE
  8
_0-4_THICK_SOLID_LAYER
  6
CONTINUOUS
 62
    7
 10
109.82804505812487
 20
47.655336353249481
 11
109.82804505812487
 21
49.355336353249584
  0
LINE
  8
_0-4_THICK_SOLID_LAYER
  6
CONTINUOUS
 62
    7
 10
109.52804505812492
 20
49.655336353249652
 11
103.52804505812492
 21
49.655336353249652
  0
ARC
  8
_0-4_THICK_SOLID_LAYER
  6
CONTINUOUS
 62
    7
 10
103.52804505812492
 20
49.355336353249641
 40
0.3000000000000023
 50
90
 51
179.99999999999898
  0
LINE
  8
_0-4_THICK_SOLID_LAYER
  6
CONTINUOUS
 62
    7
 10
103.22804505812485
 20
47.655336353249425
 11
103.22804505812485
 21
49.355336353249641
  0
ARC
  8
_0-4_THICK_SOLID_LAYER
  6
CONTINUOUS
 62
    7
 10
109.52804505812492
 20
49.355336353249584
 40
0.3000000000000114
 50
0
 51
90
  0
LINE
  8
_0-4_THICK_SOLID_LAYER
  6
CONTINUOUS
 62
    7
 10
103.22845619769851
 20
49.663181363652996
 11
103.41558650248089
 21
53.2338402876141
  0
LINE
  8
_0-4_THICK_SOLID_LAYER
  6
CONTINUOUS
 62
    7
 10
105.74050361376931
 20
53.233840287614044
 11
105.92804505812489
 21
49.655336353249652
  0
ARC
  8
_0-4_THICK_SOLID_LAYER
  6
CONTINUOUS
 62
    7
 10
103.52804505812492
 20
49.647480576780026
 40
0.2999999999999998
 50
176.99999999999309
 51
179.99999999999901
  0
LINE
  8
_0-4_THICK_SOLID_LAYER
  6
CONTINUOUS
 62
    7
 10
103.22804505812485
 20
49.647480576780026
 11
103.22804505812485
 21
49.355336353249641
  0
LINE
  8
_0-4_THICK_SOLID_LAYER
  6
CONTINUOUS
 62
    7
 10
107.12804505812437
 20
49.655336353249652
 11
107.31558650248002
 21
53.233840287614044
  0
LINE
  8
_0-4_THICK_SOLID_LAYER
  6
CONTINUOUS
 62
    7
 10
109.640503613769
 20
53.233840287614044
 11
109.82763391855121
 21
49.663181363650267
  0
ARC
  8
_0-4_THICK_SOLID_LAYER
  6
CONTINUOUS
 62
    7
 10
109.52804505812492
 20
49.647480576777355
 40
0.2999999999999998
 50
0
 51
3.0000000000048028
  0
LINE
  8
_0-4_THICK_SOLID_LAYER
  6
CONTINUOUS
 62
    7
 10
109.82804505812487
 20
49.355336353249584
 11
109.82804505812487
 21
49.647480576777355
  0
LINE
  8
_0-4_THICK_SOLID_LAYER
  6
CONTINUOUS
 62
    7
 10
107.674773324554
 20
54.655336353249652
 11
108.6170415949943
 21
54.655336353249652
  0
LINE
  8
_0-4_THICK_SOLID_LAYER
  6
CONTINUOUS
 62
    7
 10
108.61704159499442
 20
54.655336353249652
 11
108.68685433214711
 21
54.652896467594303
  0
LINE
  8
_0-4_THICK_SOLID_LAYER
  6
CONTINUOUS
 62
    7
 10
108.68685433214711
 20
54.652896467594303
 11
108.75058024834379
 21
54.646379958779505
  0
LINE
  8
_0-4_THICK_SOLID_LAYER
  6
CONTINUOUS
 62
    7
 10
108.75058024834379
 20
54.646379958779505
 11
108.80806787432851
 21
54.636921276016835
  0
LINE
  8
_0-4_THICK_SOLID_LAYER
  6
CONTINUOUS
 62
    7
 10
108.80806787432851
 20
54.636921276016835
 11
108.85928358700619
 21
54.625552214440461
  0
LINE
  8
_0-4_THICK_SOLID_LAYER
  6
CONTINUOUS
 62
    7
 10
108.85928358700619
 20
54.625552214440461
 11
108.90428149484069
 21
54.613195027552081
  0
LINE
  8
_0-4_THICK_SOLID_LAYER
  6
CONTINUOUS
 62
    7
 10
108.90428149484069
 20
54.613195027552081
 11
108.9431762169749
 21
54.600659688593566
  0
LINE
  8
_0-4_THICK_SOLID_LAYER
  6
CONTINUOUS
 62
    7
 10
108.9431762169749
 20
54.600659688593566
 11
109.01347724499158
 21
54.57339886496186
  0
LINE
  8
_0-4_THICK_SOLID_LAYER
  6
CONTINUOUS
 62
    7
 10
109.01347724499158
 20
54.57339886496186
 11
109.0789727375066
 21
54.54225214382808
  0
LINE
  8
_0-4_THICK_SOLID_LAYER
  6
CONTINUOUS
 62
    7
 10
109.0789727375066
 20
54.54225214382808
 11
109.13958594601434
 21
54.507948458029603
  0
LINE
  8
_0-4_THICK_SOLID_LAYER
  6
CONTINUOUS
 62
    7
 10
109.13958594601434
 20
54.507948458029603
 11
109.19531791819639
 21
54.471177326738996
  0
LINE
  8
_0-4_THICK_SOLID_LAYER
  6
CONTINUOUS
 62
    7
 10
109.19531791819639
 20
54.471177326738996
 11
109.24623663593127
 21
54.432583804490662
  0
LINE
  8
_0-4_THICK_SOLID_LAYER
  6
CONTINUOUS
 62
    7
 10
109.24623663593127
 20
54.432583804490662
 11
109.32097425013717
 21
54.365603075702381
  0
LINE
  8
_0-4_THICK_SOLID_LAYER
  6
CONTINUOUS
 62
    7
 10
109.32097425013717
 20
54.365603075702381
 11
109.38711462565288
 21
54.293292094232243
  0
LINE
  8
_0-4_THICK_SOLID_LAYER
  6
CONTINUOUS
 62
    7
 10
109.38711462565288
 20
54.293292094232243
 11
109.44453361770292
 21
54.216813825953466
  0
LINE
  8
_0-4_THICK_SOLID_LAYER
  6
CONTINUOUS
 62
    7
 10
109.44453361770292
 20
54.216813825953466
 11
109.49324674765211
 21
54.137274658903323
  0
LINE
  8
_0-4_THICK_SOLID_LAYER
  6
CONTINUOUS
 62
    7
 10
109.49324674765211
 20
54.137274658903323
 11
109.5421212521378
 21
54.035109480181688
  0
LINE
  8
_0-4_THICK_SOLID_LAYER
  6
CONTINUOUS
 62
    7
 10
109.5421212521378
 20
54.035109480181688
 11
109.57900506607712
 21
53.928514464200532
  0
LINE
  8
_0-4_THICK_SOLID_LAYER
  6
CONTINUOUS
 62
    7
 10
109.57900506607712
 20
53.928514464200532
 11
109.60357497789664
 21
53.818896386325548
  0
LINE
  8
_0-4_THICK_SOLID_LAYER
  6
CONTINUOUS
 62
    7
 10
109.60357497789664
 20
53.818896386325548
 11
109.6156711297491
 21
53.707672309492693
  0
LINE
  8
_0-4_THICK_SOLID_LAYER
  6
CONTINUOUS
 62
    7
 10
107.37518446412764
 20
54.37103714012261
 11
107.3839080208262
 21
54.428803183093748
  0
LINE
  8
_0-4_THICK_SOLID_LAYER
  6
CONTINUOUS
 62
    7
 10
107.3839080208262
 20
54.428803183093748
 11
107.40465711533659
 21
54.485863107281205
  0
LINE
  8
_0-4_THICK_SOLID_LAYER
  6
CONTINUOUS
 62
    7
 10
107.40465711533659
 20
54.485863107281205
 11
107.41644560286022
 21
54.507870900826617
  0
LINE
  8
_0-4_THICK_SOLID_LAYER
  6
CONTINUOUS
 62
    7
 10
107.41644560286022
 20
54.507870900826617
 11
107.43023671431513
 21
54.529123137134036
  0
LINE
  8
_0-4_THICK_SOLID_LAYER
  6
CONTINUOUS
 62
    7
 10
107.43023671431513
 20
54.529123137134036
 11
107.44601028251043
 21
54.549417446081918
  0
LINE
  8
_0-4_THICK_SOLID_LAYER
  6
CONTINUOUS
 62
    7
 10
107.44601028251043
 20
54.549417446081918
 11
107.46372516962299
 21
54.568546757077002
  0
LINE
  8
_0-4_THICK_SOLID_LAYER
  6
CONTINUOUS
 62
    7
 10
107.46372516962299
 20
54.568546757077002
 11
107.48331793414081
 21
54.586301358135131
  0
LINE
  8
_0-4_THICK_SOLID_LAYER
  6
CONTINUOUS
 62
    7
 10
107.48331793414081
 20
54.586301358135131
 11
107.52804537394439
 21
54.617005817478741
  0
LINE
  8
_0-4_THICK_SOLID_LAYER
  6
CONTINUOUS
 62
    7
 10
107.52804537394439
 20
54.617005817478741
 11
107.59176943697958
 21
54.643625018735406
  0
LINE
  8
_0-4_THICK_SOLID_LAYER
  6
CONTINUOUS
 62
    7
 10
107.59176943697958
 20
54.643625018735406
 11
107.674773324554
 21
54.655336353249652
  0
LINE
  8
_0-4_THICK_SOLID_LAYER
  6
CONTINUOUS
 62
    7
 10
109.61567112974922
 20
53.707672309492693
 11
109.640503613769
 21
53.233840287614044
  0
LINE
  8
_0-4_THICK_SOLID_LAYER
  6
CONTINUOUS
 62
    7
 10
107.31558650248002
 20
53.233840287614044
 11
107.37518446412764
 21
54.37103714012261
  0
LINE
  8
_0-4_THICK_SOLID_LAYER
  6
CONTINUOUS
 62
    7
 10
103.44041898650084
 20
53.707672309492636
 11
103.45251271889117
 21
53.81888179235915
  0
LINE
  8
_0-4_THICK_SOLID_LAYER
  6
CONTINUOUS
 62
    7
 10
103.45251271889117
 20
53.81888179235915
 11
103.47707966213579
 21
53.92849549017177
  0
LINE
  8
_0-4_THICK_SOLID_LAYER
  6
CONTINUOUS
 62
    7
 10
103.47707966213579
 20
53.92849549017177
 11
103.50031658238549
 21
53.999984502737561
  0
LINE
  8
_0-4_THICK_SOLID_LAYER
  6
CONTINUOUS
 62
    7
 10
103.50031658238549
 20
53.999984502737561
 11
103.52894421095721
 21
54.069715580982631
  0
LINE
  8
_0-4_THICK_SOLID_LAYER
  6
CONTINUOUS
 62
    7
 10
103.52894421095721
 20
54.069715580982631
 11
103.5628433685979
 21
54.137274658903323
  0
LINE
  8
_0-4_THICK_SOLID_LAYER
  6
CONTINUOUS
 62
    7
 10
103.5628433685979
 20
54.137274658903323
 11
103.6011069909772
 21
54.201096366291097
  0
LINE
  8
_0-4_THICK_SOLID_LAYER
  6
CONTINUOUS
 62
    7
 10
103.6011069909772
 20
54.201096366291097
 11
103.64493722184642
 21
54.263108715364694
  0
LINE
  8
_0-4_THICK_SOLID_LAYER
  6
CONTINUOUS
 62
    7
 10
103.64493722184642
 20
54.263108715364694
 11
103.69436454150252
 21
54.32275359178891
  0
LINE
  8
_0-4_THICK_SOLID_LAYER
  6
CONTINUOUS
 62
    7
 10
103.69436454150252
 20
54.32275359178891
 11
103.74936473066987
 21
54.379447027804019
  0
LINE
  8
_0-4_THICK_SOLID_LAYER
  6
CONTINUOUS
 62
    7
 10
103.74936473066987
 20
54.379447027804019
 11
103.80985348031857
 21
54.432583804490662
  0
LINE
  8
_0-4_THICK_SOLID_LAYER
  6
CONTINUOUS
 62
    7
 10
103.80985348031857
 20
54.432583804490662
 11
103.8457243917934
 21
54.460300002986799
  0
LINE
  8
_0-4_THICK_SOLID_LAYER
  6
CONTINUOUS
 62
    7
 10
103.8457243917934
 20
54.460300002986799
 11
103.88404032089363
 21
54.487181229131636
  0
LINE
  8
_0-4_THICK_SOLID_LAYER
  6
CONTINUOUS
 62
    7
 10
103.88404032089363
 20
54.487181229131636
 11
103.9248360102352
 21
54.512999161998152
  0
LINE
  8
_0-4_THICK_SOLID_LAYER
  6
CONTINUOUS
 62
    7
 10
103.9248360102352
 20
54.512999161998152
 11
103.96813033992998
 21
54.537513243956539
  0
LINE
  8
_0-4_THICK_SOLID_LAYER
  6
CONTINUOUS
 62
    7
 10
103.96813033992998
 20
54.537513243956539
 11
104.01392433503463
 21
54.560471385325059
  0
LINE
  8
_0-4_THICK_SOLID_LAYER
  6
CONTINUOUS
 62
    7
 10
104.01392433503463
 20
54.560471385325059
 11
104.06219912841209
 21
54.581610899544501
  0
LINE
  8
_0-4_THICK_SOLID_LAYER
  6
CONTINUOUS
 62
    7
 10
104.06219912841209
 20
54.581610899544501
 11
104.11291389927658
 21
54.600659688594135
  0
LINE
  8
_0-4_THICK_SOLID_LAYER
  6
CONTINUOUS
 62
    7
 10
104.11291389927658
 20
54.600659688594135
 11
104.19678740813174
 21
54.625547440110722
  0
LINE
  8
_0-4_THICK_SOLID_LAYER
  6
CONTINUOUS
 62
    7
 10
104.19678740813174
 20
54.625547440110722
 11
104.30549033629597
 21
54.646377326787274
  0
LINE
  8
_0-4_THICK_SOLID_LAYER
  6
CONTINUOUS
 62
    7
 10
104.30549033629597
 20
54.646377326787274
 11
104.43904852125542
 21
54.655336353249652
  0
LINE
  8
_0-4_THICK_SOLID_LAYER
  6
CONTINUOUS
 62
    7
 10
104.43904852125542
 20
54.655336353249652
 11
105.38131679169521
 21
54.655336353249652
  0
LINE
  8
_0-4_THICK_SOLID_LAYER
  6
CONTINUOUS
 62
    7
 10
105.38131679169521
 20
54.655336353249709
 11
105.4190744946431
 21
54.652950794881974
  0
LINE
  8
_0-4_THICK_SOLID_LAYER
  6
CONTINUOUS
 62
    7
 10
105.4190744946431
 20
54.652950794881974
 11
105.45358350036531
 21
54.646502152783228
  0
LINE
  8
_0-4_THICK_SOLID_LAYER
  6
CONTINUOUS
 62
    7
 10
105.45358350036531
 20
54.646502152783228
 11
105.48454232160327
 21
54.637017893246878
  0
LINE
  8
_0-4_THICK_SOLID_LAYER
  6
CONTINUOUS
 62
    7
 10
105.48454232160327
 20
54.637017893246878
 11
105.51184455753787
 21
54.625452073532927
  0
LINE
  8
_0-4_THICK_SOLID_LAYER
  6
CONTINUOUS
 62
    7
 10
105.51184455753787
 20
54.625452073532927
 11
105.53553502553802
 21
54.612662481636221
  0
LINE
  8
_0-4_THICK_SOLID_LAYER
  6
CONTINUOUS
 62
    7
 10
105.53553502553802
 20
54.612662481636221
 11
105.55576842515939
 21
54.599399106617909
  0
LINE
  8
_0-4_THICK_SOLID_LAYER
  6
CONTINUOUS
 62
    7
 10
105.55576842515939
 20
54.599399106617909
 11
105.57277218210839
 21
54.586301358135131
  0
LINE
  8
_0-4_THICK_SOLID_LAYER
  6
CONTINUOUS
 62
    7
 10
105.57277218210839
 20
54.586301358135131
 11
105.61820774210321
 21
54.539408832493052
  0
LINE
  8
_0-4_THICK_SOLID_LAYER
  6
CONTINUOUS
 62
    7
 10
105.61820774210321
 20
54.539408832493052
 11
105.65142863299621
 21
54.485872146000077
  0
LINE
  8
_0-4_THICK_SOLID_LAYER
  6
CONTINUOUS
 62
    7
 10
105.65142863299621
 20
54.485872146000077
 11
105.67218025153772
 21
54.428810482903657
  0
LINE
  8
_0-4_THICK_SOLID_LAYER
  6
CONTINUOUS
 62
    7
 10
105.67218025153772
 20
54.428810482903657
 11
105.68090565212151
 21
54.37103714012261
  0
LINE
  8
_0-4_THICK_SOLID_LAYER
  6
CONTINUOUS
 62
    7
 10
103.41558650248089
 20
53.2338402876141
 11
103.44041898650084
 21
53.707672309492693
  0
LINE
  8
_0-4_THICK_SOLID_LAYER
  6
CONTINUOUS
 62
    7
 10
105.68090565212162
 20
54.37103714012261
 11
105.74050361376931
 21
53.233840287614044
  0
LINE
  8
_0-4_THICK_SOLID_LAYER
  6
CONTINUOUS
 62
    7
 10
3.8165065965861231
 20
38.655336353249766
 11
3.7798211510880719
 21
39.355336353249697
  0
LINE
  8
_0-4_THICK_SOLID_LAYER
  6
CONTINUOUS
 62
    7
 10
3.7798211510880719
 20
39.355336353249697
 11
3.3165065965865779
 21
39.355345639183611
  0
LINE
  8
_0-4_THICK_SOLID_LAYER
  6
CONTINUOUS
 62
    7
 10
3.3165065965865779
 20
39.355345639183611
 11
3.3165065965865779
 21
40.65533635327796
  0
LINE
  8
_0-4_THICK_SOLID_LAYER
  6
CONTINUOUS
 62
    7
 10
3.3165065965865779
 20
40.65533635327796
 11
4.3165065965865779
 21
40.65533635327796
  0
LINE
  8
_0-4_THICK_SOLID_LAYER
  6
CONTINUOUS
 62
    7
 10
4.3165065965865779
 20
38.655336353249709
 11
3.8165065965861231
 21
38.655336353249766
  0
LINE
  8
_0-4_THICK_SOLID_LAYER
  6
CONTINUOUS
 62
    7
 10
6.9798714272167217
 20
39.355336353249697
 11
6.2531417659565705
 21
39.355336353249697
  0
LINE
  8
_0-4_THICK_SOLID_LAYER
  6
CONTINUOUS
 62
    7
 10
6.2531417659565705
 20
39.355336353249697
 11
6.2165065965864414
 21
38.655336353249709
  0
LINE
  8
_0-4_THICK_SOLID_LAYER
  6
CONTINUOUS
 62
    7
 10
6.2165065965864414
 20
38.655336353249709
 11
5.4165065965864869
 21
38.655336353249766
  0
LINE
  8
_0-4_THICK_SOLID_LAYER
  6
CONTINUOUS
 62
    7
 10
5.4165065965864869
 20
38.655336353249766
 11
5.3798714272163579
 21
39.355336353249697
  0
LINE
  8
_0-4_THICK_SOLID_LAYER
  6
CONTINUOUS
 62
    7
 10
5.3798714272163579
 20
39.355336353249697
 11
4.6531417659562067
 21
39.355336353249697
  0
LINE
  8
_0-4_THICK_SOLID_LAYER
  6
CONTINUOUS
 62
    7
 10
4.6531417659562067
 20
39.355336353249697
 11
4.616506596586305
 21
38.655336353249709
  0
LINE
  8
_0-4_THICK_SOLID_LAYER
  6
CONTINUOUS
 62
    7
 10
4.616506596586305
 20
38.655336353249709
 11
4.3165065965865779
 21
38.655336353249709
  0
LINE
  8
_0-4_THICK_SOLID_LAYER
  6
CONTINUOUS
 62
    7
 10
7.0950190620264948
 20
40.65533635327796
 11
4.3165065965865779
 21
40.65533635327796
  0
LINE
  8
_0-4_THICK_SOLID_LAYER
  6
CONTINUOUS
 62
    7
 10
7.0033640680710505
 20
38.90645488549967
 11
6.9798714272167217
 21
39.355336353249697
  0
LINE
  8
_0-4_THICK_SOLID_LAYER
  6
CONTINUOUS
 62
    7
 10
8.0963914080246013
 20
40.65533635327796
 11
8.0282612949552004
 21
39.355336353249697
  0
LINE
  8
_0-4_THICK_SOLID_LAYER
  6
CONTINUOUS
 62
    7
 10
8.0282612949552004
 20
39.355336353249697
 11
7.8531417659567069
 21
39.355336353249697
  0
LINE
  8
_0-4_THICK_SOLID_LAYER
  6
CONTINUOUS
 62
    7
 10
7.8531417659567069
 20
39.355336353249697
 11
7.8165065965868052
 21
38.655336353249766
  0
LINE
  8
_0-4_THICK_SOLID_LAYER
  6
CONTINUOUS
 62
    7
 10
7.8165065965868052
 20
38.655336353249766
 11
7.0165065965866233
 21
38.655336353249766
  0
LINE
  8
_0-4_THICK_SOLID_LAYER
  6
CONTINUOUS
 62
    7
 10
7.0950190620264948
 20
40.65533635327796
 11
8.0963914080246013
 21
40.65533635327796
  0
LINE
  8
_0-4_THICK_SOLID_LAYER
  6
CONTINUOUS
 62
    7
 10
7.0165065965866233
 20
38.655336353249766
 11
7.0033640680710505
 21
38.90645488549967
  0
LINE
  8
_0-4_THICK_SOLID_LAYER
  6
CONTINUOUS
 62
    7
 10
14.616506596586078
 20
38.655336353249652
 11
13.816506596585896
 21
38.655336353249652
  0
LINE
  8
_0-4_THICK_SOLID_LAYER
  6
CONTINUOUS
 62
    7
 10
13.816506596585896
 20
38.655336353249652
 11
13.779871427215994
 21
39.355336353249584
  0
LINE
  8
_0-4_THICK_SOLID_LAYER
  6
CONTINUOUS
 62
    7
 10
13.779871427215994
 20
39.355336353249584
 11
13.604751898217501
 21
39.355336353249584
  0
LINE
  8
_0-4_THICK_SOLID_LAYER
  6
CONTINUOUS
 62
    7
 10
13.604751898217501
 20
39.355336353249584
 11
13.536621785148554
 21
40.65533635327796
  0
LINE
  8
_0-4_THICK_SOLID_LAYER
  6
CONTINUOUS
 62
    7
 10
14.629649125101878
 20
38.906454885503081
 11
14.616506596586078
 21
38.655336353249652
  0
LINE
  8
_0-4_THICK_SOLID_LAYER
  6
CONTINUOUS
 62
    7
 10
13.536621785148554
 20
40.65533635327796
 11
14.537994131146434
 21
40.65533635327796
  0
LINE
  8
_0-4_THICK_SOLID_LAYER
  6
CONTINUOUS
 62
    7
 10
16.216506596586441
 20
38.655336353249709
 11
16.253141765956343
 21
39.355336353249584
  0
LINE
  8
_0-4_THICK_SOLID_LAYER
  6
CONTINUOUS
 62
    7
 10
14.653141765955979
 20
39.355336353249584
 11
15.379871427216131
 21
39.355336353249584
  0
LINE
  8
_0-4_THICK_SOLID_LAYER
  6
CONTINUOUS
 62
    7
 10
17.316506596586578
 20
38.655336353249709
 11
17.016506596586396
 21
38.655336353249709
  0
LINE
  8
_0-4_THICK_SOLID_LAYER
  6
CONTINUOUS
 62
    7
 10
16.979871427216494
 20
39.355336353249584
 11
17.016506596586396
 21
38.655336353249652
  0
LINE
  8
_0-4_THICK_SOLID_LAYER
  6
CONTINUOUS
 62
    7
 10
16.253141765956343
 20
39.355336353249584
 11
16.979871427216494
 21
39.355336353249584
  0
LINE
  8
_0-4_THICK_SOLID_LAYER
  6
CONTINUOUS
 62
    7
 10
15.379871427216131
 20
39.355336353249584
 11
15.41650659658626
 21
38.655336353249652
  0
LINE
  8
_0-4_THICK_SOLID_LAYER
  6
CONTINUOUS
 62
    7
 10
16.216506596586441
 20
38.655336353249709
 11
15.41650659658626
 21
38.655336353249652
  0
LINE
  8
_0-4_THICK_SOLID_LAYER
  6
CONTINUOUS
 62
    7
 10
14.629649125101878
 20
38.906454885503081
 11
14.653141765955979
 21
39.355336353249584
  0
LINE
  8
_0-4_THICK_SOLID_LAYER
  6
CONTINUOUS
 62
    7
 10
17.316506596586578
 20
40.65533635327796
 11
14.537994131146434
 21
40.65533635327796
  0
LINE
  8
_0-4_THICK_SOLID_LAYER
  6
CONTINUOUS
 62
    7
 10
18.316506596586578
 20
40.65533635327796
 11
18.316506596586578
 21
39.355345639183497
  0
LINE
  8
_0-4_THICK_SOLID_LAYER
  6
CONTINUOUS
 62
    7
 10
18.316506596586578
 20
39.355345639183497
 11
17.853192042084629
 21
39.355336353249584
  0
LINE
  8
_0-4_THICK_SOLID_LAYER
  6
CONTINUOUS
 62
    7
 10
17.853192042084629
 20
39.355336353249584
 11
17.816506596586578
 21
38.655336353249709
  0
LINE
  8
_0-4_THICK_SOLID_LAYER
  6
CONTINUOUS
 62
    7
 10
17.816506596586578
 20
38.655336353249709
 11
17.316506596586578
 21
38.655336353249709
  0
LINE
  8
_0-4_THICK_SOLID_LAYER
  6
CONTINUOUS
 62
    7
 10
17.316506596586578
 20
40.65533635327796
 11
18.316506596586578
 21
40.65533635327796
  0
LINE
  8
_0-4_THICK_SOLID_LAYER
  6
CONTINUOUS
 62
    7
 10
3.3165065965865779
 20
47.655336353249481
 11
4.3165065965865779
 21
47.655336353249481
  0
LINE
  8
_0-4_THICK_SOLID_LAYER
  6
CONTINUOUS
 62
    7
 10
3.7165065965864414
 20
41.655336353278074
 11
4.3165065965865779
 21
41.655336353278074
  0
LINE
  8
_0-4_THICK_SOLID_LAYER
  6
CONTINUOUS
 62
    7
 10
3.7165065965864414
 20
40.655336353278074
 11
3.7165065965864414
 21
41.655336353278074
  0
LINE
  8
_0-4_THICK_SOLID_LAYER
  6
CONTINUOUS
 62
    7
 10
3.3165065965865779
 20
40.65533635327796
 11
3.3165065965865779
 21
47.655336353249481
  0
ARC
  8
_0-4_THICK_SOLID_LAYER
  6
CONTINUOUS
 62
    7
 10
13.03181722657223
 20
44.555384353269062
 40
0.2999999999999998
 50
3.000000000004464
 51
90
  0
LINE
  8
_0-4_THICK_SOLID_LAYER
  6
CONTINUOUS
 62
    7
 10
8.6011959666006987
 20
44.85538435326913
 11
13.03181722657223
 21
44.85538435326913
  0
LINE
  8
_0-4_THICK_SOLID_LAYER
  6
CONTINUOUS
 62
    7
 10
17.316506596586578
 20
41.655336353278074
 11
13.484214005865624
 21
41.655336353278074
  0
LINE
  8
_0-4_THICK_SOLID_LAYER
  6
CONTINUOUS
 62
    7
 10
4.3165065965865779
 20
47.655336353249481
 11
17.316506596586578
 21
47.655336353249481
  0
LINE
  8
_0-4_THICK_SOLID_LAYER
  6
CONTINUOUS
 62
    7
 10
8.1487991873075316
 20
41.655336353278074
 11
4.3165065965865779
 21
41.655336353278074
  0
ARC
  8
_0-4_THICK_SOLID_LAYER
  6
CONTINUOUS
 62
    7
 10
8.6011959666006987
 20
44.555384353269062
 40
0.2999999999999998
 50
90
 51
176.99999999999329
  0
LINE
  8
_0-4_THICK_SOLID_LAYER
  6
CONTINUOUS
 62
    7
 10
13.331406086998641
 20
44.571085140141975
 11
13.484214005865624
 21
41.655336353278074
  0
LINE
  8
_0-4_THICK_SOLID_LAYER
  6
CONTINUOUS
 62
    7
 10
8.1487991873075316
 20
41.655336353278074
 11
8.3016071061745151
 21
44.571085140141975
  0
LINE
  8
_0-4_THICK_SOLID_LAYER
  6
CONTINUOUS
 62
    7
 10
17.916506596586714
 20
41.655336353278074
 11
17.916506596586714
 21
40.655336353278074
  0
LINE
  8
_0-4_THICK_SOLID_LAYER
  6
CONTINUOUS
 62
    7
 10
17.316506596586578
 20
41.655336353278074
 11
17.916506596586714
 21
41.655336353278074
  0
LINE
  8
_0-4_THICK_SOLID_LAYER
  6
CONTINUOUS
 62
    7
 10
17.316506596586578
 20
47.655336353249481
 11
18.316506596586578
 21
47.655336353249481
  0
LINE
  8
_0-4_THICK_SOLID_LAYER
  6
CONTINUOUS
 62
    7
 10
18.316506596586578
 20
47.655336353249481
 11
18.316506596586578
 21
40.65533635327796
  0
LINE
  8
_0-4_THICK_SOLID_LAYER
  6
CONTINUOUS
 62
    7
 10
8.0963914080246013
 20
40.655336353278074
 11
8.1487991873075316
 21
41.655336353278074
  0
LINE
  8
_0-4_THICK_SOLID_LAYER
  6
CONTINUOUS
 62
    7
 10
13.484214005865624
 20
41.655336353278074
 11
13.536621785148554
 21
40.655336353278074
  0
LINE
  8
_0-4_THICK_SOLID_LAYER
  6
CONTINUOUS
 62
    7
 10
14.116506596586532
 20
47.655336353249481
 11
14.116506596586532
 21
49.355336353249584
  0
ARC
  8
_0-4_THICK_SOLID_LAYER
  6
CONTINUOUS
 62
    7
 10
13.816506596586578
 20
49.355336353249584
 40
0.2999999999999404
 50
0
 51
90
  0
LINE
  8
_0-4_THICK_SOLID_LAYER
  6
CONTINUOUS
 62
    7
 10
13.816506596586578
 20
49.655336353249652
 11
7.8165065965865779
 21
49.655336353249595
  0
ARC
  8
_0-4_THICK_SOLID_LAYER
  6
CONTINUOUS
 62
    7
 10
7.8165065965863505
 20
49.355336353249584
 40
0.3000000000000023
 50
90
 51
179.99999999999866
  0
LINE
  8
_0-4_THICK_SOLID_LAYER
  6
CONTINUOUS
 62
    7
 10
7.5165065965866233
 20
47.655336353249481
 11
7.5165065965866233
 21
49.355336353249584
  0
LINE
  8
_0-4_THICK_SOLID_LAYER
  6
CONTINUOUS
 62
    7
 10
11.416506596586714
 20
49.655336353249652
 11
11.604048040942189
 21
53.233840287614044
  0
LINE
  8
_0-4_THICK_SOLID_LAYER
  6
CONTINUOUS
 62
    7
 10
13.928965152230603
 20
53.233840287614044
 11
14.116095457012989
 21
49.663181363653564
  0
ARC
  8
_0-4_THICK_SOLID_LAYER
  6
CONTINUOUS
 62
    7
 10
13.816506596586578
 20
49.647480576780708
 40
0.2999999999999998
 50
0
 51
3.0000000000058189
  0
LINE
  8
_0-4_THICK_SOLID_LAYER
  6
CONTINUOUS
 62
    7
 10
14.116506596586532
 20
49.355336353249584
 11
14.116506596586532
 21
49.647480576780708
  0
LINE
  8
_0-4_THICK_SOLID_LAYER
  6
CONTINUOUS
 62
    7
 10
7.5169177361603943
 20
49.663181363650892
 11
7.7040480409425527
 21
53.233840287614044
  0
LINE
  8
_0-4_THICK_SOLID_LAYER
  6
CONTINUOUS
 62
    7
 10
10.028965152231422
 20
53.233840287614044
 11
10.216506596587124
 21
49.655336353249652
  0
ARC
  8
_0-4_THICK_SOLID_LAYER
  6
CONTINUOUS
 62
    7
 10
7.8165065965868052
 20
49.64748057677798
 40
0.2999999999999998
 50
176.99999999999591
 51
179.99999999999901
  0
LINE
  8
_0-4_THICK_SOLID_LAYER
  6
CONTINUOUS
 62
    7
 10
7.5165065965866233
 20
49.64748057677798
 11
7.5165065965866233
 21
49.355336353249584
  0
LINE
  8
_0-4_THICK_SOLID_LAYER
  6
CONTINUOUS
 62
    7
 10
11.663646002589985
 20
54.37103714012261
 11
11.672369559145636
 21
54.42880318252827
  0
LINE
  8
_0-4_THICK_SOLID_LAYER
  6
CONTINUOUS
 62
    7
 10
11.672369559145636
 20
54.42880318252827
 11
11.693118653460488
 21
54.485863106581064
  0
LINE
  8
_0-4_THICK_SOLID_LAYER
  6
CONTINUOUS
 62
    7
 10
11.693118653460488
 20
54.485863106581064
 11
11.704907140943078
 21
54.507870900183832
  0
LINE
  8
_0-4_THICK_SOLID_LAYER
  6
CONTINUOUS
 62
    7
 10
11.704907140943078
 20
54.507870900183832
 11
11.718698252399008
 21
54.529123136601584
  0
LINE
  8
_0-4_THICK_SOLID_LAYER
  6
CONTINUOUS
 62
    7
 10
11.718698252399008
 20
54.529123136601584
 11
11.734471820650697
 21
54.549417445702431
  0
LINE
  8
_0-4_THICK_SOLID_LAYER
  6
CONTINUOUS
 62
    7
 10
11.734471820650697
 20
54.549417445702431
 11
11.752186707886267
 21
54.568546756880039
  0
LINE
  8
_0-4_THICK_SOLID_LAYER
  6
CONTINUOUS
 62
    7
 10
11.752186707886267
 20
54.568546756880039
 11
11.771779472603157
 21
54.586301358135131
  0
LINE
  8
_0-4_THICK_SOLID_LAYER
  6
CONTINUOUS
 62
    7
 10
11.771779472603157
 20
54.586301358135131
 11
11.816506910729004
 21
54.617005816537983
  0
LINE
  8
_0-4_THICK_SOLID_LAYER
  6
CONTINUOUS
 62
    7
 10
11.816506910729004
 20
54.617005816537983
 11
11.880230973593598
 21
54.643625018203238
  0
LINE
  8
_0-4_THICK_SOLID_LAYER
  6
CONTINUOUS
 62
    7
 10
11.880230973593598
 20
54.643625018203238
 11
11.963234863016396
 21
54.655336353249709
  0
LINE
  8
_0-4_THICK_SOLID_LAYER
  6
CONTINUOUS
 62
    7
 10
12.905503133456023
 20
54.655336353249652
 11
11.963234863016396
 21
54.655336353249652
  0
LINE
  8
_0-4_THICK_SOLID_LAYER
  6
CONTINUOUS
 62
    7
 10
12.905503133456023
 20
54.655336353249652
 11
12.975315870121676
 21
54.652896467628409
  0
LINE
  8
_0-4_THICK_SOLID_LAYER
  6
CONTINUOUS
 62
    7
 10
12.975315870121676
 20
54.652896467628409
 11
13.039041786031021
 21
54.64637995888387
  0
LINE
  8
_0-4_THICK_SOLID_LAYER
  6
CONTINUOUS
 62
    7
 10
13.039041786031021
 20
54.64637995888387
 11
13.096529411925985
 21
54.636921276184978
  0
LINE
  8
_0-4_THICK_SOLID_LAYER
  6
CONTINUOUS
 62
    7
 10
13.096529411925985
 20
54.636921276184978
 11
13.147745124706944
 21
54.625552214630432
  0
LINE
  8
_0-4_THICK_SOLID_LAYER
  6
CONTINUOUS
 62
    7
 10
13.147745124706944
 20
54.625552214630432
 11
13.19274303282964
 21
54.613195027693791
  0
LINE
  8
_0-4_THICK_SOLID_LAYER
  6
CONTINUOUS
 62
    7
 10
13.19274303282964
 20
54.613195027693791
 11
13.231637755429119
 21
54.600659688596181
  0
LINE
  8
_0-4_THICK_SOLID_LAYER
  6
CONTINUOUS
 62
    7
 10
13.231637755429119
 20
54.600659688596181
 11
13.301938783811693
 21
54.573398864807132
  0
LINE
  8
_0-4_THICK_SOLID_LAYER
  6
CONTINUOUS
 62
    7
 10
13.301938783811693
 20
54.573398864807132
 11
13.367434276491849
 21
54.542252143555459
  0
LINE
  8
_0-4_THICK_SOLID_LAYER
  6
CONTINUOUS
 62
    7
 10
13.367434276491849
 20
54.542252143555459
 11
13.428047484980652
 21
54.507948457720261
  0
LINE
  8
_0-4_THICK_SOLID_LAYER
  6
CONTINUOUS
 62
    7
 10
13.428047484980652
 20
54.507948457720261
 11
13.483779456980528
 21
54.471177326510485
  0
LINE
  8
_0-4_THICK_SOLID_LAYER
  6
CONTINUOUS
 62
    7
 10
13.483779456980528
 20
54.471177326510485
 11
13.534698174393043
 21
54.432583804490548
  0
LINE
  8
_0-4_THICK_SOLID_LAYER
  6
CONTINUOUS
 62
    7
 10
13.534698174393043
 20
54.432583804490548
 11
13.609435789135659
 21
54.365603075170327
  0
LINE
  8
_0-4_THICK_SOLID_LAYER
  6
CONTINUOUS
 62
    7
 10
13.609435789135659
 20
54.365603075170327
 11
13.675576164757331
 21
54.293292093456159
  0
LINE
  8
_0-4_THICK_SOLID_LAYER
  6
CONTINUOUS
 62
    7
 10
13.675576164757331
 20
54.293292093456159
 11
13.732995156588913
 21
54.216813825328074
  0
LINE
  8
_0-4_THICK_SOLID_LAYER
  6
CONTINUOUS
 62
    7
 10
13.732995156588913
 20
54.216813825328074
 11
13.781708286113599
 21
54.137274658903323
  0
LINE
  8
_0-4_THICK_SOLID_LAYER
  6
CONTINUOUS
 62
    7
 10
13.781708286113599
 20
54.137274658903323
 11
13.830582790665403
 21
54.035109480020822
  0
LINE
  8
_0-4_THICK_SOLID_LAYER
  6
CONTINUOUS
 62
    7
 10
13.830582790665403
 20
54.035109480020822
 11
13.867466604602214
 21
53.928514463977478
  0
LINE
  8
_0-4_THICK_SOLID_LAYER
  6
CONTINUOUS
 62
    7
 10
13.867466604602214
 20
53.928514463977478
 11
13.892036516386725
 21
53.818896386153881
  0
LINE
  8
_0-4_THICK_SOLID_LAYER
  6
CONTINUOUS
 62
    7
 10
13.892036516386725
 20
53.818896386153881
 11
13.90413266821065
 21
53.707672309492636
  0
LINE
  8
_0-4_THICK_SOLID_LAYER
  6
CONTINUOUS
 62
    7
 10
13.90413266821065
 20
53.707672309492636
 11
13.928965152230603
 21
53.233840287614044
  0
LINE
  8
_0-4_THICK_SOLID_LAYER
  6
CONTINUOUS
 62
    7
 10
11.604048040942189
 20
53.233840287614044
 11
11.663646002589985
 21
54.37103714012261
  0
LINE
  8
_0-4_THICK_SOLID_LAYER
  6
CONTINUOUS
 62
    7
 10
7.7288805249625057
 20
53.707672309492693
 11
7.7409742572976938
 21
53.818881792026843
  0
LINE
  8
_0-4_THICK_SOLID_LAYER
  6
CONTINUOUS
 62
    7
 10
7.7409742572976938
 20
53.818881792026843
 11
7.7655412004746722
 21
53.928495489739646
  0
LINE
  8
_0-4_THICK_SOLID_LAYER
  6
CONTINUOUS
 62
    7
 10
7.7655412004746722
 20
53.928495489739646
 11
7.7887781207093667
 21
53.999984502362736
  0
LINE
  8
_0-4_THICK_SOLID_LAYER
  6
CONTINUOUS
 62
    7
 10
7.7887781207093667
 20
53.999984502362736
 11
7.8174057493154123
 21
54.069715580755485
  0
LINE
  8
_0-4_THICK_SOLID_LAYER
  6
CONTINUOUS
 62
    7
 10
7.8174057493154123
 20
54.069715580755485
 11
7.8513049070593297
 21
54.137274658903266
  0
LINE
  8
_0-4_THICK_SOLID_LAYER
  6
CONTINUOUS
 62
    7
 10
7.8513049070593297
 20
54.137274658903266
 11
7.8895685291638529
 21
54.201096365868864
  0
LINE
  8
_0-4_THICK_SOLID_LAYER
  6
CONTINUOUS
 62
    7
 10
7.8895685291638529
 20
54.201096365868864
 11
7.9333987598486146
 21
54.263108714764542
  0
LINE
  8
_0-4_THICK_SOLID_LAYER
  6
CONTINUOUS
 62
    7
 10
7.9333987598486146
 20
54.263108714764542
 11
7.9828260794597554
 21
54.322753591226103
  0
LINE
  8
_0-4_THICK_SOLID_LAYER
  6
CONTINUOUS
 62
    7
 10
7.9828260794597554
 20
54.322753591226103
 11
8.0378262687668212
 21
54.379447027456479
  0
LINE
  8
_0-4_THICK_SOLID_LAYER
  6
CONTINUOUS
 62
    7
 10
8.0378262687668212
 20
54.379447027456479
 11
8.0983150187803403
 21
54.432583804490662
  0
LINE
  8
_0-4_THICK_SOLID_LAYER
  6
CONTINUOUS
 62
    7
 10
8.0983150187803403
 20
54.432583804490662
 11
8.134185930164449
 21
54.460300002920121
  0
LINE
  8
_0-4_THICK_SOLID_LAYER
  6
CONTINUOUS
 62
    7
 10
8.134185930164449
 20
54.460300002920121
 11
8.1725018591994285
 21
54.487181229027726
  0
LINE
  8
_0-4_THICK_SOLID_LAYER
  6
CONTINUOUS
 62
    7
 10
8.1725018591994285
 20
54.487181229027726
 11
8.2132975485044426
 21
54.51299916188276
  0
LINE
  8
_0-4_THICK_SOLID_LAYER
  6
CONTINUOUS
 62
    7
 10
8.2132975485044426
 20
54.51299916188276
 11
8.2565918781942855
 21
54.537513243851151
  0
LINE
  8
_0-4_THICK_SOLID_LAYER
  6
CONTINUOUS
 62
    7
 10
8.2565918781942855
 20
54.537513243851151
 11
8.302385873328376
 21
54.560471385246103
  0
LINE
  8
_0-4_THICK_SOLID_LAYER
  6
CONTINUOUS
 62
    7
 10
8.302385873328376
 20
54.560471385246103
 11
8.3506606667722281
 21
54.581610899503119
  0
LINE
  8
_0-4_THICK_SOLID_LAYER
  6
CONTINUOUS
 62
    7
 10
8.3506606667722281
 20
54.581610899503119
 11
8.40137543774199
 21
54.600659688595385
  0
LINE
  8
_0-4_THICK_SOLID_LAYER
  6
CONTINUOUS
 62
    7
 10
8.40137543774199
 20
54.600659688595385
 11
8.4852489469042212
 21
54.625547440188313
  0
LINE
  8
_0-4_THICK_SOLID_LAYER
  6
CONTINUOUS
 62
    7
 10
8.4852489469042212
 20
54.625547440188313
 11
8.5939518750737989
 21
54.64637732682985
  0
LINE
  8
_0-4_THICK_SOLID_LAYER
  6
CONTINUOUS
 62
    7
 10
8.5939518750737989
 20
54.64637732682985
 11
8.7275100597171331
 21
54.655336353249652
  0
LINE
  8
_0-4_THICK_SOLID_LAYER
  6
CONTINUOUS
 62
    7
 10
9.6697783301574418
 20
54.655336353249595
 11
8.7275100597171331
 21
54.655336353249595
  0
LINE
  8
_0-4_THICK_SOLID_LAYER
  6
CONTINUOUS
 62
    7
 10
9.6697783301574418
 20
54.655336353249652
 11
9.7075360324247413
 21
54.652950794968319
  0
LINE
  8
_0-4_THICK_SOLID_LAYER
  6
CONTINUOUS
 62
    7
 10
9.7075360324247413
 20
54.652950794968319
 11
9.7420450377176167
 21
54.646502153058748
  0
LINE
  8
_0-4_THICK_SOLID_LAYER
  6
CONTINUOUS
 62
    7
 10
9.7420450377176167
 20
54.646502153058748
 11
9.7730038587769741
 21
54.637017893719133
  0
LINE
  8
_0-4_THICK_SOLID_LAYER
  6
CONTINUOUS
 62
    7
 10
9.7730038587769741
 20
54.637017893719133
 11
9.8003060947644371
 21
54.625452074130067
  0
LINE
  8
_0-4_THICK_SOLID_LAYER
  6
CONTINUOUS
 62
    7
 10
9.8003060947644371
 20
54.625452074130067
 11
9.8239965630191364
 21
54.612662482224209
  0
LINE
  8
_0-4_THICK_SOLID_LAYER
  6
CONTINUOUS
 62
    7
 10
9.8239965630191364
 20
54.612662482224209
 11
9.8442299630632988
 21
54.59939910701695
  0
LINE
  8
_0-4_THICK_SOLID_LAYER
  6
CONTINUOUS
 62
    7
 10
9.8442299630632988
 20
54.59939910701695
 11
9.8612337205706808
 21
54.586301358135131
  0
LINE
  8
_0-4_THICK_SOLID_LAYER
  6
CONTINUOUS
 62
    7
 10
9.8612337205706808
 20
54.586301358135131
 11
9.9066692804547074
 21
54.539408832635843
  0
LINE
  8
_0-4_THICK_SOLID_LAYER
  6
CONTINUOUS
 62
    7
 10
9.9066692804547074
 20
54.539408832635843
 11
9.9398901713536816
 21
54.485872146217105
  0
LINE
  8
_0-4_THICK_SOLID_LAYER
  6
CONTINUOUS
 62
    7
 10
9.9398901713536816
 20
54.485872146217105
 11
9.9606417899558437
 21
54.428810483078962
  0
LINE
  8
_0-4_THICK_SOLID_LAYER
  6
CONTINUOUS
 62
    7
 10
9.9606417899558437
 20
54.428810483078962
 11
9.9693671905838528
 21
54.37103714012261
  0
LINE
  8
_0-4_THICK_SOLID_LAYER
  6
CONTINUOUS
 62
    7
 10
7.7040480409425527
 20
53.233840287614044
 11
7.7288805249622783
 21
53.707672309492693
  0
LINE
  8
_0-4_THICK_SOLID_LAYER
  6
CONTINUOUS
 62
    7
 10
9.9693671905838528
 20
54.37103714012261
 11
10.028965152231422
 21
53.233840287614044
  0
LINE
  8
_0-4_THICK_SOLID_LAYER
  6
CONTINUOUS
 62
    7
 10
56.383814048572958
 20
82.036566008849888
 11
56.358549288922632
 21
82.061830765644743
  0
LINE
  8
_0-4_THICK_SOLID_LAYER
  6
CONTINUOUS
 62
    7
 10
56.358549288922632
 20
82.041385098751846
 11
56.383814048572958
 21
82.036566008849888
  0
ARC
  8
_0-4_THICK_SOLID_LAYER
  6
CONTINUOUS
 62
    7
 10
72.3838142888942
 20
69.236566010874583
 40
1
 50
270
 51
0
  0
LINE
  8
_0-4_THICK_SOLID_LAYER
  6
CONTINUOUS
 62
    7
 10
66.773714107065643
 20
68.236566010874583
 11
72.3838142888942
 21
68.236566010874583
  0
LINE
  8
_0-4_THICK_SOLID_LAYER
  6
CONTINUOUS
 62
    7
 10
66.467527875011228
 20
68.352854294372435
 11
66.515612508433378
 21
68.312891830715046
  0
LINE
  8
_0-4_THICK_SOLID_LAYER
  6
CONTINUOUS
 62
    7
 10
66.515612508433378
 20
68.312891830715046
 11
66.572255440089748
 21
68.280346098884536
  0
LINE
  8
_0-4_THICK_SOLID_LAYER
  6
CONTINUOUS
 62
    7
 10
66.572255440089748
 20
68.280346098884536
 11
66.635578467348296
 21
68.256296271116753
  0
LINE
  8
_0-4_THICK_SOLID_LAYER
  6
CONTINUOUS
 62
    7
 10
66.635578467348296
 20
68.256296271116753
 11
66.703481884685061
 21
68.241539807015272
  0
LINE
  8
_0-4_THICK_SOLID_LAYER
  6
CONTINUOUS
 62
    7
 10
66.703481884685061
 20
68.241539807015272
 11
66.773714107065643
 21
68.236566010874583
  0
LINE
  8
_0-4_THICK_SOLID_LAYER
  6
CONTINUOUS
 62
    7
 10
65.459912044774683
 20
69.360470110402446
 11
66.467527875011228
 21
68.3528542801659
  0
LINE
  8
_0-4_THICK_SOLID_LAYER
  6
CONTINUOUS
 62
    7
 10
65.459912069026814
 20
69.360470100356849
 11
65.405992603852383
 21
69.402019283476022
  0
LINE
  8
_0-4_THICK_SOLID_LAYER
  6
CONTINUOUS
 62
    7
 10
65.405992603852383
 20
69.402019283476022
 11
65.343706845380211
 21
69.427818893370272
  0
LINE
  8
_0-4_THICK_SOLID_LAYER
  6
CONTINUOUS
 62
    7
 10
65.343706845380211
 20
69.427818893370272
 11
65.276200318242218
 21
69.436566010874628
  0
LINE
  8
_0-4_THICK_SOLID_LAYER
  6
CONTINUOUS
 62
    7
 10
65.27620031822903
 20
69.436566010880199
 11
56.491429886836158
 21
69.436566010880199
  0
LINE
  8
_0-4_THICK_SOLID_LAYER
  6
CONTINUOUS
 62
    7
 10
56.491429886822971
 20
69.436566010874628
 11
56.423923375116374
 21
69.427818897477664
  0
LINE
  8
_0-4_THICK_SOLID_LAYER
  6
CONTINUOUS
 62
    7
 10
56.423923375116374
 20
69.427818897477664
 11
56.361637628844619
 21
69.402019299490519
  0
LINE
  8
_0-4_THICK_SOLID_LAYER
  6
CONTINUOUS
 62
    7
 10
56.361637628844619
 20
69.402019299490519
 11
56.307718170546877
 21
69.360470134865352
  0
LINE
  8
_0-4_THICK_SOLID_LAYER
  6
CONTINUOUS
 62
    7
 10
55.300101196114156
 20
68.352854952005771
 11
56.307718150996379
 21
69.360470126767268
  0
LINE
  8
_0-4_THICK_SOLID_LAYER
  6
CONTINUOUS
 62
    7
 10
54.993916097999545
 20
68.236566010874583
 11
55.064147956178203
 21
68.241539754995472
  0
LINE
  8
_0-4_THICK_SOLID_LAYER
  6
CONTINUOUS
 62
    7
 10
55.064147956178203
 20
68.241539754995472
 11
55.132051045745357
 21
68.25629606648755
  0
LINE
  8
_0-4_THICK_SOLID_LAYER
  6
CONTINUOUS
 62
    7
 10
55.132051045745357
 20
68.25629606648755
 11
55.195373816084384
 21
68.280345651233858
  0
LINE
  8
_0-4_THICK_SOLID_LAYER
  6
CONTINUOUS
 62
    7
 10
55.195373816084384
 20
68.280345651233858
 11
55.25201659215054
 21
68.312891066029636
  0
LINE
  8
_0-4_THICK_SOLID_LAYER
  6
CONTINUOUS
 62
    7
 10
55.25201659215054
 20
68.312891066029636
 11
55.300101196114156
 21
68.352853160438201
  0
LINE
  8
_0-4_THICK_SOLID_LAYER
  6
CONTINUOUS
 62
    7
 10
49.3838142888942
 20
68.236566010874583
 11
54.993916097999545
 21
68.236566010874583
  0
ARC
  8
_0-4_THICK_SOLID_LAYER
  6
CONTINUOUS
 62
    7
 10
49.3838142888942
 20
69.236566010874583
 40
1
 50
180
 51
270
  0
LINE
  8
_0-4_THICK_SOLID_LAYER
  6
CONTINUOUS
 62
    7
 10
48.3838142888942
 20
82.236566010874583
 11
48.3838142888942
 21
69.236566010874583
  0
ARC
  8
_0-4_THICK_SOLID_LAYER
  6
CONTINUOUS
 62
    7
 10
49.3838142888942
 20
82.236566010874583
 40
1
 50
90
 51
180.00000000000159
  0
LINE
  8
_0-4_THICK_SOLID_LAYER
  6
CONTINUOUS
 62
    7
 10
49.3838142888942
 20
83.236566010874583
 11
54.993916097999318
 21
83.236566010874583
  0
LINE
  8
_0-4_THICK_SOLID_LAYER
  6
CONTINUOUS
 62
    7
 10
55.300101196113928
 20
83.120278861311078
 11
55.252016592150312
 21
83.160240955719473
  0
LINE
  8
_0-4_THICK_SOLID_LAYER
  6
CONTINUOUS
 62
    7
 10
55.252016592150312
 20
83.160240955719473
 11
55.195373816084157
 21
83.19278637051525
  0
LINE
  8
_0-4_THICK_SOLID_LAYER
  6
CONTINUOUS
 62
    7
 10
55.195373816084157
 20
83.19278637051525
 11
55.132051045745129
 21
83.216835955261672
  0
LINE
  8
_0-4_THICK_SOLID_LAYER
  6
CONTINUOUS
 62
    7
 10
55.132051045745129
 20
83.216835955261672
 11
55.064147956177976
 21
83.231592266753694
  0
LINE
  8
_0-4_THICK_SOLID_LAYER
  6
CONTINUOUS
 62
    7
 10
55.064147956177976
 20
83.231592266753694
 11
54.993916097999318
 21
83.236566010874583
  0
LINE
  8
_0-4_THICK_SOLID_LAYER
  6
CONTINUOUS
 62
    7
 10
56.307717353104636
 20
82.112660912752688
 11
55.300101196113928
 21
83.120277069743395
  0
LINE
  8
_0-4_THICK_SOLID_LAYER
  6
CONTINUOUS
 62
    7
 10
56.307720411556602
 20
82.112659645900351
 11
56.361639423278802
 21
82.071111682272488
  0
LINE
  8
_0-4_THICK_SOLID_LAYER
  6
CONTINUOUS
 62
    7
 10
56.361639423278802
 20
82.071111682272488
 11
56.423924377236972
 21
82.045312857539727
  0
LINE
  8
_0-4_THICK_SOLID_LAYER
  6
CONTINUOUS
 62
    7
 10
56.423924377236972
 20
82.045312857539727
 11
56.491429886822971
 21
82.036566010874367
  0
LINE
  8
_0-4_THICK_SOLID_LAYER
  6
CONTINUOUS
 62
    7
 10
56.491429886835931
 20
82.036566010868967
 11
65.276200318229257
 21
82.036566010868967
  0
LINE
  8
_0-4_THICK_SOLID_LAYER
  6
CONTINUOUS
 62
    7
 10
65.276200318242218
 20
82.036566010874367
 11
65.343706845380211
 21
82.045313128378723
  0
LINE
  8
_0-4_THICK_SOLID_LAYER
  6
CONTINUOUS
 62
    7
 10
65.343706845380211
 20
82.045313128378723
 11
65.40599260385261
 21
82.07111273827303
  0
LINE
  8
_0-4_THICK_SOLID_LAYER
  6
CONTINUOUS
 62
    7
 10
65.40599260385261
 20
82.07111273827303
 11
65.459912069027041
 21
82.112661921392373
  0
LINE
  8
_0-4_THICK_SOLID_LAYER
  6
CONTINUOUS
 62
    7
 10
65.459912044774683
 20
82.112661911346663
 11
66.467527875011228
 21
83.120277741583266
  0
LINE
  8
_0-4_THICK_SOLID_LAYER
  6
CONTINUOUS
 62
    7
 10
66.773714107065871
 20
83.236566010874583
 11
66.703481884685061
 21
83.231592214733951
  0
LINE
  8
_0-4_THICK_SOLID_LAYER
  6
CONTINUOUS
 62
    7
 10
66.703481884685061
 20
83.231592214733951
 11
66.635578467348523
 21
83.21683575063247
  0
LINE
  8
_0-4_THICK_SOLID_LAYER
  6
CONTINUOUS
 62
    7
 10
66.635578467348523
 20
83.21683575063247
 11
66.572255440089975
 21
83.192785922864573
  0
LINE
  8
_0-4_THICK_SOLID_LAYER
  6
CONTINUOUS
 62
    7
 10
66.572255440089975
 20
83.192785922864573
 11
66.515612508433378
 21
83.160240191034063
  0
LINE
  8
_0-4_THICK_SOLID_LAYER
  6
CONTINUOUS
 62
    7
 10
66.515612508433378
 20
83.160240191034063
 11
66.467527875011228
 21
83.120277727376674
  0
LINE
  8
_0-4_THICK_SOLID_LAYER
  6
CONTINUOUS
 62
    7
 10
66.773714107065871
 20
83.236566010874583
 11
72.3838142888942
 21
83.236566010874697
  0
ARC
  8
_0-4_THICK_SOLID_LAYER
  6
CONTINUOUS
 62
    7
 10
72.3838142888942
 20
82.236566010874697
 40
1
 50
0.0000000000032569
 51
90
  0
LINE
  8
_0-4_THICK_SOLID_LAYER
  6
CONTINUOUS
 62
    7
 10
73.3838142888942
 20
82.236566010874697
 11
73.3838142888942
 21
79.236566010874753
  0
ARC
  8
_0-4_THICK_SOLID_LAYER
  6
CONTINUOUS
 62
    7
 10
72.3838142888942
 20
79.236566010874753
 40
1
 50
270
 51
0
  0
LINE
  8
_0-4_THICK_SOLID_LAYER
  6
CONTINUOUS
 62
    7
 10
72.3838142888942
 20
78.236566010874753
 11
70.383703177782991
 21
78.236566010874924
  0
LINE
  8
_0-4_THICK_SOLID_LAYER
  6
CONTINUOUS
 62
    7
 10
70.383703177782991
 20
79.936566010874401
 11
70.383703177782991
 21
78.236566010874924
  0
ARC
  8
_0-4_THICK_SOLID_LAYER
  6
CONTINUOUS
 62
    7
 10
70.083703177782809
 20
79.936566010874401
 40
0.2999999999999998
 50
0
 51
90
  0
LINE
  8
_0-4_THICK_SOLID_LAYER
  6
CONTINUOUS
 62
    7
 10
51.683703177782945
 20
80.236566010874355
 11
70.083703177782809
 21
80.236566010874469
  0
ARC
  8
_0-4_THICK_SOLID_LAYER
  6
CONTINUOUS
 62
    7
 10
51.683703177782945
 20
79.936566010874401
 40
0.2999999999999998
 50
90
 51
180
  0
LINE
  8
_0-4_THICK_SOLID_LAYER
  6
CONTINUOUS
 62
    7
 10
51.383703177782991
 20
71.536566010874367
 11
51.383703177782991
 21
79.936566010874401
  0
ARC
  8
_0-4_THICK_SOLID_LAYER
  6
CONTINUOUS
 62
    7
 10
51.683703177782945
 20
71.536566010874367
 40
0.2999999999999998
 50
179.9999999999946
 51
270
  0
LINE
  8
_0-4_THICK_SOLID_LAYER
  6
CONTINUOUS
 62
    7
 10
70.083703177783036
 20
71.236566010874355
 11
51.683703177782945
 21
71.236566010874355
  0
ARC
  8
_0-4_THICK_SOLID_LAYER
  6
CONTINUOUS
 62
    7
 10
70.083703177783036
 20
71.536566010874367
 40
0.2999999999999998
 50
270
 51
0.0000000000053942
  0
LINE
  8
_0-4_THICK_SOLID_LAYER
  6
CONTINUOUS
 62
    7
 10
70.383703177782991
 20
73.236566010874697
 11
70.383703177782991
 21
71.536566010874424
  0
LINE
  8
_0-4_THICK_SOLID_LAYER
  6
CONTINUOUS
 62
    7
 10
70.383703177782991
 20
73.236566010874697
 11
72.3838142888942
 21
73.236566010874697
  0
ARC
  8
_0-4_THICK_SOLID_LAYER
  6
CONTINUOUS
 62
    7
 10
72.3838142888942
 20
72.236566010874697
 40
1
 50
0
 51
90
  0
LINE
  8
_0-4_THICK_SOLID_LAYER
  6
CONTINUOUS
 62
    7
 10
73.3838142888942
 20
72.236566010874697
 11
73.3838142888942
 21
69.236566010874583
  0
LINE
  8
_0-4_THICK_SOLID_LAYER
  6
CONTINUOUS
 62
    7
 10
65.40954928892279
 20
69.436566010880199
 11
65.383816159585876
 21
69.436566010514923
  0
LINE
  8
_0-4_THICK_SOLID_LAYER
  6
CONTINUOUS
 62
    7
 10
65.383816159585876
 20
69.436566010514923
 11
65.40954928892279
 21
69.410832870989964
  0
LINE
  8
_0-4_THICK_SOLID_LAYER
  6
CONTINUOUS
 62
    7
 10
65.40954928892279
 20
69.410832870989964
 11
65.40954928892279
 21
69.436566010880199
  0
LINE
  8
_0-4_THICK_SOLID_LAYER
  6
CONTINUOUS
 62
    7
 10
56.3838140457176
 20
69.436566010880199
 11
56.358549288922632
 21
69.436566010880199
  0
LINE
  8
_0-4_THICK_SOLID_LAYER
  6
CONTINUOUS
 62
    7
 10
56.358549288922632
 20
69.436566010880199
 11
56.358549956467868
 21
69.411301932238871
  0
LINE
  8
_0-4_THICK_SOLID_LAYER
  6
CONTINUOUS
 62
    7
 10
56.3838140457176
 20
69.436566010880199
 11
56.358549956467868
 21
69.411301932238871
  0
LINE
  8
_0-4_THICK_SOLID_LAYER
  6
CONTINUOUS
 62
    7
 10
56.358549288922632
 20
82.036566010868967
 11
56.383814048572958
 21
82.036566008849888
  0
LINE
  8
_0-4_THICK_SOLID_LAYER
  6
CONTINUOUS
 62
    7
 10
56.358549288922632
 20
82.061830765644743
 11
56.358549288922632
 21
82.036566010868967
  0
LINE
  8
_0-4_THICK_SOLID_LAYER
  6
CONTINUOUS
 62
    7
 10
65.383816120596293
 20
82.036566010868967
 11
65.40954928892279
 21
82.036566010868967
  0
LINE
  8
_0-4_THICK_SOLID_LAYER
  6
CONTINUOUS
 62
    7
 10
65.40954928892279
 20
82.036566010868967
 11
65.409549274716028
 21
82.062299164965737
  0
LINE
  8
_0-4_THICK_SOLID_LAYER
  6
CONTINUOUS
 62
    7
 10
65.383816120596293
 20
82.036566010868967
 11
65.409549274716028
 21
82.062299164965737
  0
LINE
  8
_0-4_THICK_SOLID_LAYER
  6
CONTINUOUS
 62
    7
 10
65.40954928892279
 20
69.431657574490544
 11
65.383816159585876
 21
69.436566010514923
  0
LINE
  8
_0-4_THICK_SOLID_LAYER
  6
CONTINUOUS
 62
    7
 10
65.383816120596293
 20
82.036566010868967
 11
65.40954928892279
 21
82.041474447258565
  0
LINE
  8
_0-4_THICK_SOLID_LAYER
  6
CONTINUOUS
 62
    7
 10
56.3838140457176
 20
69.436566010880199
 11
56.358549288922632
 21
69.431746922997263
  0
LINE
  8
_0-4_THICK_SOLID_LAYER
  6
CONTINUOUS
 62
    7
 10
54.993916097999318
 20
83.236566010874583
 11
56.541374572127779
 21
83.236566010874583
  0
LINE
  8
_0-4_THICK_SOLID_LAYER
  6
CONTINUOUS
 62
    7
 10
56.541374572127779
 20
68.236566010874583
 11
54.993916097999545
 21
68.236566010874583
  0
LINE
  8
_0-4_THICK_SOLID_LAYER
  6
CONTINUOUS
 62
    7
 10
66.773714107065643
 20
68.236566010874583
 11
65.226255632937409
 21
68.236566010874583
  0
LINE
  8
_0-4_THICK_SOLID_LAYER
  6
CONTINUOUS
 62
    7
 10
65.226255632937637
 20
83.236566010874583
 11
66.773714107065871
 21
83.236566010874583
  0
ARC
  8
_0-4_THICK_SOLID_LAYER
  6
CONTINUOUS
 62
    7
 10
69.583814288895155
 20
77.936566010874969
 40
0.2999999999999756
 50
90
 51
180.00000000001631
  0
ARC
  8
_0-4_THICK_SOLID_LAYER
  6
CONTINUOUS
 62
    7
 10
69.583814288895155
 20
73.536566010874367
 40
0.299999999999705
 50
179.9999999999946
 51
270
  0
LINE
  8
_0-4_THICK_SOLID_LAYER
  6
CONTINUOUS
 62
    7
 10
69.283814288895428
 20
73.536566010874367
 11
69.283814288895201
 21
77.936566010874969
  0
LINE
  8
_0-4_THICK_SOLID_LAYER
  6
CONTINUOUS
 62
    7
 10
70.383703177782991
 20
73.236566010874697
 11
69.583814288895155
 21
73.236566010874697
  0
LINE
  8
_0-4_THICK_SOLID_LAYER
  6
CONTINUOUS
 62
    7
 10
69.583814288895155
 20
78.236566010874924
 11
70.383703177782991
 21
78.236566010874924
  0
LINE
  8
_0-4_THICK_SOLID_LAYER
  6
CONTINUOUS
 62
    7
 10
65.226255632937409
 20
68.236566010874583
 11
64.79579227180875
 21
68.236566010874583
  0
LINE
  8
_0-4_THICK_SOLID_LAYER
  6
CONTINUOUS
 62
    7
 10
56.971837933256211
 20
68.236566010874583
 11
56.541374572127779
 21
68.236566010874583
  0
LINE
  8
_0-4_THICK_SOLID_LAYER
  6
CONTINUOUS
 62
    7
 10
64.795792271808978
 20
83.236566010874583
 11
65.226255632937637
 21
83.236566010874583
  0
LINE
  8
_0-4_THICK_SOLID_LAYER
  6
CONTINUOUS
 62
    7
 10
56.541374572127779
 20
83.236566010874583
 11
56.971837933256211
 21
83.236566010874583
  0
LINE
  8
_0-4_THICK_SOLID_LAYER
  6
CONTINUOUS
 62
    7
 10
64.79579227180875
 20
68.236566010874583
 11
56.971837933256211
 21
68.236566010874583
  0
LINE
  8
_0-4_THICK_SOLID_LAYER
  6
CONTINUOUS
 62
    7
 10
56.971837933256211
 20
83.236566010874583
 11
64.795792271808978
 21
83.236566010874583
  0
LINE
  8
_0-4_THICK_SOLID_LAYER
  6
CONTINUOUS
 62
    7
 10
47.383814065568004
 20
73.016450822312493
 11
47.188723775222343
 21
72.997209695297158
  0
LINE
  8
_0-4_THICK_SOLID_LAYER
  6
CONTINUOUS
 62
    7
 10
47.188723775222343
 20
72.997209695297158
 11
47.001130701784177
 21
72.940225827019447
  0
LINE
  8
_0-4_THICK_SOLID_LAYER
  6
CONTINUOUS
 62
    7
 10
47.001130701784177
 20
72.940225827019447
 11
46.828243939819004
 21
72.847689074959646
  0
LINE
  8
_0-4_THICK_SOLID_LAYER
  6
CONTINUOUS
 62
    7
 10
46.828243939819004
 20
72.847689074959646
 11
46.676707428749978
 21
72.723155573596273
  0
LINE
  8
_0-4_THICK_SOLID_LAYER
  6
CONTINUOUS
 62
    7
 10
46.676707428749978
 20
72.723155573596273
 11
46.552344630064226
 21
72.571411074191076
  0
LINE
  8
_0-4_THICK_SOLID_LAYER
  6
CONTINUOUS
 62
    7
 10
46.552344630064226
 20
72.571411074191076
 11
46.459934735017214
 21
72.398287031104189
  0
LINE
  8
_0-4_THICK_SOLID_LAYER
  6
CONTINUOUS
 62
    7
 10
46.459934735017214
 20
72.398287031104189
 11
46.403029003044821
 21
72.210436502336449
  0
LINE
  8
_0-4_THICK_SOLID_LAYER
  6
CONTINUOUS
 62
    7
 10
46.403029003044821
 20
72.210436502336449
 11
46.3838142888942
 21
72.015078476314557
  0
ARC
  8
_0-4_THICK_SOLID_LAYER
  6
CONTINUOUS
 62
    7
 10
47.3838142888942
 20
69.236566010874583
 40
1
 50
180
 51
270
  0
LINE
  8
_0-4_THICK_SOLID_LAYER
  6
CONTINUOUS
 62
    7
 10
46.3838142888942
 20
69.236566010874583
 11
46.3838142888942
 21
72.015078476314557
  0
LINE
  8
_0-4_THICK_SOLID_LAYER
  6
CONTINUOUS
 62
    7
 10
48.3838142888942
 20
73.016450822312549
 11
47.3838142888942
 21
73.016450822312493
  0
LINE
  8
_0-4_THICK_SOLID_LAYER
  6
CONTINUOUS
 62
    7
 10
49.3838142888942
 20
68.236566010874469
 11
47.3838142888942
 21
68.236566010874469
  0
LINE
  8
_0-4_THICK_SOLID_LAYER
  6
CONTINUOUS
 62
    7
 10
46.3838142888942
 20
79.458053545434552
 11
46.403029008490876
 21
79.262695491995771
  0
LINE
  8
_0-4_THICK_SOLID_LAYER
  6
CONTINUOUS
 62
    7
 10
46.403029008490876
 20
79.262695491995771
 11
46.459934756382836
 21
79.074844938992555
  0
LINE
  8
_0-4_THICK_SOLID_LAYER
  6
CONTINUOUS
 62
    7
 10
46.459934756382836
 20
79.074844938992555
 11
46.552344676591702
 21
78.901720877829064
  0
LINE
  8
_0-4_THICK_SOLID_LAYER
  6
CONTINUOUS
 62
    7
 10
46.552344676591702
 20
78.901720877829064
 11
46.676707507707761
 21
78.749976369086653
  0
LINE
  8
_0-4_THICK_SOLID_LAYER
  6
CONTINUOUS
 62
    7
 10
46.676707507707761
 20
78.749976369086653
 11
46.82824405587462
 21
78.625442869137203
  0
LINE
  8
_0-4_THICK_SOLID_LAYER
  6
CONTINUOUS
 62
    7
 10
46.82824405587462
 20
78.625442869137203
 11
47.001130856529016
 21
78.532906130544291
  0
LINE
  8
_0-4_THICK_SOLID_LAYER
  6
CONTINUOUS
 62
    7
 10
47.001130856529016
 20
78.532906130544291
 11
47.188723966878115
 21
78.475922288276877
  0
LINE
  8
_0-4_THICK_SOLID_LAYER
  6
CONTINUOUS
 62
    7
 10
47.188723966878115
 20
78.475922288276877
 11
47.3838142888942
 21
78.456681199436559
  0
LINE
  8
_0-4_THICK_SOLID_LAYER
  6
CONTINUOUS
 62
    7
 10
46.3838142888942
 20
79.458053545434552
 11
46.3838142888942
 21
82.236566010874583
  0
ARC
  8
_0-4_THICK_SOLID_LAYER
  6
CONTINUOUS
 62
    7
 10
47.3838142888942
 20
82.236566010874583
 40
1
 50
90
 51
180.00000000000159
  0
LINE
  8
_0-4_THICK_SOLID_LAYER
  6
CONTINUOUS
 62
    7
 10
47.3838142888942
 20
78.456681199436559
 11
48.3838142888942
 21
78.456681199436559
  0
LINE
  8
_0-4_THICK_SOLID_LAYER
  6
CONTINUOUS
 62
    7
 10
49.3838142888942
 20
83.236566010874583
 11
47.3838142888942
 21
83.236566010874583
  0
LINE
  8
_0-4_THICK_SOLID_LAYER
  6
CONTINUOUS
 62
    7
 10
62.123045146447339
 20
76.336566010874662
 11
64.383814288893745
 21
76.336566010873923
  0
LINE
  8
_0-4_THICK_SOLID_LAYER
  6
CONTINUOUS
 62
    7
 10
59.644583431341289
 20
76.336566010874662
 11
62.123045146447339
 21
76.336566010874662
  0
LINE
  8
_0-4_THICK_SOLID_LAYER
  6
CONTINUOUS
 62
    7
 10
57.383814288893745
 20
76.336566010873923
 11
59.644583431341289
 21
76.336566010874662
  0
LINE
  8
_0-4_THICK_SOLID_LAYER
  6
CONTINUOUS
 62
    7
 10
57.383814288893745
 20
75.136566010874446
 11
59.644583431343335
 21
75.136566010874446
  0
LINE
  8
_0-4_THICK_SOLID_LAYER
  6
CONTINUOUS
 62
    7
 10
59.644583431343335
 20
75.136566010874446
 11
62.123045146448021
 21
75.136566010876152
  0
LINE
  8
_0-4_THICK_SOLID_LAYER
  6
CONTINUOUS
 62
    7
 10
62.123045146448021
 20
75.136566010876152
 11
64.383814288893745
 21
75.136566010874446
  0
LINE
  8
_0-4_THICK_SOLID_LAYER
  6
CONTINUOUS
 62
    7
 10
64.383814288893745
 20
72.736566010874469
 11
64.383814288893745
 21
75.136566010874446
  0
LINE
  8
_0-4_THICK_SOLID_LAYER
  6
CONTINUOUS
 62
    7
 10
64.383814288893745
 20
76.336566010873923
 11
64.383814288893745
 21
78.736566010874469
  0
LINE
  8
_0-4_THICK_SOLID_LAYER
  6
CONTINUOUS
 62
    7
 10
57.383814288893745
 20
72.736566010874469
 11
57.383814288893745
 21
75.136566010874446
  0
LINE
  8
_0-4_THICK_SOLID_LAYER
  6
CONTINUOUS
 62
    7
 10
57.383814288893745
 20
76.336566010873923
 11
57.383814288893745
 21
78.736566010874355
  0
LINE
  8
_0-4_THICK_SOLID_LAYER
  6
CONTINUOUS
 62
    7
 10
57.383402585094245
 20
72.436566010874571
 11
64.384225992693018
 21
72.436566010874401
  0
LINE
  8
_0-4_THICK_SOLID_LAYER
  6
CONTINUOUS
 62
    7
 10
64.384225992693018
 20
79.036566010874424
 11
57.383402585094245
 21
79.036566010874367
  0
ARC
  8
_0-4_THICK_SOLID_LAYER
  6
CONTINUOUS
 62
    7
 10
60.883814288894428
 20
75.736566010874753
 40
1.376841718685001
 50
334.1650670134519
 51
25.834932986603743
  0
ARC
  8
_0-4_THICK_SOLID_LAYER
  6
CONTINUOUS
 62
    7
 10
60.883814288894428
 20
75.736566010874753
 40
1.376841718685001
 50
154.16506701339631
 51
205.83493298665999
  0
LINE
  8
_0-4_THICK_SOLID_LAYER
  6
CONTINUOUS
 62
    7
 10
64.399536622678625
 20
72.436566010874401
 11
65.483814288894337
 21
72.436566010874401
  0
ARC
  8
_0-4_THICK_SOLID_LAYER
  6
CONTINUOUS
 62
    7
 10
65.483814288894337
 20
72.736566010874469
 40
0.3000000000000114
 50
270
 51
0
  0
LINE
  8
_0-4_THICK_SOLID_LAYER
  6
CONTINUOUS
 62
    7
 10
65.783814288894291
 20
72.736566010874469
 11
65.783814288894291
 21
78.736566010874469
  0
ARC
  8
_0-4_THICK_SOLID_LAYER
  6
CONTINUOUS
 62
    7
 10
65.483814288894337
 20
78.736566010874469
 40
0.3000000000000114
 50
0.0000000000054281
 51
90.000000000000014
  0
LINE
  8
_0-4_THICK_SOLID_LAYER
  6
CONTINUOUS
 62
    7
 10
56.283814288894064
 20
72.436566010874571
 11
57.368091955108639
 21
72.436566010874571
  0
LINE
  8
_0-4_THICK_SOLID_LAYER
  6
CONTINUOUS
 62
    7
 10
65.483814288894337
 20
79.036566010874424
 11
64.399536622678625
 21
79.036566010874424
  0
ARC
  8
_0-4_THICK_SOLID_LAYER
  6
CONTINUOUS
 62
    7
 10
56.283814288894064
 20
72.736566010874469
 40
0.3000000000000114
 50
180
 51
270
  0
LINE
  8
_0-4_THICK_SOLID_LAYER
  6
CONTINUOUS
 62
    7
 10
57.368091955108639
 20
79.036566010874367
 11
56.283814288894064
 21
79.036566010874367
  0
LINE
  8
_0-4_THICK_SOLID_LAYER
  6
CONTINUOUS
 62
    7
 10
55.983814288894109
 20
78.736566010874469
 11
55.983814288894109
 21
72.736566010874469
  0
ARC
  8
_0-4_THICK_SOLID_LAYER
  6
CONTINUOUS
 62
    7
 10
56.283814288894064
 20
78.736566010874697
 40
0.2999999999999404
 50
90
 51
180.00000000004351
  0
ENDSEC
  0
EOF
