  0
SECTION
  2
HEADER
  9
$ACADVER
  1
AC1009
  9
$INSBASE
 10
0
 20
0
 30
0
  9
$EXTMIN
 10
0
 20
0
  9
$EXTMAX
 10
1189
 20
841
  9
$LIMMIN
 10
0
 20
0
  9
$LIMMAX
 10
1189
 20
841
  9
$LTSCALE
 40
1
  0
ENDSEC
  0
SECTION
  2
TABLES
  0
TABLE
  2
LTYPE
 70
     9
  0
LTYPE
  2
CONTINUOUS
 70
    64
  3
実線
 72
    65
 73
     0
 40
0.0
  0
LTYPE
  2
DASHED1
 70
    64
  3
--  --  --  --  --  --  --  --  
 72
    65
 73
     2
 40
2.5
 49
1.25
 49
-1.25
  0
LTYPE
  2
DASHED2
 70
    64
  3
----    ----    ----    ----    
 72
    65
 73
     2
 40
5.0
 49
2.5
 49
-2.5
  0
LTYPE
  2
DASHED3
 70
    64
  3
------  ------  ------  ------  
 72
    65
 73
     2
 40
5.0
 49
3.75
 49
-1.25
  0
LTYPE
  2
CENTER1
 70
    64
  3
----- - ----- - ----- - ----- - 
 72
    65
 73
     4
 40
10.0
 49
6.25
 49
-1.25
 49
1.25
 49
-1.25
  0
LTYPE
  2
CENTER2
 70
    64
  3
----------  --  ----------  --  
 72
    65
 73
     4
 40
20.0
 49
12.5
 49
-2.5
 49
2.5
 49
-2.5
  0
LTYPE
  2
PHANTOM1
 70
    64
  3
--- - - --- - - --- - - --- - - 
 72
    65
 73
     6
 40
10.0
 49
3.25
 49
-1.25
 49
1.25
 49
-1.25
 49
1.25
 49
-1.25
  0
LTYPE
  2
PHANTOM2
 70
    64
  3
--------  -  -  --------  -  -  
 72
    65
 73
     6
 40
20.0
 49
10.0
 49
-2.5
 49
1.25
 49
-2.5
 49
1.25
 49
-2.5
  0
LTYPE
  2
DOT
 70
    64
  3
-   -   -   -   -   -   -   -   
 72
    65
 73
     2
 40
2.5
 49
0.625
 49
-1.875
  0
LTYPE
  2
DUMMY
 70
    64
  3
ダミー
 72
    65
 73
     0
 40
0.0
  0
LTYPE
  2
RAND1
 70
    64
  3
ランダム線1
 72
    65
 73
     4
 40
10.0
 49
1.0
 49
-2.0
 49
3.0
 49
-4.0
  0
LTYPE
  2
RAND2
 70
    64
  3
ランダム線2
 72
    65
 73
     4
 40
14.0
 49
2.0
 49
-3.0
 49
4.0
 49
-5.0
  0
LTYPE
  2
RAND3
 70
    64
  3
ランダム線3
 72
    65
 73
     4
 40
18.0
 49
3.0
 49
-4.0
 49
5.0
 49
-6.0
  0
LTYPE
  2
RAND4
 70
    64
  3
ランダム線4
 72
    65
 73
     4
 40
22.0
 49
4.0
 49
-5.0
 49
6.0
 49
-7.0
  0
LTYPE
  2
RAND5
 70
    64
  3
ランダム線5
 72
    65
 73
     4
 40
26.0
 49
5.0
 49
-6.0
 49
7.0
 49
-8.0
  0
LTYPE
  2
LONG1
 70
    64
  3
----------  --  ----------  --  
 72
    65
 73
     4
 40
40.0
 49
32.5
 49
-2.5
 49
2.5
 49
-2.5
  0
LTYPE
  2
LONG2
 70
    64
  3
--------  -  -  --------  -  -  
 72
    65
 73
     6
 40
40.0
 49
30.0
 49
-2.5
 49
1.25
 49
-2.5
 49
1.25
 49
-2.5
  0
LTYPE
  2
LONG3
 70
    64
  3
+++++++++++++++..+++++++++++++++
 72
    65
 73
     2
 40
40.0
 49
37.5
 49
-2.5
  0
LTYPE
  2
LONG4
 70
    64
  3
+++++++++++++++..+++++++++++++++
 72
    65
 73
     2
 40
80.0
 49
75.0
 49
-5.0
  0
LTYPE
  2
LONG5
 70
    64
  3
----------  --  ----------  --  
 72
    65
 73
     4
 40
60.0
 49
37.5
 49
-7.5
 49
7.5
 49
-7.5
  0
LTYPE
  2
dashed
 70
   64
  3
-------   -------------   ------
 72
   65
 73
    2
 40
7.5
 49
6
 49
-1.5
  0
LTYPE
  2
dashed_spaced
 70
   64
  3
----        --------        ----
 72
   65
 73
    2
 40
12
 49
6
 49
-6
  0
LTYPE
  2
long_dashed_dotted
 70
   64
  3
------------- --- --------------
 72
   65
 73
    4
 40
15.25
 49
12
 49
-1.5
 49
0.25
 49
-1.5
  0
LTYPE
  2
long_dashed_double-dotted
 70
   64
  3
----------- --- --- ------------
 72
   65
 73
    6
 40
17
 49
12
 49
-1.5
 49
0.25
 49
-1.5
 49
0.25
 49
-1.5
  0
LTYPE
  2
long_dashed_triplicate-dotted
 70
   64
  3
--------- --- --- --- ----------
 72
   65
 73
    8
 40
18.75
 49
12
 49
-1.5
 49
0.25
 49
-1.5
 49
0.25
 49
-1.5
 49
0.25
 49
-1.5
  0
LTYPE
  2
dotted
 70
   64
  3
   -       -       -       -    
 72
   65
 73
    2
 40
1.75
 49
0.25
 49
-1.5
  0
LTYPE
  2
chain
 70
   64
  3
-------------- -- --------------
 72
   65
 73
    4
 40
18.5
 49
12
 49
-1.5
 49
3.5
 49
-1.5
  0
LTYPE
  2
chain_double_dash
 70
   64
  3
------------ -- -- -------------
 72
   65
 73
    6
 40
23.5
 49
12
 49
-1.5
 49
3.5
 49
-1.5
 49
3.5
 49
-1.5
  0
LTYPE
  2
dashed_dotted
 70
   64
  3
-----------     -     ----------
 72
   65
 73
    4
 40
9.25
 49
6
 49
-1.5
 49
0.25
 49
-1.5
  0
LTYPE
  2
double-dashed_dotted
 70
   64
  3
------   -----------   -   -----
 72
   65
 73
    6
 40
16.75
 49
6
 49
-1.5
 49
6
 49
-1.5
 49
0.25
 49
-1.5
  0
LTYPE
  2
dashed_double-dotted
 70
   64
  3
---------    -    -    ---------
 72
   65
 73
    6
 40
11
 49
6
 49
-1.5
 49
0.25
 49
-1.5
 49
0.25
 49
-1.5
  0
LTYPE
  2
double-dashed_double-dotted
 70
   64
  3
-----   ---------   -   -   ----
 72
   65
 73
    8
 40
18.5
 49
6
 49
-1.5
 49
6
 49
-1.5
 49
0.25
 49
-1.5
 49
0.25
 49
-1.5
  0
LTYPE
  2
dashed_triplicate-dotted
 70
   64
  3
-------    -    -    -    ------
 72
   65
 73
    8
 40
12.75
 49
6
 49
-1.5
 49
0.25
 49
-1.5
 49
0.25
 49
-1.5
 49
0.25
 49
-1.5
  0
LTYPE
  2
double-dashed_triplicate-dotted
 70
   64
  3
-----  ---------  -  -  -  -----
 72
   65
 73
   10
 40
20.25
 49
6
 49
-1.5
 49
6
 49
-1.5
 49
0.25
 49
-1.5
 49
0.25
 49
-1.5
 49
0.25
 49
-1.5
  0
LTYPE
  2
undefined
 70
   64
  3
--------------------------------
 72
   65
 73
    0
 40
0
  0
ENDTAB
  0
TABLE
  2
STYLE
  5
3
100
AcDbSymbolTable
 70
     1
  0
STYLE
  5
10
100
AcDbSymbolTableRecord
100
AcDbTextStyleTableRecord
  2
STANDARD
 70
     0
 40
0.0
 41
1.0
 50
0.0
 71
     0
 42
0.2
  3
txt
  4
bigfont.shx
  0
STYLE
  5
26
100
AcDbSymbolTableRecord
100
AcDbTextStyleTableRecord
  2
TATEGAKI
 70
    68
 40
0.0
 41
1.0
 50
0.0
 71
     0
 42
1.0
  3
txt
  4
bigfont.shx
  0
ENDTAB
  0
TABLE
  2
LAYER
 70
    5
  0
LAYER
  2
_0-0_
 70
   64
 62
    7
  6
CONTINUOUS
  0
LAYER
  2
_0-1_
 70
   64
 62
    7
  6
CONTINUOUS
  0
LAYER
  2
_0-8_
 70
   64
 62
    7
  6
CONTINUOUS
  0
LAYER
  2
_f-f_ADD_LINE
 70
   64
 62
    7
  6
CONTINUOUS
  0
LAYER
  2
ADD_LINE
 70
   64
 62
    7
  6
CONTINUOUS
  0
ENDTAB
  0
ENDSEC
  0
SECTION
  2
BLOCKS
  0
ENDSEC
  0
SECTION
  2
ENTITIES
  0
LINE
  8
_0-0_
  6
CONTINUOUS
 62
    7
 10
4.6748360481769851
 20
38.16561731583181
 11
4.6748360481769851
 21
8.1656173158318097
  0
LINE
  8
_0-0_
  6
CONTINUOUS
 62
    7
 10
7.6748360481765303
 20
5.1656173158318097
 11
141.67483604817693
 21
5.1656173158318097
  0
LINE
  8
_0-0_
  6
CONTINUOUS
 62
    7
 10
144.67483604817693
 20
8.1656173158318097
 11
144.67483604817693
 21
38.16561731583181
  0
LINE
  8
_0-0_
  6
CONTINUOUS
 62
    7
 10
141.67483604817693
 20
41.16561731583181
 11
7.6748360481765303
 21
41.16561731583181
  0
ARC
  8
_0-0_
  6
CONTINUOUS
 62
    7
 10
7.6748360481765303
 20
38.16561731583181
 40
3
 50
90
 51
180
  0
ARC
  8
_0-0_
  6
CONTINUOUS
 62
    7
 10
7.6748360481765303
 20
8.1656173158318097
 40
3
 50
180
 51
270
  0
ARC
  8
_0-0_
  6
CONTINUOUS
 62
    7
 10
141.67483604817693
 20
38.16561731583181
 40
3
 50
0
 51
90
  0
ARC
  8
_0-0_
  6
CONTINUOUS
 62
    7
 10
141.67483604817693
 20
8.1656173158318097
 40
3
 50
270
 51
0
  0
LINE
  8
_0-0_
  6
CONTINUOUS
 62
    7
 10
4.6748360481769851
 20
110.98614565779383
 11
4.6748360481769851
 21
80.986145657793827
  0
LINE
  8
_0-0_
  6
CONTINUOUS
 62
    7
 10
7.6748360481765303
 20
77.986145657793827
 11
141.67483604817693
 21
77.986145657793827
  0
LINE
  8
_0-0_
  6
CONTINUOUS
 62
    7
 10
144.67483604817693
 20
80.986145657793827
 11
144.67483604817693
 21
110.98614565779383
  0
LINE
  8
_0-0_
  6
CONTINUOUS
 62
    7
 10
141.67483604817693
 20
113.98614565779383
 11
7.6748360481765303
 21
113.98614565779383
  0
ARC
  8
_0-0_
  6
CONTINUOUS
 62
    7
 10
7.6748360481765303
 20
110.98614565779383
 40
3
 50
90
 51
180
  0
ARC
  8
_0-0_
  6
CONTINUOUS
 62
    7
 10
7.6748360481765303
 20
80.986145657793827
 40
3
 50
180
 51
270
  0
ARC
  8
_0-0_
  6
CONTINUOUS
 62
    7
 10
141.67483604817693
 20
110.98614565779383
 40
3
 50
0
 51
90
  0
ARC
  8
_0-0_
  6
CONTINUOUS
 62
    7
 10
141.67483604817693
 20
80.986145657793827
 40
3
 50
270
 51
0
  0
CIRCLE
  8
_0-0_
  6
CONTINUOUS
 62
    7
 10
14.67483604817653
 20
95.986145657793827
 40
4.0499999999999998
  0
CIRCLE
  8
_0-0_
  6
CONTINUOUS
 62
    7
 10
38.674836048176985
 20
95.986145657793827
 40
4.0499999999999998
  0
CIRCLE
  8
_0-0_
  6
CONTINUOUS
 62
    7
 10
62.674836048176985
 20
95.986145657793827
 40
4.0499999999999998
  0
CIRCLE
  8
_0-0_
  6
CONTINUOUS
 62
    7
 10
86.674836048176928
 20
95.986145657793827
 40
4.0499999999999998
  0
CIRCLE
  8
_0-0_
  6
CONTINUOUS
 62
    7
 10
110.67483604817693
 20
95.986145657793827
 40
4.0499999999999998
  0
CIRCLE
  8
_0-0_
  6
CONTINUOUS
 62
    7
 10
134.67483604817693
 20
95.986145657793827
 40
4.0499999999999998
  0
LINE
  8
_0-0_
  6
CONTINUOUS
 62
    7
 10
137.67483604817693
 20
21.433566539350181
 11
137.67483604817693
 21
24.897668092313438
  0
LINE
  8
_0-0_
  6
CONTINUOUS
 62
    7
 10
137.67483604817693
 20
24.897668092313438
 11
134.67483604817693
 21
26.629718868795067
  0
LINE
  8
_0-0_
  6
CONTINUOUS
 62
    7
 10
134.67483604817693
 20
26.629718868795067
 11
131.67483604817693
 21
24.897668092313438
  0
LINE
  8
_0-0_
  6
CONTINUOUS
 62
    7
 10
131.67483604817693
 20
24.897668092313438
 11
131.67483604817693
 21
21.433566539350181
  0
LINE
  8
_0-0_
  6
CONTINUOUS
 62
    7
 10
131.67483604817693
 20
21.433566539350181
 11
134.67483604817693
 21
19.701515762868553
  0
LINE
  8
_0-0_
  6
CONTINUOUS
 62
    7
 10
134.67483604817693
 20
19.701515762868553
 11
137.67483604817693
 21
21.433566539350181
  0
CIRCLE
  8
_0-0_
  6
CONTINUOUS
 62
    7
 10
134.67483604817693
 20
23.16561731583181
 40
6.5
  0
CIRCLE
  8
_0-0_
  6
CONTINUOUS
 62
    7
 10
134.67483604817693
 20
23.16561731583181
 40
8.8950004580000002
  0
LINE
  8
_0-0_
  6
CONTINUOUS
 62
    7
 10
113.67483604817693
 20
21.433566539350181
 11
113.67483604817693
 21
24.897668092313438
  0
LINE
  8
_0-0_
  6
CONTINUOUS
 62
    7
 10
113.67483604817693
 20
24.897668092313438
 11
110.67483604817693
 21
26.629718868795067
  0
LINE
  8
_0-0_
  6
CONTINUOUS
 62
    7
 10
110.67483604817693
 20
26.629718868795067
 11
107.67483604817693
 21
24.897668092313438
  0
LINE
  8
_0-0_
  6
CONTINUOUS
 62
    7
 10
107.67483604817693
 20
24.897668092313438
 11
107.67483604817693
 21
21.433566539350181
  0
LINE
  8
_0-0_
  6
CONTINUOUS
 62
    7
 10
107.67483604817693
 20
21.433566539350181
 11
110.67483604817693
 21
19.701515762868553
  0
LINE
  8
_0-0_
  6
CONTINUOUS
 62
    7
 10
110.67483604817693
 20
19.701515762868553
 11
113.67483604817693
 21
21.433566539350181
  0
CIRCLE
  8
_0-0_
  6
CONTINUOUS
 62
    7
 10
110.67483604817693
 20
23.16561731583181
 40
6.5
  0
CIRCLE
  8
_0-0_
  6
CONTINUOUS
 62
    7
 10
110.67483604817693
 20
23.16561731583181
 40
8.8950004580000002
  0
LINE
  8
_0-0_
  6
CONTINUOUS
 62
    7
 10
89.674836048176928
 20
21.433566539350181
 11
89.674836048176928
 21
24.897668092313438
  0
LINE
  8
_0-0_
  6
CONTINUOUS
 62
    7
 10
89.674836048176928
 20
24.897668092313438
 11
86.674836048176928
 21
26.629718868795067
  0
LINE
  8
_0-0_
  6
CONTINUOUS
 62
    7
 10
86.674836048176928
 20
26.629718868795067
 11
83.674836048176928
 21
24.897668092313438
  0
LINE
  8
_0-0_
  6
CONTINUOUS
 62
    7
 10
83.674836048176928
 20
24.897668092313438
 11
83.674836048176928
 21
21.433566539350181
  0
LINE
  8
_0-0_
  6
CONTINUOUS
 62
    7
 10
83.674836048176928
 20
21.433566539350181
 11
86.674836048176928
 21
19.701515762868553
  0
LINE
  8
_0-0_
  6
CONTINUOUS
 62
    7
 10
86.674836048176928
 20
19.701515762868553
 11
89.674836048176928
 21
21.433566539350181
  0
CIRCLE
  8
_0-0_
  6
CONTINUOUS
 62
    7
 10
86.674836048176928
 20
23.16561731583181
 40
6.5
  0
CIRCLE
  8
_0-0_
  6
CONTINUOUS
 62
    7
 10
86.674836048176928
 20
23.16561731583181
 40
8.8950004580000002
  0
LINE
  8
_0-0_
  6
CONTINUOUS
 62
    7
 10
41.674836048176985
 20
21.433566539350181
 11
41.674836048176985
 21
24.897668092313438
  0
LINE
  8
_0-0_
  6
CONTINUOUS
 62
    7
 10
41.674836048176985
 20
24.897668092313438
 11
38.674836048176985
 21
26.629718868795067
  0
LINE
  8
_0-0_
  6
CONTINUOUS
 62
    7
 10
38.674836048176985
 20
26.629718868795067
 11
35.674836048176985
 21
24.897668092313438
  0
LINE
  8
_0-0_
  6
CONTINUOUS
 62
    7
 10
35.674836048176985
 20
24.897668092313438
 11
35.674836048176985
 21
21.433566539350181
  0
LINE
  8
_0-0_
  6
CONTINUOUS
 62
    7
 10
35.674836048176985
 20
21.433566539350181
 11
38.674836048176985
 21
19.701515762868553
  0
LINE
  8
_0-0_
  6
CONTINUOUS
 62
    7
 10
38.674836048176985
 20
19.701515762868553
 11
41.674836048176985
 21
21.433566539350181
  0
CIRCLE
  8
_0-0_
  6
CONTINUOUS
 62
    7
 10
38.674836048176985
 20
23.16561731583181
 40
6.5
  0
CIRCLE
  8
_0-0_
  6
CONTINUOUS
 62
    7
 10
38.674836048176985
 20
23.16561731583181
 40
8.8950004580000002
  0
LINE
  8
_0-0_
  6
CONTINUOUS
 62
    7
 10
17.67483604817653
 20
21.433566539350181
 11
17.67483604817653
 21
24.897668092313438
  0
LINE
  8
_0-0_
  6
CONTINUOUS
 62
    7
 10
17.67483604817653
 20
24.897668092313438
 11
14.67483604817653
 21
26.629718868795067
  0
LINE
  8
_0-0_
  6
CONTINUOUS
 62
    7
 10
14.67483604817653
 20
26.629718868795067
 11
11.67483604817653
 21
24.897668092313438
  0
LINE
  8
_0-0_
  6
CONTINUOUS
 62
    7
 10
11.67483604817653
 20
24.897668092313438
 11
11.67483604817653
 21
21.433566539350181
  0
LINE
  8
_0-0_
  6
CONTINUOUS
 62
    7
 10
11.67483604817653
 20
21.433566539350181
 11
14.67483604817653
 21
19.701515762868553
  0
LINE
  8
_0-0_
  6
CONTINUOUS
 62
    7
 10
14.67483604817653
 20
19.701515762868553
 11
17.67483604817653
 21
21.433566539350181
  0
CIRCLE
  8
_0-0_
  6
CONTINUOUS
 62
    7
 10
14.67483604817653
 20
23.16561731583181
 40
6.5
  0
CIRCLE
  8
_0-0_
  6
CONTINUOUS
 62
    7
 10
14.67483604817653
 20
23.16561731583181
 40
8.8950004580000002
  0
LINE
  8
_0-0_
  6
CONTINUOUS
 62
    7
 10
65.674836048176985
 20
21.433566539350181
 11
65.674836048176985
 21
24.897668092313438
  0
LINE
  8
_0-0_
  6
CONTINUOUS
 62
    7
 10
65.674836048176985
 20
24.897668092313438
 11
62.674836048176985
 21
26.629718868795067
  0
LINE
  8
_0-0_
  6
CONTINUOUS
 62
    7
 10
62.674836048176985
 20
26.629718868795067
 11
59.674836048176985
 21
24.897668092313438
  0
LINE
  8
_0-0_
  6
CONTINUOUS
 62
    7
 10
59.674836048176985
 20
24.897668092313438
 11
59.674836048176985
 21
21.433566539350181
  0
LINE
  8
_0-0_
  6
CONTINUOUS
 62
    7
 10
59.674836048176985
 20
21.433566539350181
 11
62.674836048176985
 21
19.701515762868553
  0
LINE
  8
_0-0_
  6
CONTINUOUS
 62
    7
 10
62.674836048176985
 20
19.701515762868553
 11
65.674836048176985
 21
21.433566539350181
  0
CIRCLE
  8
_0-0_
  6
CONTINUOUS
 62
    7
 10
62.674836048176985
 20
23.16561731583181
 40
6.5
  0
CIRCLE
  8
_0-0_
  6
CONTINUOUS
 62
    7
 10
62.674836048176985
 20
23.16561731583181
 40
8.8950004580000002
  0
LINE
  8
_0-0_
  6
CONTINUOUS
 62
    7
 10
179.12375505359825
 20
77.986145657793827
 11
181.12375505359825
 21
77.986145657793827
  0
LINE
  8
_0-0_
  6
CONTINUOUS
 62
    7
 10
179.12375505359825
 20
77.986145657793827
 11
179.12375505359825
 21
113.98614565779383
  0
LINE
  8
_0-0_
  6
CONTINUOUS
 62
    7
 10
179.12375505359825
 20
113.98614565779383
 11
181.12375505359825
 21
113.98614565779383
  0
LINE
  8
_0-0_
  6
CONTINUOUS
 62
    7
 10
181.12375505359825
 20
77.986145657793827
 11
181.12375505359825
 21
113.98614565779383
  0
LINE
  8
_0-0_
  6
CONTINUOUS
 62
    7
 10
179.12375505359825
 20
5.1656173158318097
 11
181.12375505359825
 21
5.1656173158318097
  0
LINE
  8
_0-0_
  6
CONTINUOUS
 62
    7
 10
179.12375505359825
 20
5.1656173158318097
 11
179.12375505359825
 21
41.16561731583181
  0
LINE
  8
_0-0_
  6
CONTINUOUS
 62
    7
 10
179.12375505359825
 20
41.16561731583181
 11
181.12375505359825
 21
41.16561731583181
  0
LINE
  8
_0-0_
  6
CONTINUOUS
 62
    7
 10
181.12375505359825
 20
5.1656173158318097
 11
181.12375505359825
 21
41.16561731583181
  0
LINE
  8
_0-0_
  6
CONTINUOUS
 62
    7
 10
168.89375551136192
 20
24.79061731583181
 11
175.89375503452476
 21
24.79061731583181
  0
LINE
  8
_0-0_
  6
CONTINUOUS
 62
    7
 10
168.89375551136192
 20
25.60311731583181
 11
175.89375503452476
 21
25.60311731583181
  0
LINE
  8
_0-0_
  6
CONTINUOUS
 62
    7
 10
168.89375551136192
 20
28.85311731583181
 11
175.89375503452476
 21
28.85311731583181
  0
LINE
  8
_0-0_
  6
CONTINUOUS
 62
    7
 10
168.89375551136192
 20
28.04061731583181
 11
175.89375503452476
 21
28.04061731583181
  0
LINE
  8
_0-0_
  6
CONTINUOUS
 62
    7
 10
168.89375551136192
 20
27.22811731583181
 11
175.89375503452476
 21
27.22811731583181
  0
LINE
  8
_0-0_
  6
CONTINUOUS
 62
    7
 10
168.89375551136192
 20
26.41561731583181
 11
175.89375503452476
 21
26.41561731583181
  0
LINE
  8
_0-0_
  6
CONTINUOUS
 62
    7
 10
168.89375551136192
 20
16.66561731583181
 11
167.89375551136192
 21
17.66561731583181
  0
LINE
  8
_0-0_
  6
CONTINUOUS
 62
    7
 10
167.89375551136192
 20
28.66561731583181
 11
167.89375551136192
 21
17.66561731583181
  0
LINE
  8
_0-0_
  6
CONTINUOUS
 62
    7
 10
167.89375551136192
 20
28.66561731583181
 11
168.89375551136192
 21
29.66561731583181
  0
LINE
  8
_0-0_
  6
CONTINUOUS
 62
    7
 10
168.89375551136192
 20
16.66561731583181
 11
168.89375551136192
 21
29.66561731583181
  0
LINE
  8
_0-0_
  6
CONTINUOUS
 62
    7
 10
168.89375551136192
 20
16.66561731583181
 11
177.89375503452476
 21
16.66561731583181
  0
LINE
  8
_0-0_
  6
CONTINUOUS
 62
    7
 10
168.89375551136192
 20
29.66561731583181
 11
177.89375503452476
 21
29.66561731583181
  0
LINE
  8
_0-0_
  6
CONTINUOUS
 62
    7
 10
175.89375503452476
 20
16.66561731583181
 11
175.89375503452476
 21
29.66561731583181
  0
LINE
  8
_0-0_
  6
CONTINUOUS
 62
    7
 10
177.89375503452476
 20
14.270616858068138
 11
179.12375505359825
 21
14.270616858068138
  0
LINE
  8
_0-0_
  6
CONTINUOUS
 62
    7
 10
177.89375503452476
 20
14.270616858068138
 11
177.89375503452476
 21
32.060617773595482
  0
LINE
  8
_0-0_
  6
CONTINUOUS
 62
    7
 10
177.89375503452476
 20
32.060617773595482
 11
179.12375505359825
 21
32.060617773595482
  0
LINE
  8
_0-0_
  6
CONTINUOUS
 62
    7
 10
177.89375503452476
 20
23.742967574659019
 11
175.89375503452476
 21
22.5882670570046
  0
LINE
  8
_0-0_
  6
CONTINUOUS
 62
    7
 10
190.89375503452476
 20
26.615617363515526
 11
190.89375503452476
 21
19.715617268148094
  0
LINE
  8
_0-0_
  6
CONTINUOUS
 62
    7
 10
190.34375579746421
 20
19.16561731583181
 11
190.89375503452476
 21
19.715617268148094
  0
LINE
  8
_0-0_
  6
CONTINUOUS
 62
    7
 10
190.89375503452476
 20
26.615617363515526
 11
190.34375579746421
 21
27.16561731583181
  0
LINE
  8
_0-0_
  6
CONTINUOUS
 62
    7
 10
188.32375207244962
 20
19.665653016872398
 11
188.32377803459161
 21
26.665487812612241
  0
LINE
  8
_0-0_
  6
CONTINUOUS
 62
    7
 10
184.72375505359827
 20
28.253025855443298
 11
181.72376662739038
 21
27.990595166357593
  0
LINE
  8
_0-0_
  6
CONTINUOUS
 62
    7
 10
188.32377803459161
 20
26.665487812612241
 11
186.48851306942237
 21
29.844332794132129
  0
LINE
  8
_0-0_
  6
CONTINUOUS
 62
    7
 10
184.72375505359827
 20
30.165571287757189
 11
184.72375505359827
 21
28.253025855443298
  0
LINE
  8
_0-0_
  6
CONTINUOUS
 62
    7
 10
186.48851306942237
 20
29.844332794132129
 11
184.72375505359827
 21
30.165571287757189
  0
LINE
  8
_0-0_
  6
CONTINUOUS
 62
    7
 10
184.72375505359827
 20
18.078135507998354
 11
181.72373347981278
 21
18.340639465344225
  0
LINE
  8
_0-0_
  6
CONTINUOUS
 62
    7
 10
181.72376662739038
 20
27.990595166357593
 11
181.72373347981278
 21
18.340639465344225
  0
LINE
  8
_0-0_
  6
CONTINUOUS
 62
    7
 10
188.32377803459161
 20
19.665734962902548
 11
186.48851306942237
 21
16.48688998138266
  0
LINE
  8
_0-0_
  6
CONTINUOUS
 62
    7
 10
184.72375505359827
 20
16.1656514877576
 11
184.72375505359827
 21
18.078196920071491
  0
LINE
  8
_0-0_
  6
CONTINUOUS
 62
    7
 10
186.48851306942237
 20
16.48688998138266
 11
184.72375505359827
 21
16.1656514877576
  0
LINE
  8
_0-0_
  6
CONTINUOUS
 62
    7
 10
190.34375579746421
 20
19.16561731583181
 11
188.03504159054745
 21
19.16561731583181
  0
LINE
  8
_0-0_
  6
CONTINUOUS
 62
    7
 10
181.72373631361
 20
19.16561731583181
 11
181.12375505359825
 21
19.16561731583181
  0
LINE
  8
_0-0_
  6
CONTINUOUS
 62
    7
 10
190.34375579746421
 20
27.16561731583181
 11
188.0350347455535
 21
27.16561731583181
  0
LINE
  8
_0-0_
  6
CONTINUOUS
 62
    7
 10
181.72376379359315
 20
27.16561731583181
 11
181.12375505359825
 21
27.16561731583181
  0
LINE
  8
_0-0_
  6
CONTINUOUS
 62
  152
 10
181.12375505359825
 20
26.615617363515526
 11
181.72376190434449
 21
26.615617363515526
  0
LINE
  8
_0-0_
  6
CONTINUOUS
 62
  152
 10
188.32377784962387
 20
26.615617363515526
 11
190.89375503452476
 21
26.615617363515526
  0
LINE
  8
_0-0_
  6
CONTINUOUS
 62
  152
 10
190.34375579746421
 20
19.16561731583181
 11
190.34375579746421
 21
27.16561731583181
  0
LINE
  8
_0-0_
  6
CONTINUOUS
 62
  152
 10
188.32377803459161
 20
19.715617268148094
 11
190.89375503452476
 21
19.715617268148094
  0
LINE
  8
_0-0_
  6
CONTINUOUS
 62
  152
 10
181.12375505359825
 20
19.715617268148094
 11
181.72373820285867
 21
19.715617268148094
  0
LINE
  8
_0-1_
  6
CENTER1
 62
  152
 10
110.67483604817693
 20
15.427592720824919
 11
110.67483604817693
 21
30.779353411634588
  0
LINE
  8
_0-1_
  6
CENTER1
 62
  152
 10
86.674836048176928
 20
30.779353411634588
 11
86.674836048176928
 21
15.427592720824919
  0
LINE
  8
_0-1_
  6
CENTER1
 62
  152
 10
62.674836048176985
 20
15.427592720824919
 11
62.674836048176985
 21
30.779353411634588
  0
LINE
  8
_0-1_
  6
CENTER1
 62
  152
 10
38.674836048176985
 20
30.779353411634588
 11
38.674836048176985
 21
15.427592720824919
  0
LINE
  8
_0-1_
  6
CENTER1
 62
  152
 10
14.67483604817653
 20
15.427592720824919
 11
14.67483604817653
 21
30.779353411634588
  0
LINE
  8
_0-1_
  6
CENTER1
 62
  152
 10
4.6748360481769851
 20
23.16561731583181
 11
144.67483604817693
 21
23.16561731583181
  0
LINE
  8
_0-1_
  6
CENTER1
 62
  152
 10
134.67483604817693
 20
30.779353411634588
 11
134.67483604817693
 21
15.427592720824919
  0
LINE
  8
_0-1_
  6
CENTER1
 62
  152
 10
110.67483604817693
 20
88.248121062786936
 11
110.67483604817693
 21
103.59988175359661
  0
LINE
  8
_0-1_
  6
CENTER1
 62
  152
 10
86.674836048176928
 20
103.59988175359661
 11
86.674836048176928
 21
88.248121062786936
  0
LINE
  8
_0-1_
  6
CENTER1
 62
  152
 10
62.674836048176985
 20
88.248121062786936
 11
62.674836048176985
 21
103.59988175359661
  0
LINE
  8
_0-1_
  6
CENTER1
 62
  152
 10
38.674836048176985
 20
103.59988175359661
 11
38.674836048176985
 21
88.248121062786936
  0
LINE
  8
_0-1_
  6
CENTER1
 62
  152
 10
14.67483604817653
 20
88.248121062786936
 11
14.67483604817653
 21
103.59988175359661
  0
LINE
  8
_0-1_
  6
CENTER1
 62
  152
 10
4.6748360481769851
 20
95.986145657793827
 11
144.67483604817693
 21
95.986145657793827
  0
LINE
  8
_0-1_
  6
CENTER1
 62
  152
 10
134.67483604817693
 20
103.59988175359661
 11
134.67483604817693
 21
88.248121062786936
  0
LINE
  8
_0-1_
  6
CENTER1
 62
  152
 10
173.95178328121966
 20
95.986145657793827
 11
186.61012514914756
 21
95.986145657793827
  0
LINE
  8
ADD_LINE
  6
DOT
 62
  152
 10
179.12375505359825
 20
23.16561731583181
 11
179.8308618347848
 21
23.872724097018477
  0
LINE
  8
ADD_LINE
  6
DOT
 62
  152
 10
179.12375505359825
 20
23.16561731583181
 11
179.8308618347848
 21
22.458510534645143
  0
LINE
  8
_0-1_
  6
CENTER1
 62
  152
 10
166.50373865039381
 20
23.16561731583181
 11
192.97189820622788
 21
23.16561731583181
  0
LINE
  8
ADD_LINE
  6
DOT
 62
  152
 10
181.1237551489848
 20
23.16561731583181
 11
181.83086193015237
 21
22.458510534664242
  0
LINE
  8
ADD_LINE
  6
DOT
 62
  152
 10
181.83086193015237
 20
23.872724097037576
 11
181.1237551489657
 21
23.165617315850909
  0
LINE
  8
_0-1_
  6
PHANTOM1
 62
  152
 10
181.12375505359825
 20
3.1656173158318097
 11
221.12375505359825
 21
3.1656173158318097
  0
LINE
  8
_0-1_
  6
PHANTOM1
 62
  152
 10
221.12375505359825
 20
3.1656173158318097
 11
221.12375505359825
 21
43.16561731583181
  0
LINE
  8
_0-1_
  6
PHANTOM1
 62
  152
 10
221.12375505359825
 20
43.16561731583181
 11
181.12375505359825
 21
43.16561731583181
  0
LINE
  8
_0-1_
  6
PHANTOM1
 62
  152
 10
181.12375505359825
 20
43.16561731583181
 11
181.12375505359825
 21
3.1656173158318097
  0
TEXT
  8
_0-8_
 62
    7
 10
12.274848119139278
 20
43.465739005039268
 40
4.2999999999999998
 41
0.744186046511628
 50
0
  1
SP40-B
  0
TEXT
  8
_0-8_
 62
    7
 10
12.274848119139278
 20
116.28626734700129
 40
4.2999999999999998
 41
0.744186046511628
 50
0
  1
SP40-H
  0
ENDSEC
  0
EOF
