  0
SECTION
  2
HEADER
  9
$ACADVER
  1
AC1009
  9
$INSBASE
 10
0
 20
0
 30
0
  9
$EXTMIN
 10
0
 20
0
  9
$EXTMAX
 10
1189
 20
841
  9
$LIMMIN
 10
0
 20
0
  9
$LIMMAX
 10
1189
 20
841
  9
$LTSCALE
 40
1
  0
ENDSEC
  0
SECTION
  2
TABLES
  0
TABLE
  2
LTYPE
 70
     9
  0
LTYPE
  2
CONTINUOUS
 70
    64
  3
実線
 72
    65
 73
     0
 40
0.0
  0
LTYPE
  2
DASHED1
 70
    64
  3
--  --  --  --  --  --  --  --  
 72
    65
 73
     2
 40
2.5
 49
1.25
 49
-1.25
  0
LTYPE
  2
DASHED2
 70
    64
  3
----    ----    ----    ----    
 72
    65
 73
     2
 40
5.0
 49
2.5
 49
-2.5
  0
LTYPE
  2
DASHED3
 70
    64
  3
------  ------  ------  ------  
 72
    65
 73
     2
 40
5.0
 49
3.75
 49
-1.25
  0
LTYPE
  2
CENTER1
 70
    64
  3
----- - ----- - ----- - ----- - 
 72
    65
 73
     4
 40
10.0
 49
6.25
 49
-1.25
 49
1.25
 49
-1.25
  0
LTYPE
  2
CENTER2
 70
    64
  3
----------  --  ----------  --  
 72
    65
 73
     4
 40
20.0
 49
12.5
 49
-2.5
 49
2.5
 49
-2.5
  0
LTYPE
  2
PHANTOM1
 70
    64
  3
--- - - --- - - --- - - --- - - 
 72
    65
 73
     6
 40
10.0
 49
3.25
 49
-1.25
 49
1.25
 49
-1.25
 49
1.25
 49
-1.25
  0
LTYPE
  2
PHANTOM2
 70
    64
  3
--------  -  -  --------  -  -  
 72
    65
 73
     6
 40
20.0
 49
10.0
 49
-2.5
 49
1.25
 49
-2.5
 49
1.25
 49
-2.5
  0
LTYPE
  2
DOT
 70
    64
  3
-   -   -   -   -   -   -   -   
 72
    65
 73
     2
 40
2.5
 49
0.625
 49
-1.875
  0
LTYPE
  2
DUMMY
 70
    64
  3
ダミー
 72
    65
 73
     0
 40
0.0
  0
LTYPE
  2
RAND1
 70
    64
  3
ランダム線1
 72
    65
 73
     4
 40
10.0
 49
1.0
 49
-2.0
 49
3.0
 49
-4.0
  0
LTYPE
  2
RAND2
 70
    64
  3
ランダム線2
 72
    65
 73
     4
 40
14.0
 49
2.0
 49
-3.0
 49
4.0
 49
-5.0
  0
LTYPE
  2
RAND3
 70
    64
  3
ランダム線3
 72
    65
 73
     4
 40
18.0
 49
3.0
 49
-4.0
 49
5.0
 49
-6.0
  0
LTYPE
  2
RAND4
 70
    64
  3
ランダム線4
 72
    65
 73
     4
 40
22.0
 49
4.0
 49
-5.0
 49
6.0
 49
-7.0
  0
LTYPE
  2
RAND5
 70
    64
  3
ランダム線5
 72
    65
 73
     4
 40
26.0
 49
5.0
 49
-6.0
 49
7.0
 49
-8.0
  0
LTYPE
  2
LONG1
 70
    64
  3
----------  --  ----------  --  
 72
    65
 73
     4
 40
40.0
 49
32.5
 49
-2.5
 49
2.5
 49
-2.5
  0
LTYPE
  2
LONG2
 70
    64
  3
--------  -  -  --------  -  -  
 72
    65
 73
     6
 40
40.0
 49
30.0
 49
-2.5
 49
1.25
 49
-2.5
 49
1.25
 49
-2.5
  0
LTYPE
  2
LONG3
 70
    64
  3
+++++++++++++++..+++++++++++++++
 72
    65
 73
     2
 40
40.0
 49
37.5
 49
-2.5
  0
LTYPE
  2
LONG4
 70
    64
  3
+++++++++++++++..+++++++++++++++
 72
    65
 73
     2
 40
80.0
 49
75.0
 49
-5.0
  0
LTYPE
  2
LONG5
 70
    64
  3
----------  --  ----------  --  
 72
    65
 73
     4
 40
60.0
 49
37.5
 49
-7.5
 49
7.5
 49
-7.5
  0
LTYPE
  2
dashed
 70
   64
  3
-------   -------------   ------
 72
   65
 73
    2
 40
7.5
 49
6
 49
-1.5
  0
LTYPE
  2
dashed_spaced
 70
   64
  3
----        --------        ----
 72
   65
 73
    2
 40
12
 49
6
 49
-6
  0
LTYPE
  2
long_dashed_dotted
 70
   64
  3
------------- --- --------------
 72
   65
 73
    4
 40
15.25
 49
12
 49
-1.5
 49
0.25
 49
-1.5
  0
LTYPE
  2
long_dashed_double-dotted
 70
   64
  3
----------- --- --- ------------
 72
   65
 73
    6
 40
17
 49
12
 49
-1.5
 49
0.25
 49
-1.5
 49
0.25
 49
-1.5
  0
LTYPE
  2
long_dashed_triplicate-dotted
 70
   64
  3
--------- --- --- --- ----------
 72
   65
 73
    8
 40
18.75
 49
12
 49
-1.5
 49
0.25
 49
-1.5
 49
0.25
 49
-1.5
 49
0.25
 49
-1.5
  0
LTYPE
  2
dotted
 70
   64
  3
   -       -       -       -    
 72
   65
 73
    2
 40
1.75
 49
0.25
 49
-1.5
  0
LTYPE
  2
chain
 70
   64
  3
-------------- -- --------------
 72
   65
 73
    4
 40
18.5
 49
12
 49
-1.5
 49
3.5
 49
-1.5
  0
LTYPE
  2
chain_double_dash
 70
   64
  3
------------ -- -- -------------
 72
   65
 73
    6
 40
23.5
 49
12
 49
-1.5
 49
3.5
 49
-1.5
 49
3.5
 49
-1.5
  0
LTYPE
  2
dashed_dotted
 70
   64
  3
-----------     -     ----------
 72
   65
 73
    4
 40
9.25
 49
6
 49
-1.5
 49
0.25
 49
-1.5
  0
LTYPE
  2
double-dashed_dotted
 70
   64
  3
------   -----------   -   -----
 72
   65
 73
    6
 40
16.75
 49
6
 49
-1.5
 49
6
 49
-1.5
 49
0.25
 49
-1.5
  0
LTYPE
  2
dashed_double-dotted
 70
   64
  3
---------    -    -    ---------
 72
   65
 73
    6
 40
11
 49
6
 49
-1.5
 49
0.25
 49
-1.5
 49
0.25
 49
-1.5
  0
LTYPE
  2
double-dashed_double-dotted
 70
   64
  3
-----   ---------   -   -   ----
 72
   65
 73
    8
 40
18.5
 49
6
 49
-1.5
 49
6
 49
-1.5
 49
0.25
 49
-1.5
 49
0.25
 49
-1.5
  0
LTYPE
  2
dashed_triplicate-dotted
 70
   64
  3
-------    -    -    -    ------
 72
   65
 73
    8
 40
12.75
 49
6
 49
-1.5
 49
0.25
 49
-1.5
 49
0.25
 49
-1.5
 49
0.25
 49
-1.5
  0
LTYPE
  2
double-dashed_triplicate-dotted
 70
   64
  3
-----  ---------  -  -  -  -----
 72
   65
 73
   10
 40
20.25
 49
6
 49
-1.5
 49
6
 49
-1.5
 49
0.25
 49
-1.5
 49
0.25
 49
-1.5
 49
0.25
 49
-1.5
  0
LTYPE
  2
undefined
 70
   64
  3
--------------------------------
 72
   65
 73
    0
 40
0
  0
ENDTAB
  0
TABLE
  2
STYLE
  5
3
100
AcDbSymbolTable
 70
     1
  0
STYLE
  5
10
100
AcDbSymbolTableRecord
100
AcDbTextStyleTableRecord
  2
STANDARD
 70
     0
 40
0.0
 41
1.0
 50
0.0
 71
     0
 42
0.2
  3
txt
  4
bigfont.shx
  0
STYLE
  5
26
100
AcDbSymbolTableRecord
100
AcDbTextStyleTableRecord
  2
TATEGAKI
 70
    68
 40
0.0
 41
1.0
 50
0.0
 71
     0
 42
1.0
  3
txt
  4
bigfont.shx
  0
ENDTAB
  0
TABLE
  2
LAYER
 70
    4
  0
LAYER
  2
_0-0_
 70
   64
 62
    7
  6
CONTINUOUS
  0
LAYER
  2
_0-1_
 70
   64
 62
    7
  6
CONTINUOUS
  0
LAYER
  2
_1-1_ADD_LINE
 70
   64
 62
    7
  6
CONTINUOUS
  0
LAYER
  2
ADD_LINE
 70
   64
 62
    7
  6
CONTINUOUS
  0
ENDTAB
  0
ENDSEC
  0
SECTION
  2
BLOCKS
  0
ENDSEC
  0
SECTION
  2
ENTITIES
  0
LINE
  8
_0-0_
  6
CONTINUOUS
 62
    7
 10
143.71988474536158
 20
30.117794414617322
 11
143.71988474536158
 21
8.1177944146173218
  0
LINE
  8
_0-0_
  6
CONTINUOUS
 62
    7
 10
140.71988474536158
 20
5.1177944146173218
 11
6.7198847453610142
 21
5.1177944146173218
  0
LINE
  8
_0-0_
  6
CONTINUOUS
 62
    7
 10
3.719884745361469
 20
8.1177944146173218
 11
3.719884745361469
 21
30.117794414617322
  0
LINE
  8
_0-0_
  6
CONTINUOUS
 62
    7
 10
6.7198847453610142
 20
33.117794414617322
 11
140.71988474536158
 21
33.117794414617322
  0
ARC
  8
_0-0_
  6
CONTINUOUS
 62
    7
 10
6.7198847453610142
 20
8.1177944146173218
 40
3
 50
180
 51
270
  0
ARC
  8
_0-0_
  6
CONTINUOUS
 62
    7
 10
6.7198847453610142
 20
30.117794414617322
 40
3
 50
90
 51
180
  0
ARC
  8
_0-0_
  6
CONTINUOUS
 62
    7
 10
140.71988474536158
 20
8.1177944146173218
 40
3
 50
270
 51
0
  0
ARC
  8
_0-0_
  6
CONTINUOUS
 62
    7
 10
140.71988474536158
 20
30.117794414617322
 40
3
 50
0
 51
90
  0
LINE
  8
_0-0_
  6
CONTINUOUS
 62
    7
 10
143.71988474536158
 20
100.25085339952813
 11
143.71988474536158
 21
78.250853399528125
  0
LINE
  8
_0-0_
  6
CONTINUOUS
 62
    7
 10
140.71988474536158
 20
75.250853399528125
 11
6.7198847453610142
 21
75.250853399528125
  0
LINE
  8
_0-0_
  6
CONTINUOUS
 62
    7
 10
3.719884745361469
 20
78.250853399528125
 11
3.719884745361469
 21
100.25085339952813
  0
LINE
  8
_0-0_
  6
CONTINUOUS
 62
    7
 10
6.7198847453610142
 20
103.25085339952813
 11
140.71988474536158
 21
103.25085339952813
  0
CIRCLE
  8
_0-0_
  6
CONTINUOUS
 62
    7
 10
133.71988474536158
 20
93.250853399528125
 40
4.0499999999999998
  0
ARC
  8
_0-0_
  6
CONTINUOUS
 62
    7
 10
6.7198847453610142
 20
78.250853399528125
 40
3
 50
180
 51
270
  0
ARC
  8
_0-0_
  6
CONTINUOUS
 62
    7
 10
6.7198847453610142
 20
100.25085339952813
 40
3
 50
90
 51
180
  0
ARC
  8
_0-0_
  6
CONTINUOUS
 62
    7
 10
140.71988474536158
 20
78.250853399528125
 40
3
 50
270
 51
0
  0
ARC
  8
_0-0_
  6
CONTINUOUS
 62
    7
 10
140.71988474536158
 20
100.25085339952813
 40
3
 50
0
 51
90
  0
CIRCLE
  8
_0-0_
  6
CONTINUOUS
 62
    7
 10
13.719884745361583
 20
93.250853399528125
 40
4.0499999999999998
  0
CIRCLE
  8
_0-0_
  6
CONTINUOUS
 62
    7
 10
37.719884745361583
 20
93.250853399528125
 40
4.0499999999999998
  0
CIRCLE
  8
_0-0_
  6
CONTINUOUS
 62
    7
 10
61.719884745361583
 20
93.250853399528125
 40
4.0499999999999998
  0
CIRCLE
  8
_0-0_
  6
CONTINUOUS
 62
    7
 10
85.719884745361583
 20
93.250853399528125
 40
4.0499999999999998
  0
CIRCLE
  8
_0-0_
  6
CONTINUOUS
 62
    7
 10
109.71988474536158
 20
93.250853399528125
 40
4.0499999999999998
  0
LINE
  8
_0-0_
  6
CONTINUOUS
 62
    7
 10
136.71988474536158
 20
21.385743638135693
 11
136.71988474536158
 21
24.84984519109895
  0
LINE
  8
_0-0_
  6
CONTINUOUS
 62
    7
 10
136.71988474536158
 20
24.84984519109895
 11
133.71988474536158
 21
26.581895967580579
  0
LINE
  8
_0-0_
  6
CONTINUOUS
 62
    7
 10
133.71988474536158
 20
26.581895967580579
 11
130.71988474536158
 21
24.84984519109895
  0
LINE
  8
_0-0_
  6
CONTINUOUS
 62
    7
 10
130.71988474536158
 20
24.84984519109895
 11
130.71988474536158
 21
21.385743638135693
  0
LINE
  8
_0-0_
  6
CONTINUOUS
 62
    7
 10
130.71988474536158
 20
21.385743638135693
 11
133.71988474536158
 21
19.653692861654065
  0
LINE
  8
_0-0_
  6
CONTINUOUS
 62
    7
 10
133.71988474536158
 20
19.653692861654065
 11
136.71988474536158
 21
21.385743638135693
  0
CIRCLE
  8
_0-0_
  6
CONTINUOUS
 62
    7
 10
133.71988474536158
 20
23.117794414617322
 40
6.5
  0
CIRCLE
  8
_0-0_
  6
CONTINUOUS
 62
    7
 10
133.71988474536158
 20
23.117794414617322
 40
8.8950004580000002
  0
LINE
  8
_0-0_
  6
CONTINUOUS
 62
    7
 10
112.71988474536158
 20
21.385743638135693
 11
112.71988474536158
 21
24.84984519109895
  0
LINE
  8
_0-0_
  6
CONTINUOUS
 62
    7
 10
112.71988474536158
 20
24.84984519109895
 11
109.71988474536158
 21
26.581895967580579
  0
LINE
  8
_0-0_
  6
CONTINUOUS
 62
    7
 10
109.71988474536158
 20
26.581895967580579
 11
106.71988474536158
 21
24.84984519109895
  0
LINE
  8
_0-0_
  6
CONTINUOUS
 62
    7
 10
106.71988474536158
 20
24.84984519109895
 11
106.71988474536158
 21
21.385743638135693
  0
LINE
  8
_0-0_
  6
CONTINUOUS
 62
    7
 10
106.71988474536158
 20
21.385743638135693
 11
109.71988474536158
 21
19.653692861654065
  0
LINE
  8
_0-0_
  6
CONTINUOUS
 62
    7
 10
109.71988474536158
 20
19.653692861654065
 11
112.71988474536158
 21
21.385743638135693
  0
CIRCLE
  8
_0-0_
  6
CONTINUOUS
 62
    7
 10
109.71988474536158
 20
23.117794414617322
 40
6.5
  0
CIRCLE
  8
_0-0_
  6
CONTINUOUS
 62
    7
 10
109.71988474536158
 20
23.117794414617322
 40
8.8950004580000002
  0
LINE
  8
_0-0_
  6
CONTINUOUS
 62
    7
 10
88.719884745361583
 20
21.385743638135693
 11
88.719884745361583
 21
24.84984519109895
  0
LINE
  8
_0-0_
  6
CONTINUOUS
 62
    7
 10
88.719884745361583
 20
24.84984519109895
 11
85.719884745361583
 21
26.581895967580579
  0
LINE
  8
_0-0_
  6
CONTINUOUS
 62
    7
 10
85.719884745361583
 20
26.581895967580579
 11
82.719884745361583
 21
24.84984519109895
  0
LINE
  8
_0-0_
  6
CONTINUOUS
 62
    7
 10
82.719884745361583
 20
24.84984519109895
 11
82.719884745361583
 21
21.385743638135693
  0
LINE
  8
_0-0_
  6
CONTINUOUS
 62
    7
 10
82.719884745361583
 20
21.385743638135693
 11
85.719884745361583
 21
19.653692861654065
  0
LINE
  8
_0-0_
  6
CONTINUOUS
 62
    7
 10
85.719884745361583
 20
19.653692861654065
 11
88.719884745361583
 21
21.385743638135693
  0
CIRCLE
  8
_0-0_
  6
CONTINUOUS
 62
    7
 10
85.719884745361583
 20
23.117794414617322
 40
6.5
  0
CIRCLE
  8
_0-0_
  6
CONTINUOUS
 62
    7
 10
85.719884745361583
 20
23.117794414617322
 40
8.8950004580000002
  0
LINE
  8
_0-0_
  6
CONTINUOUS
 62
    7
 10
64.719884745361583
 20
21.385743638135693
 11
64.719884745361583
 21
24.84984519109895
  0
LINE
  8
_0-0_
  6
CONTINUOUS
 62
    7
 10
64.719884745361583
 20
24.84984519109895
 11
61.719884745361583
 21
26.581895967580579
  0
LINE
  8
_0-0_
  6
CONTINUOUS
 62
    7
 10
61.719884745361583
 20
26.581895967580579
 11
58.719884745361583
 21
24.84984519109895
  0
LINE
  8
_0-0_
  6
CONTINUOUS
 62
    7
 10
58.719884745361583
 20
24.84984519109895
 11
58.719884745361583
 21
21.385743638135693
  0
LINE
  8
_0-0_
  6
CONTINUOUS
 62
    7
 10
58.719884745361583
 20
21.385743638135693
 11
61.719884745361583
 21
19.653692861654065
  0
LINE
  8
_0-0_
  6
CONTINUOUS
 62
    7
 10
61.719884745361583
 20
19.653692861654065
 11
64.719884745361583
 21
21.385743638135693
  0
CIRCLE
  8
_0-0_
  6
CONTINUOUS
 62
    7
 10
61.719884745361583
 20
23.117794414617322
 40
6.5
  0
CIRCLE
  8
_0-0_
  6
CONTINUOUS
 62
    7
 10
61.719884745361583
 20
23.117794414617322
 40
8.8950004580000002
  0
LINE
  8
_0-0_
  6
CONTINUOUS
 62
    7
 10
40.719884745361583
 20
21.385743638135693
 11
40.719884745361583
 21
24.84984519109895
  0
LINE
  8
_0-0_
  6
CONTINUOUS
 62
    7
 10
40.719884745361583
 20
24.84984519109895
 11
37.719884745361583
 21
26.581895967580579
  0
LINE
  8
_0-0_
  6
CONTINUOUS
 62
    7
 10
37.719884745361583
 20
26.581895967580579
 11
34.719884745361583
 21
24.84984519109895
  0
LINE
  8
_0-0_
  6
CONTINUOUS
 62
    7
 10
34.719884745361583
 20
24.84984519109895
 11
34.719884745361583
 21
21.385743638135693
  0
LINE
  8
_0-0_
  6
CONTINUOUS
 62
    7
 10
34.719884745361583
 20
21.385743638135693
 11
37.719884745361583
 21
19.653692861654065
  0
LINE
  8
_0-0_
  6
CONTINUOUS
 62
    7
 10
37.719884745361583
 20
19.653692861654065
 11
40.719884745361583
 21
21.385743638135693
  0
CIRCLE
  8
_0-0_
  6
CONTINUOUS
 62
    7
 10
37.719884745361583
 20
23.117794414617322
 40
6.5
  0
CIRCLE
  8
_0-0_
  6
CONTINUOUS
 62
    7
 10
37.719884745361583
 20
23.117794414617322
 40
8.8950004580000002
  0
LINE
  8
_0-0_
  6
CONTINUOUS
 62
    7
 10
16.719884745361583
 20
21.385743638135693
 11
16.719884745361583
 21
24.84984519109895
  0
LINE
  8
_0-0_
  6
CONTINUOUS
 62
    7
 10
16.719884745361583
 20
24.84984519109895
 11
13.719884745361583
 21
26.581895967580579
  0
LINE
  8
_0-0_
  6
CONTINUOUS
 62
    7
 10
13.719884745361583
 20
26.581895967580579
 11
10.719884745361583
 21
24.84984519109895
  0
LINE
  8
_0-0_
  6
CONTINUOUS
 62
    7
 10
10.719884745361583
 20
24.84984519109895
 11
10.719884745361583
 21
21.385743638135693
  0
LINE
  8
_0-0_
  6
CONTINUOUS
 62
    7
 10
10.719884745361583
 20
21.385743638135693
 11
13.719884745361583
 21
19.653692861654065
  0
LINE
  8
_0-0_
  6
CONTINUOUS
 62
    7
 10
13.719884745361583
 20
19.653692861654065
 11
16.719884745361583
 21
21.385743638135693
  0
CIRCLE
  8
_0-0_
  6
CONTINUOUS
 62
    7
 10
13.719884745361583
 20
23.117794414617322
 40
6.5
  0
CIRCLE
  8
_0-0_
  6
CONTINUOUS
 62
    7
 10
13.719884745361583
 20
23.117794414617322
 40
8.8950004580000002
  0
LINE
  8
_0-0_
  6
CONTINUOUS
 62
    7
 10
181.13594738715068
 20
75.250853399528125
 11
183.13594738715068
 21
75.250853399528125
  0
LINE
  8
_0-0_
  6
CONTINUOUS
 62
    7
 10
181.13594738715068
 20
75.250853399528125
 11
181.13594738715068
 21
103.25085339952813
  0
LINE
  8
_0-0_
  6
CONTINUOUS
 62
    7
 10
181.13594738715068
 20
103.25085339952813
 11
183.13594738715068
 21
103.25085339952813
  0
LINE
  8
_0-0_
  6
CONTINUOUS
 62
    7
 10
183.13594738715068
 20
75.250853399528125
 11
183.13594738715068
 21
103.25085339952813
  0
LINE
  8
_0-0_
  6
CONTINUOUS
 62
    7
 10
181.13594738715068
 20
5.1177944146173218
 11
183.13594738715068
 21
5.1177944146173218
  0
LINE
  8
_0-0_
  6
CONTINUOUS
 62
    7
 10
170.90594784491435
 20
24.742794414617322
 11
177.90594736807719
 21
24.742794414617322
  0
LINE
  8
_0-0_
  6
CONTINUOUS
 62
    7
 10
170.90594784491435
 20
25.555294414617322
 11
177.90594736807719
 21
25.555294414617322
  0
LINE
  8
_0-0_
  6
CONTINUOUS
 62
    7
 10
170.90594784491435
 20
28.805294414617322
 11
177.90594736807719
 21
28.805294414617322
  0
LINE
  8
_0-0_
  6
CONTINUOUS
 62
    7
 10
170.90594784491435
 20
27.992794414617322
 11
177.90594736807719
 21
27.992794414617322
  0
LINE
  8
_0-0_
  6
CONTINUOUS
 62
    7
 10
170.90594784491435
 20
27.180294414617322
 11
177.90594736807719
 21
27.180294414617322
  0
LINE
  8
_0-0_
  6
CONTINUOUS
 62
    7
 10
170.90594784491435
 20
26.367794414617322
 11
177.90594736807719
 21
26.367794414617322
  0
LINE
  8
_0-0_
  6
CONTINUOUS
 62
    7
 10
170.90594784491435
 20
16.617794414617322
 11
169.90594784491435
 21
17.617794414617322
  0
LINE
  8
_0-0_
  6
CONTINUOUS
 62
    7
 10
169.90594784491435
 20
28.617794414617322
 11
169.90594784491435
 21
17.617794414617322
  0
LINE
  8
_0-0_
  6
CONTINUOUS
 62
    7
 10
169.90594784491435
 20
28.617794414617322
 11
170.90594784491435
 21
29.617794414617322
  0
LINE
  8
_0-0_
  6
CONTINUOUS
 62
    7
 10
170.90594784491435
 20
16.617794414617322
 11
170.90594784491435
 21
29.617794414617322
  0
LINE
  8
_0-0_
  6
CONTINUOUS
 62
    7
 10
170.90594784491435
 20
16.617794414617322
 11
179.90594736807719
 21
16.617794414617322
  0
LINE
  8
_0-0_
  6
CONTINUOUS
 62
    7
 10
170.90594784491435
 20
29.617794414617322
 11
179.90594736807719
 21
29.617794414617322
  0
LINE
  8
_0-0_
  6
CONTINUOUS
 62
    7
 10
177.90594736807719
 20
16.617794414617322
 11
177.90594736807719
 21
29.617794414617322
  0
LINE
  8
_0-0_
  6
CONTINUOUS
 62
    7
 10
179.90594736807719
 20
14.22279395685365
 11
181.13594738715068
 21
14.22279395685365
  0
LINE
  8
_0-0_
  6
CONTINUOUS
 62
    7
 10
179.90594736807719
 20
14.22279395685365
 11
179.90594736807719
 21
32.012794872380994
  0
LINE
  8
_0-0_
  6
CONTINUOUS
 62
    7
 10
179.90594736807719
 20
32.012794872380994
 11
181.13594738715068
 21
32.012794872380994
  0
LINE
  8
_0-0_
  6
CONTINUOUS
 62
    7
 10
179.90594736807719
 20
23.695144673444531
 11
177.90594736807719
 21
22.540444155790112
  0
LINE
  8
_0-0_
  6
CONTINUOUS
 62
    7
 10
192.90594736807719
 20
26.567794462301038
 11
192.90594736807719
 21
19.667794366933606
  0
LINE
  8
_0-0_
  6
CONTINUOUS
 62
    7
 10
192.35594813101665
 20
19.117794414617322
 11
192.90594736807719
 21
19.667794366933606
  0
LINE
  8
_0-0_
  6
CONTINUOUS
 62
    7
 10
192.90594736807719
 20
26.567794462301038
 11
192.35594813101665
 21
27.117794414617322
  0
LINE
  8
_0-0_
  6
CONTINUOUS
 62
    7
 10
190.33594440600206
 20
19.61783011565791
 11
190.33597036814405
 21
26.617664911397753
  0
LINE
  8
_0-0_
  6
CONTINUOUS
 62
    7
 10
186.7359473871507
 20
28.20520295422881
 11
183.73595896094281
 21
27.942772265143105
  0
LINE
  8
_0-0_
  6
CONTINUOUS
 62
    7
 10
190.33597036814405
 20
26.617664911397753
 11
188.5007054029748
 21
29.796509892917641
  0
LINE
  8
_0-0_
  6
CONTINUOUS
 62
    7
 10
186.7359473871507
 20
30.117748386542701
 11
186.7359473871507
 21
28.20520295422881
  0
LINE
  8
_0-0_
  6
CONTINUOUS
 62
    7
 10
188.5007054029748
 20
29.796509892917641
 11
186.7359473871507
 21
30.117748386542701
  0
LINE
  8
_0-0_
  6
CONTINUOUS
 62
    7
 10
186.7359473871507
 20
18.030312606783866
 11
183.73592581336521
 21
18.292816564129737
  0
LINE
  8
_0-0_
  6
CONTINUOUS
 62
    7
 10
183.73595896094281
 20
27.942772265143105
 11
183.73592581336521
 21
18.292816564129737
  0
LINE
  8
_0-0_
  6
CONTINUOUS
 62
    7
 10
190.33597036814405
 20
19.61791206168806
 11
188.5007054029748
 21
16.439067080168172
  0
LINE
  8
_0-0_
  6
CONTINUOUS
 62
    7
 10
186.7359473871507
 20
16.117828586543112
 11
186.7359473871507
 21
18.030374018857003
  0
LINE
  8
_0-0_
  6
CONTINUOUS
 62
    7
 10
188.5007054029748
 20
16.439067080168172
 11
186.7359473871507
 21
16.117828586543112
  0
LINE
  8
_0-0_
  6
CONTINUOUS
 62
    7
 10
192.35594813101665
 20
19.117794414617322
 11
190.04723392409988
 21
19.117794414617322
  0
LINE
  8
_0-0_
  6
CONTINUOUS
 62
    7
 10
183.73592864716244
 20
19.117794414617322
 11
183.13594738715068
 21
19.117794414617322
  0
LINE
  8
_0-0_
  6
CONTINUOUS
 62
    7
 10
192.35594813101665
 20
27.117794414617322
 11
190.04722707910594
 21
27.117794414617322
  0
LINE
  8
_0-0_
  6
CONTINUOUS
 62
    7
 10
183.73595612714558
 20
27.117794414617322
 11
183.13594738715068
 21
27.117794414617322
  0
LINE
  8
_0-0_
  6
CONTINUOUS
 62
    7
 10
181.13594738715068
 20
5.1177944146173218
 11
181.13594738715068
 21
33.117794414617322
  0
LINE
  8
_0-0_
  6
CONTINUOUS
 62
    7
 10
181.13594738715068
 20
33.117794414617322
 11
183.13594738715068
 21
33.117794414617322
  0
LINE
  8
_0-0_
  6
CONTINUOUS
 62
    7
 10
183.13594738715068
 20
5.1177944146173218
 11
183.13594738715068
 21
33.117794414617322
  0
LINE
  8
_0-1_
  6
CENTER1
 62
  152
 10
133.71988474536158
 20
30.7315305104201
 11
133.71988474536158
 21
15.379769819610431
  0
LINE
  8
_0-1_
  6
CENTER1
 62
  152
 10
143.71988474536158
 20
23.117794414617322
 11
3.719884745361469
 21
23.117794414617322
  0
LINE
  8
_0-1_
  6
CENTER1
 62
  152
 10
13.719884745361583
 20
30.7315305104201
 11
13.719884745361583
 21
15.379769819610431
  0
LINE
  8
_0-1_
  6
CENTER1
 62
  152
 10
37.719884745361583
 20
15.379769819610431
 11
37.719884745361583
 21
30.7315305104201
  0
LINE
  8
_0-1_
  6
CENTER1
 62
  152
 10
61.719884745361583
 20
30.7315305104201
 11
61.719884745361583
 21
15.379769819610431
  0
LINE
  8
_0-1_
  6
CENTER1
 62
  152
 10
85.719884745361583
 20
15.379769819610431
 11
85.719884745361583
 21
30.7315305104201
  0
LINE
  8
_0-1_
  6
CENTER1
 62
  152
 10
109.71988474536158
 20
30.7315305104201
 11
109.71988474536158
 21
15.379769819610431
  0
LINE
  8
_0-1_
  6
CENTER1
 62
  152
 10
133.71988474536158
 20
100.8645894953309
 11
133.71988474536158
 21
85.512828804521234
  0
LINE
  8
_0-1_
  6
CENTER1
 62
  152
 10
143.71988474536158
 20
93.250853399528125
 11
3.719884745361469
 21
93.250853399528125
  0
LINE
  8
_0-1_
  6
CENTER1
 62
  152
 10
13.719884745361583
 20
100.8645894953309
 11
13.719884745361583
 21
85.512828804521234
  0
LINE
  8
_0-1_
  6
CENTER1
 62
  152
 10
37.719884745361583
 20
85.512828804521234
 11
37.719884745361583
 21
100.8645894953309
  0
LINE
  8
_0-1_
  6
CENTER1
 62
  152
 10
61.719884745361583
 20
100.8645894953309
 11
61.719884745361583
 21
85.512828804521234
  0
LINE
  8
_0-1_
  6
CENTER1
 62
  152
 10
85.719884745361583
 20
85.512828804521234
 11
85.719884745361583
 21
100.8645894953309
  0
LINE
  8
_0-1_
  6
CENTER1
 62
  152
 10
109.71988474536158
 20
100.8645894953309
 11
109.71988474536158
 21
85.512828804521234
  0
LINE
  8
_0-1_
  6
CENTER1
 62
  152
 10
175.9639756147721
 20
93.250853399528125
 11
188.6223174827
 21
93.250853399528125
  0
LINE
  8
ADD_LINE
  6
DOT
 62
  152
 10
181.13594738715068
 20
23.117794414617322
 11
181.84305416833723
 21
23.824901195803989
  0
LINE
  8
ADD_LINE
  6
DOT
 62
  152
 10
181.13594738715068
 20
23.117794414617322
 11
181.84305416833723
 21
22.410687633430655
  0
LINE
  8
_0-1_
  6
CENTER1
 62
  152
 10
168.51593098394625
 20
23.117794414617322
 11
194.98409053978031
 21
23.117794414617322
  0
LINE
  8
ADD_LINE
  6
DOT
 62
  152
 10
183.13594748253723
 20
23.117794414617322
 11
183.8430542637048
 21
22.410687633449754
  0
LINE
  8
ADD_LINE
  6
DOT
 62
  152
 10
183.8430542637048
 20
23.824901195823088
 11
183.13594748251813
 21
23.117794414636421
  0
LINE
  8
_0-1_
  6
PHANTOM1
 62
  152
 10
183.13594738715068
 20
3.1177944146173218
 11
223.13594738715068
 21
3.1177944146173218
  0
LINE
  8
_0-1_
  6
PHANTOM1
 62
  152
 10
223.13594738715068
 20
3.1177944146173218
 11
223.13594738715068
 21
43.117794414617322
  0
LINE
  8
_0-1_
  6
PHANTOM1
 62
  152
 10
223.13594738715068
 20
43.117794414617322
 11
183.13594738715068
 21
43.117794414617322
  0
LINE
  8
_0-1_
  6
PHANTOM1
 62
  152
 10
183.13594738715068
 20
43.117794414617322
 11
183.13594738715068
 21
3.1177944146173218
  0
TEXT
  8
_0-1_
 62
    7
 10
8.7866690243722587
 20
104.94641763576988
 40
4.2999999999999998
 41
0.744186046511628
 50
0
  1
SP30-H
  0
TEXT
  8
_0-1_
 62
    7
 10
8.7866690243722587
 20
34.813358650859072
 40
4.2999999999999998
 41
0.744186046511628
 50
0
  1
SP30-B
  0
LINE
  8
_0-1_
  6
CONTINUOUS
 62
  152
 10
183.13594738715068
 20
26.567794462301038
 11
183.73595423789692
 21
26.567794462301038
  0
LINE
  8
_0-1_
  6
CONTINUOUS
 62
  152
 10
183.13594738715068
 20
19.667794366933606
 11
183.7359305364111
 21
19.667794366933606
  0
LINE
  8
_0-1_
  6
CONTINUOUS
 62
  152
 10
190.3359701831763
 20
26.567794462301038
 11
192.90594736807719
 21
26.567794462301038
  0
LINE
  8
_0-1_
  6
CONTINUOUS
 62
  152
 10
192.35594813101665
 20
19.117794414617322
 11
192.35594813101665
 21
27.117794414617322
  0
LINE
  8
_0-1_
  6
CONTINUOUS
 62
  152
 10
190.33597036814405
 20
19.667794366933606
 11
192.90594736807719
 21
19.667794366933606
  0
ENDSEC
  0
EOF
