  0
SECTION
  2
HEADER
  9
$ACADVER
  1
AC1009
  9
$INSBASE
 10
0
 20
0
 30
0
  9
$EXTMIN
 10
0
 20
0
  9
$EXTMAX
 10
1189
 20
841
  9
$LIMMIN
 10
0
 20
0
  9
$LIMMAX
 10
1189
 20
841
  9
$LTSCALE
 40
1
  0
ENDSEC
  0
SECTION
  2
TABLES
  0
TABLE
  2
LTYPE
 70
     9
  0
LTYPE
  2
CONTINUOUS
 70
    64
  3
実線
 72
    65
 73
     0
 40
0.0
  0
LTYPE
  2
DASHED1
 70
    64
  3
--  --  --  --  --  --  --  --  
 72
    65
 73
     2
 40
2.5
 49
1.25
 49
-1.25
  0
LTYPE
  2
DASHED2
 70
    64
  3
----    ----    ----    ----    
 72
    65
 73
     2
 40
5.0
 49
2.5
 49
-2.5
  0
LTYPE
  2
DASHED3
 70
    64
  3
------  ------  ------  ------  
 72
    65
 73
     2
 40
5.0
 49
3.75
 49
-1.25
  0
LTYPE
  2
CENTER1
 70
    64
  3
----- - ----- - ----- - ----- - 
 72
    65
 73
     4
 40
10.0
 49
6.25
 49
-1.25
 49
1.25
 49
-1.25
  0
LTYPE
  2
CENTER2
 70
    64
  3
----------  --  ----------  --  
 72
    65
 73
     4
 40
20.0
 49
12.5
 49
-2.5
 49
2.5
 49
-2.5
  0
LTYPE
  2
PHANTOM1
 70
    64
  3
--- - - --- - - --- - - --- - - 
 72
    65
 73
     6
 40
10.0
 49
3.25
 49
-1.25
 49
1.25
 49
-1.25
 49
1.25
 49
-1.25
  0
LTYPE
  2
PHANTOM2
 70
    64
  3
--------  -  -  --------  -  -  
 72
    65
 73
     6
 40
20.0
 49
10.0
 49
-2.5
 49
1.25
 49
-2.5
 49
1.25
 49
-2.5
  0
LTYPE
  2
DOT
 70
    64
  3
-   -   -   -   -   -   -   -   
 72
    65
 73
     2
 40
2.5
 49
0.625
 49
-1.875
  0
LTYPE
  2
DUMMY
 70
    64
  3
ダミー
 72
    65
 73
     0
 40
0.0
  0
LTYPE
  2
RAND1
 70
    64
  3
ランダム線1
 72
    65
 73
     4
 40
10.0
 49
1.0
 49
-2.0
 49
3.0
 49
-4.0
  0
LTYPE
  2
RAND2
 70
    64
  3
ランダム線2
 72
    65
 73
     4
 40
14.0
 49
2.0
 49
-3.0
 49
4.0
 49
-5.0
  0
LTYPE
  2
RAND3
 70
    64
  3
ランダム線3
 72
    65
 73
     4
 40
18.0
 49
3.0
 49
-4.0
 49
5.0
 49
-6.0
  0
LTYPE
  2
RAND4
 70
    64
  3
ランダム線4
 72
    65
 73
     4
 40
22.0
 49
4.0
 49
-5.0
 49
6.0
 49
-7.0
  0
LTYPE
  2
RAND5
 70
    64
  3
ランダム線5
 72
    65
 73
     4
 40
26.0
 49
5.0
 49
-6.0
 49
7.0
 49
-8.0
  0
LTYPE
  2
LONG1
 70
    64
  3
----------  --  ----------  --  
 72
    65
 73
     4
 40
40.0
 49
32.5
 49
-2.5
 49
2.5
 49
-2.5
  0
LTYPE
  2
LONG2
 70
    64
  3
--------  -  -  --------  -  -  
 72
    65
 73
     6
 40
40.0
 49
30.0
 49
-2.5
 49
1.25
 49
-2.5
 49
1.25
 49
-2.5
  0
LTYPE
  2
LONG3
 70
    64
  3
+++++++++++++++..+++++++++++++++
 72
    65
 73
     2
 40
40.0
 49
37.5
 49
-2.5
  0
LTYPE
  2
LONG4
 70
    64
  3
+++++++++++++++..+++++++++++++++
 72
    65
 73
     2
 40
80.0
 49
75.0
 49
-5.0
  0
LTYPE
  2
LONG5
 70
    64
  3
----------  --  ----------  --  
 72
    65
 73
     4
 40
60.0
 49
37.5
 49
-7.5
 49
7.5
 49
-7.5
  0
LTYPE
  2
dashed
 70
   64
  3
-------   -------------   ------
 72
   65
 73
    2
 40
7.5
 49
6
 49
-1.5
  0
LTYPE
  2
dashed_spaced
 70
   64
  3
----        --------        ----
 72
   65
 73
    2
 40
12
 49
6
 49
-6
  0
LTYPE
  2
long_dashed_dotted
 70
   64
  3
------------- --- --------------
 72
   65
 73
    4
 40
15.25
 49
12
 49
-1.5
 49
0.25
 49
-1.5
  0
LTYPE
  2
long_dashed_double-dotted
 70
   64
  3
----------- --- --- ------------
 72
   65
 73
    6
 40
17
 49
12
 49
-1.5
 49
0.25
 49
-1.5
 49
0.25
 49
-1.5
  0
LTYPE
  2
long_dashed_triplicate-dotted
 70
   64
  3
--------- --- --- --- ----------
 72
   65
 73
    8
 40
18.75
 49
12
 49
-1.5
 49
0.25
 49
-1.5
 49
0.25
 49
-1.5
 49
0.25
 49
-1.5
  0
LTYPE
  2
dotted
 70
   64
  3
   -       -       -       -    
 72
   65
 73
    2
 40
1.75
 49
0.25
 49
-1.5
  0
LTYPE
  2
chain
 70
   64
  3
-------------- -- --------------
 72
   65
 73
    4
 40
18.5
 49
12
 49
-1.5
 49
3.5
 49
-1.5
  0
LTYPE
  2
chain_double_dash
 70
   64
  3
------------ -- -- -------------
 72
   65
 73
    6
 40
23.5
 49
12
 49
-1.5
 49
3.5
 49
-1.5
 49
3.5
 49
-1.5
  0
LTYPE
  2
dashed_dotted
 70
   64
  3
-----------     -     ----------
 72
   65
 73
    4
 40
9.25
 49
6
 49
-1.5
 49
0.25
 49
-1.5
  0
LTYPE
  2
double-dashed_dotted
 70
   64
  3
------   -----------   -   -----
 72
   65
 73
    6
 40
16.75
 49
6
 49
-1.5
 49
6
 49
-1.5
 49
0.25
 49
-1.5
  0
LTYPE
  2
dashed_double-dotted
 70
   64
  3
---------    -    -    ---------
 72
   65
 73
    6
 40
11
 49
6
 49
-1.5
 49
0.25
 49
-1.5
 49
0.25
 49
-1.5
  0
LTYPE
  2
double-dashed_double-dotted
 70
   64
  3
-----   ---------   -   -   ----
 72
   65
 73
    8
 40
18.5
 49
6
 49
-1.5
 49
6
 49
-1.5
 49
0.25
 49
-1.5
 49
0.25
 49
-1.5
  0
LTYPE
  2
dashed_triplicate-dotted
 70
   64
  3
-------    -    -    -    ------
 72
   65
 73
    8
 40
12.75
 49
6
 49
-1.5
 49
0.25
 49
-1.5
 49
0.25
 49
-1.5
 49
0.25
 49
-1.5
  0
LTYPE
  2
double-dashed_triplicate-dotted
 70
   64
  3
-----  ---------  -  -  -  -----
 72
   65
 73
   10
 40
20.25
 49
6
 49
-1.5
 49
6
 49
-1.5
 49
0.25
 49
-1.5
 49
0.25
 49
-1.5
 49
0.25
 49
-1.5
  0
LTYPE
  2
undefined
 70
   64
  3
--------------------------------
 72
   65
 73
    0
 40
0
  0
ENDTAB
  0
TABLE
  2
STYLE
  5
3
100
AcDbSymbolTable
 70
     1
  0
STYLE
  5
10
100
AcDbSymbolTableRecord
100
AcDbTextStyleTableRecord
  2
STANDARD
 70
     0
 40
0.0
 41
1.0
 50
0.0
 71
     0
 42
0.2
  3
txt
  4
bigfont.shx
  0
STYLE
  5
26
100
AcDbSymbolTableRecord
100
AcDbTextStyleTableRecord
  2
TATEGAKI
 70
    68
 40
0.0
 41
1.0
 50
0.0
 71
     0
 42
1.0
  3
txt
  4
bigfont.shx
  0
ENDTAB
  0
TABLE
  2
LAYER
 70
    3
  0
LAYER
  2
_0-0_
 70
   64
 62
    7
  6
CONTINUOUS
  0
LAYER
  2
_0-1_
 70
   64
 62
    7
  6
CONTINUOUS
  0
LAYER
  2
ADD_LINE
 70
   64
 62
    7
  6
CONTINUOUS
  0
ENDTAB
  0
ENDSEC
  0
SECTION
  2
BLOCKS
  0
ENDSEC
  0
SECTION
  2
ENTITIES
  0
LINE
  8
_0-0_
  6
CONTINUOUS
 62
    7
 10
63.429109110009335
 20
29.197830776948308
 11
3.4291091100093354
 21
29.197830776948308
  0
LINE
  8
_0-0_
  6
CONTINUOUS
 62
    7
 10
3.4291091100093354
 20
29.197830776948308
 11
3.4291091100093354
 21
4.1978307769483081
  0
LINE
  8
_0-0_
  6
CONTINUOUS
 62
    7
 10
3.4291091100093354
 20
4.1978307769483081
 11
63.429109110009335
 21
4.1978307769483081
  0
LINE
  8
_0-0_
  6
CONTINUOUS
 62
    7
 10
117.55408985740803
 20
4.1978307769483081
 11
117.55408985740803
 21
29.197830776948308
  0
LINE
  8
_0-0_
  6
CONTINUOUS
 62
    7
 10
117.55408985740803
 20
29.197830776948308
 11
77.554089857407575
 21
29.197830776948308
  0
LINE
  8
_0-0_
  6
CONTINUOUS
 62
    7
 10
77.554089857407575
 20
4.1978307769483081
 11
117.55408985740803
 21
4.1978307769483081
  0
CIRCLE
  8
_0-0_
  6
CONTINUOUS
 62
    7
 10
53.429109110009335
 20
14.197830776948308
 40
3.2999999523162842
  0
CIRCLE
  8
_0-0_
  6
CONTINUOUS
 62
    7
 10
53.429109110009335
 20
14.197830776948308
 40
5.5
  0
CIRCLE
  8
_0-0_
  6
CONTINUOUS
 62
    7
 10
33.429109110009335
 20
14.197830776948308
 40
3.2999999523162842
  0
CIRCLE
  8
_0-0_
  6
CONTINUOUS
 62
    7
 10
33.429109110009335
 20
14.197830776948308
 40
5.5
  0
CIRCLE
  8
_0-0_
  6
CONTINUOUS
 62
    7
 10
13.429109110009335
 20
14.197830776948308
 40
3.2999999523162842
  0
CIRCLE
  8
_0-0_
  6
CONTINUOUS
 62
    7
 10
13.429109110009335
 20
14.197830776948308
 40
5.5
  0
CIRCLE
  8
_0-0_
  6
CONTINUOUS
 62
    7
 10
107.55408985740803
 20
14.197830776948308
 40
3.2999999523162842
  0
CIRCLE
  8
_0-0_
  6
CONTINUOUS
 62
    7
 10
107.55408985740803
 20
14.197830776948308
 40
5.5
  0
CIRCLE
  8
_0-0_
  6
CONTINUOUS
 62
    7
 10
87.554089857407575
 20
14.197830776948308
 40
3.2999999523162842
  0
CIRCLE
  8
_0-0_
  6
CONTINUOUS
 62
    7
 10
87.554089857407575
 20
14.197830776948308
 40
5.5
  0
LINE
  8
_0-0_
  6
CONTINUOUS
 62
    7
 10
215.22369243191855
 20
21.197830776948308
 11
201.52369243191828
 21
21.197830776948308
  0
LINE
  8
_0-0_
  6
CONTINUOUS
 62
    7
 10
201.02369243191828
 20
21.697830776948308
 11
201.02369243191828
 21
24.061634780946747
  0
LINE
  8
_0-0_
  6
CONTINUOUS
 62
    7
 10
201.27369243191828
 20
24.494647482839014
 11
203.97369243191855
 21
26.053493209651037
  0
LINE
  8
_0-0_
  6
CONTINUOUS
 62
    7
 10
204.22369243191855
 20
26.486505911543304
 11
204.22369243191855
 21
28.697830776948308
  0
LINE
  8
_0-0_
  6
CONTINUOUS
 62
    7
 10
203.72369243191855
 20
29.197830776948308
 11
196.72369243191855
 21
29.197830776948308
  0
LINE
  8
_0-0_
  6
CONTINUOUS
 62
    7
 10
196.22369243191855
 20
28.697830776948308
 11
196.22369243191855
 21
14.49783077694849
  0
LINE
  8
_0-0_
  6
CONTINUOUS
 62
    7
 10
215.72369243191855
 20
8.6978307769483649
 11
216.22369243191855
 21
8.1978307769483649
  0
LINE
  8
_0-0_
  6
CONTINUOUS
 62
    7
 10
216.22369243191855
 20
8.1978307769483649
 11
216.22369243191855
 21
4.6978307769483081
  0
LINE
  8
_0-0_
  6
CONTINUOUS
 62
    7
 10
215.72369243191855
 20
4.1978307769483081
 11
197.72369243191855
 21
4.1978307769483081
  0
ARC
  8
_0-0_
  6
CONTINUOUS
 62
    7
 10
215.72369243191855
 20
4.6978307769483081
 40
0.5
 50
270
 51
0
  0
ARC
  8
_0-0_
  6
CONTINUOUS
 62
    7
 10
215.22369243191855
 20
20.697830776948308
 40
0.5
 50
0
 51
90
  0
ARC
  8
_0-0_
  6
CONTINUOUS
 62
    7
 10
201.52369243191828
 20
21.697830776948308
 40
0.5
 50
180
 51
270
  0
ARC
  8
_0-0_
  6
CONTINUOUS
 62
    7
 10
201.52369243191828
 20
24.061634780946747
 40
0.5
 50
119.99999999999997
 51
180
  0
ARC
  8
_0-0_
  6
CONTINUOUS
 62
    7
 10
203.72369243191855
 20
26.486505911543304
 40
0.5
 50
300.00000000000006
 51
0.0000000000000127
  0
ARC
  8
_0-0_
  6
CONTINUOUS
 62
    7
 10
203.72369243191855
 20
28.697830776948308
 40
0.5
 50
0
 51
90
  0
ARC
  8
_0-0_
  6
CONTINUOUS
 62
    7
 10
196.72369243191855
 20
28.697830776948308
 40
0.5
 50
90
 51
180
  0
ARC
  8
_0-0_
  6
CONTINUOUS
 62
    7
 10
197.72369243191855
 20
5.6978307769483081
 40
1.5
 50
180
 51
270
  0
LINE
  8
_0-0_
  6
CONTINUOUS
 62
    7
 10
196.22369243191855
 20
13.897830776948354
 11
196.22369243191855
 21
5.6978307769483081
  0
LINE
  8
_0-0_
  6
CONTINUOUS
 62
    7
 10
215.42369243191837
 20
14.197830776948365
 11
215.72369243191855
 21
14.497830776948547
  0
LINE
  8
_0-0_
  6
CONTINUOUS
 62
    7
 10
215.72369243191855
 20
14.497830776948547
 11
215.72369243191855
 21
20.697830776948308
  0
LINE
  8
_0-0_
  6
CONTINUOUS
 62
    7
 10
215.72369243191855
 20
13.89783077694841
 11
215.72369243191855
 21
8.6978307769483649
  0
LINE
  8
_0-0_
  6
CONTINUOUS
 62
    7
 10
215.72369243191855
 20
13.89783077694841
 11
215.42369243191837
 21
14.197830776948365
  0
LINE
  8
_0-0_
  6
DASHED2
 62
    7
 10
196.22369243191855
 20
14.49783077694849
 11
196.52369243191873
 21
14.197830776948308
  0
LINE
  8
_0-0_
  6
DASHED2
 62
    7
 10
196.52369243191873
 20
14.197830776948308
 11
196.22369243191855
 21
13.897830776948354
  0
LINE
  8
_0-0_
  6
CONTINUOUS
 62
    7
 10
133.28140903721135
 20
4.1978307769483081
 11
133.28140903721135
 21
29.197830776948308
  0
LINE
  8
_0-0_
  6
CONTINUOUS
 62
    7
 10
133.28140903721135
 20
29.197830776948308
 11
163.28140903721135
 21
29.197830776948308
  0
LINE
  8
_0-0_
  6
CONTINUOUS
 62
    7
 10
163.28140903721135
 20
29.197830776948308
 11
163.28140903721135
 21
4.1978307769483081
  0
LINE
  8
_0-0_
  6
CONTINUOUS
 62
    7
 10
163.28140903721135
 20
4.1978307769483081
 11
133.28140903721135
 21
4.1978307769483081
  0
CIRCLE
  8
_0-0_
  6
CONTINUOUS
 62
    7
 10
148.28140903721135
 20
14.197830776948308
 40
3.2999999523162842
  0
CIRCLE
  8
_0-0_
  6
CONTINUOUS
 62
    7
 10
148.28140903721135
 20
14.197830776948308
 40
5.5
  0
LINE
  8
_0-0_
  6
CONTINUOUS
 62
    7
 10
196.22377243191789
 20
96.197829222175983
 11
196.22377243191789
 21
104.39782922217603
  0
LINE
  8
_0-0_
  6
CONTINUOUS
 62
    7
 10
196.22377243191789
 20
104.39782922217603
 11
195.92377243191817
 21
104.69782922217598
  0
LINE
  8
_0-0_
  6
CONTINUOUS
 62
    7
 10
195.92377243191817
 20
104.69782922217598
 11
196.22377243191789
 21
104.99782922217616
  0
LINE
  8
_0-0_
  6
CONTINUOUS
 62
    7
 10
196.22377243191789
 20
104.99782922217616
 11
196.22377243191789
 21
119.19782922217598
  0
LINE
  8
_0-0_
  6
CONTINUOUS
 62
    7
 10
195.72377243191789
 20
119.69782922217598
 11
188.72377243191789
 21
119.69782922217598
  0
LINE
  8
_0-0_
  6
CONTINUOUS
 62
    7
 10
188.22377243191789
 20
119.19782922217598
 11
188.22377243191789
 21
116.98650435677098
  0
LINE
  8
_0-0_
  6
CONTINUOUS
 62
    7
 10
188.47377243191789
 20
116.55349165487871
 11
191.17377243191817
 21
114.99464592806669
  0
LINE
  8
_0-0_
  6
CONTINUOUS
 62
    7
 10
191.42377243191817
 20
114.56163322617442
 11
191.42377243191817
 21
112.19782922217598
  0
LINE
  8
_0-0_
  6
CONTINUOUS
 62
    7
 10
190.92377243191817
 20
111.69782922217598
 11
177.22377243191789
 21
111.69782922217598
  0
LINE
  8
_0-0_
  6
CONTINUOUS
 62
    7
 10
176.72377243191789
 20
111.19782922217598
 11
176.72377243191789
 21
104.99782922217616
  0
LINE
  8
_0-0_
  6
CONTINUOUS
 62
    7
 10
176.72377243191789
 20
104.99782922217616
 11
177.02377243191808
 21
104.69782922217598
  0
LINE
  8
_0-0_
  6
CONTINUOUS
 62
    7
 10
177.02377243191808
 20
104.69782922217598
 11
176.72377243191789
 21
104.39782922217603
  0
LINE
  8
_0-0_
  6
CONTINUOUS
 62
    7
 10
176.72377243191789
 20
104.39782922217603
 11
176.72377243191789
 21
99.197829222175983
  0
LINE
  8
_0-0_
  6
CONTINUOUS
 62
    7
 10
176.72377243191789
 20
99.197829222175983
 11
176.22377243191789
 21
98.697829222175983
  0
LINE
  8
_0-0_
  6
CONTINUOUS
 62
    7
 10
176.22377243191789
 20
98.697829222175983
 11
175.72377243191789
 21
99.197829222175983
  0
LINE
  8
_0-0_
  6
CONTINUOUS
 62
    7
 10
175.72377243191789
 20
99.197829222175983
 11
175.72377243191789
 21
104.39782922217603
  0
LINE
  8
_0-0_
  6
CONTINUOUS
 62
    7
 10
175.72377243191789
 20
104.39782922217603
 11
175.42377243191817
 21
104.69782922217598
  0
LINE
  8
_0-0_
  6
CONTINUOUS
 62
    7
 10
175.42377243191817
 20
104.69782922217598
 11
175.72377243191789
 21
104.99782922217616
  0
LINE
  8
_0-0_
  6
CONTINUOUS
 62
    7
 10
175.72377243191789
 20
104.99782922217616
 11
175.72377243191789
 21
111.19782922217598
  0
LINE
  8
_0-0_
  6
CONTINUOUS
 62
    7
 10
175.22377243191789
 20
111.69782922217598
 11
161.52377243191808
 21
111.69782922217598
  0
LINE
  8
_0-0_
  6
CONTINUOUS
 62
    7
 10
161.02377243191808
 20
112.19782922217598
 11
161.02377243191808
 21
114.56163322617442
  0
LINE
  8
_0-0_
  6
CONTINUOUS
 62
    7
 10
161.27377243191808
 20
114.99464592806669
 11
163.97377243191789
 21
116.55349165487871
  0
LINE
  8
_0-0_
  6
CONTINUOUS
 62
    7
 10
164.22377243191789
 20
116.98650435677098
 11
164.22377243191789
 21
119.19782922217598
  0
LINE
  8
_0-0_
  6
CONTINUOUS
 62
    7
 10
163.72377243191789
 20
119.69782922217598
 11
156.72377243191789
 21
119.69782922217598
  0
LINE
  8
_0-0_
  6
CONTINUOUS
 62
    7
 10
156.22377243191789
 20
119.19782922217598
 11
156.22377243191789
 21
104.69782922217598
  0
LINE
  8
_0-0_
  6
CONTINUOUS
 62
    7
 10
194.72377243191789
 20
94.697829222175983
 11
176.72377243191789
 21
94.697829222175983
  0
LINE
  8
_0-0_
  6
CONTINUOUS
 62
    7
 10
175.72377243191789
 20
94.697829222175983
 11
157.72377243191789
 21
94.697829222175983
  0
LINE
  8
_0-0_
  6
CONTINUOUS
 62
    7
 10
156.22377243191789
 20
96.197829222175983
 11
156.22377243191789
 21
104.39782922217603
  0
LINE
  8
_0-0_
  6
CONTINUOUS
 62
    7
 10
156.22377243191789
 20
104.39782922217603
 11
156.52377243191808
 21
104.69782922217598
  0
LINE
  8
_0-0_
  6
CONTINUOUS
 62
    7
 10
156.52377243191808
 20
104.69782922217598
 11
156.22377243191789
 21
104.99782922217616
  0
LINE
  8
_0-0_
  6
CONTINUOUS
 62
    7
 10
176.22377243191789
 20
98.697829222175983
 11
176.22377243191789
 21
95.197829222175983
  0
ARC
  8
_0-0_
  6
CONTINUOUS
 62
    7
 10
157.72377243191789
 20
96.197829222175983
 40
1.5
 50
180
 51
270
  0
ARC
  8
_0-0_
  6
CONTINUOUS
 62
    7
 10
156.72377243191789
 20
119.19782922217598
 40
0.5
 50
90
 51
180
  0
ARC
  8
_0-0_
  6
CONTINUOUS
 62
    7
 10
163.72377243191789
 20
119.19782922217598
 40
0.5
 50
0
 51
90
  0
ARC
  8
_0-0_
  6
CONTINUOUS
 62
    7
 10
163.72377243191789
 20
116.98650435677098
 40
0.5
 50
300.00000000000006
 51
0.0000000000000127
  0
ARC
  8
_0-0_
  6
CONTINUOUS
 62
    7
 10
161.52377243191808
 20
114.56163322617442
 40
0.5
 50
119.99999999999997
 51
180
  0
ARC
  8
_0-0_
  6
CONTINUOUS
 62
    7
 10
161.52377243191808
 20
112.19782922217598
 40
0.5
 50
180
 51
270
  0
ARC
  8
_0-0_
  6
CONTINUOUS
 62
    7
 10
175.22377243191789
 20
111.19782922217598
 40
0.5
 50
0
 51
90
  0
ARC
  8
_0-0_
  6
CONTINUOUS
 62
    7
 10
175.72377243191789
 20
95.197829222175983
 40
0.5
 50
270
 51
0
  0
ARC
  8
_0-0_
  6
CONTINUOUS
 62
    7
 10
194.72377243191789
 20
96.197829222175983
 40
1.5
 50
270
 51
0
  0
ARC
  8
_0-0_
  6
CONTINUOUS
 62
    7
 10
195.72377243191789
 20
119.19782922217598
 40
0.5
 50
0
 51
90
  0
ARC
  8
_0-0_
  6
CONTINUOUS
 62
    7
 10
188.72377243191789
 20
119.19782922217598
 40
0.5
 50
90
 51
180
  0
ARC
  8
_0-0_
  6
CONTINUOUS
 62
    7
 10
188.72377243191789
 20
116.98650435677098
 40
0.5
 50
180
 51
239.99999999999994
  0
ARC
  8
_0-0_
  6
CONTINUOUS
 62
    7
 10
190.92377243191817
 20
114.56163322617442
 40
0.5
 50
0.0000000000000127
 51
60.000000000000036
  0
ARC
  8
_0-0_
  6
CONTINUOUS
 62
    7
 10
190.92377243191817
 20
112.19782922217598
 40
0.5
 50
270
 51
0
  0
ARC
  8
_0-0_
  6
CONTINUOUS
 62
    7
 10
177.22377243191789
 20
111.19782922217598
 40
0.5
 50
90
 51
180
  0
ARC
  8
_0-0_
  6
CONTINUOUS
 62
    7
 10
176.72377243191789
 20
95.197829222175983
 40
0.5
 50
180
 51
270
  0
LINE
  8
_0-0_
  6
CONTINUOUS
 62
    7
 10
259.63437678731606
 20
119.69782922217598
 11
229.63437678731606
 21
119.69782922217598
  0
LINE
  8
_0-0_
  6
CONTINUOUS
 62
    7
 10
229.63437678731606
 20
119.69782922217598
 11
229.63437678731606
 21
94.697829222175983
  0
LINE
  8
_0-0_
  6
CONTINUOUS
 62
    7
 10
229.63437678731606
 20
94.697829222175983
 11
259.63437678731606
 21
94.697829222175983
  0
LINE
  8
_0-0_
  6
CONTINUOUS
 62
    7
 10
259.63437678731606
 20
94.697829222175983
 11
259.63437678731606
 21
119.69782922217598
  0
CIRCLE
  8
_0-0_
  6
CONTINUOUS
 62
    7
 10
244.20717678731597
 20
104.69782922217644
 40
2.5499999523162842
  0
CIRCLE
  8
_0-0_
  6
CONTINUOUS
 62
    7
 10
244.20717678731597
 20
104.69782922217644
 40
3
  0
LINE
  8
_0-0_
  6
CONTINUOUS
 62
    7
 10
35.226242309158124
 20
133.82047419676837
 11
34.926242309157942
 21
133.52047419676819
  0
LINE
  8
_0-0_
  6
CONTINUOUS
 62
    7
 10
34.926242309157942
 20
133.52047419676819
 11
28.726242309158124
 21
133.52047419676819
  0
LINE
  8
_0-0_
  6
CONTINUOUS
 62
    7
 10
28.226242309158124
 20
134.02047419676819
 11
28.226242309158124
 21
147.72047419676852
  0
LINE
  8
_0-0_
  6
CONTINUOUS
 62
    7
 10
27.726242309158124
 20
148.22047419676852
 11
25.362438305159685
 21
148.22047419676852
  0
LINE
  8
_0-0_
  6
CONTINUOUS
 62
    7
 10
24.929425603267418
 20
147.97047419676852
 11
23.370579876455395
 21
145.27047419676825
  0
LINE
  8
_0-0_
  6
CONTINUOUS
 62
    7
 10
22.937567174563128
 20
145.02047419676825
 11
20.726242309158124
 21
145.02047419676825
  0
LINE
  8
_0-0_
  6
CONTINUOUS
 62
    7
 10
20.226242309158124
 20
145.52047419676825
 11
20.226242309158124
 21
152.52047419676825
  0
LINE
  8
_0-0_
  6
CONTINUOUS
 62
    7
 10
20.726242309158124
 20
153.02047419676825
 11
34.926242309157942
 21
153.02047419676825
  0
LINE
  8
_0-0_
  6
CONTINUOUS
 62
    7
 10
34.926242309157942
 20
153.02047419676825
 11
35.226242309158124
 21
152.72047419676807
  0
LINE
  8
_0-0_
  6
CONTINUOUS
 62
    7
 10
35.526242309158079
 20
133.52047419676819
 11
40.726242309158124
 21
133.52047419676819
  0
LINE
  8
_0-0_
  6
CONTINUOUS
 62
    7
 10
40.726242309158124
 20
133.52047419676819
 11
41.226242309158124
 21
133.02047419676819
  0
LINE
  8
_0-0_
  6
CONTINUOUS
 62
    7
 10
41.226242309158124
 20
133.02047419676819
 11
44.726242309158124
 21
133.02047419676819
  0
LINE
  8
_0-0_
  6
CONTINUOUS
 62
    7
 10
45.226242309158124
 20
133.52047419676819
 11
45.226242309158124
 21
151.52047419676825
  0
LINE
  8
_0-0_
  6
CONTINUOUS
 62
    7
 10
35.526242309158079
 20
133.52047419676819
 11
35.226242309158124
 21
133.82047419676837
  0
ARC
  8
_0-0_
  6
CONTINUOUS
 62
    7
 10
44.726242309158124
 20
133.52047419676819
 40
0.5
 50
270
 51
0
  0
ARC
  8
_0-0_
  6
CONTINUOUS
 62
    7
 10
28.726242309158124
 20
134.02047419676819
 40
0.5
 50
180
 51
270
  0
ARC
  8
_0-0_
  6
CONTINUOUS
 62
    7
 10
27.726242309158124
 20
147.72047419676852
 40
0.5
 50
0
 51
90
  0
ARC
  8
_0-0_
  6
CONTINUOUS
 62
    7
 10
25.362438305159685
 20
147.72047419676852
 40
0.5
 50
90
 51
150.00000000000003
  0
ARC
  8
_0-0_
  6
CONTINUOUS
 62
    7
 10
22.937567174563128
 20
145.52047419676825
 40
0.5
 50
270
 51
329.99999999999994
  0
ARC
  8
_0-0_
  6
CONTINUOUS
 62
    7
 10
20.726242309158124
 20
145.52047419676825
 40
0.5
 50
180
 51
270
  0
ARC
  8
_0-0_
  6
CONTINUOUS
 62
    7
 10
20.726242309158124
 20
152.52047419676825
 40
0.5
 50
90
 51
180
  0
ARC
  8
_0-0_
  6
CONTINUOUS
 62
    7
 10
43.726242309158124
 20
151.52047419676825
 40
1.5
 50
0
 51
90
  0
LINE
  8
_0-0_
  6
CONTINUOUS
 62
    7
 10
35.226242309158124
 20
152.72047419676807
 11
35.526242309158079
 21
153.02047419676825
  0
LINE
  8
_0-0_
  6
CONTINUOUS
 62
    7
 10
35.526242309158079
 20
153.02047419676825
 11
43.726242309158124
 21
153.02047419676825
  0
LINE
  8
_0-0_
  6
CONTINUOUS
 62
    7
 10
77.554089857407575
 20
29.197830776948308
 11
77.554089857407575
 21
4.1978307769483081
  0
LINE
  8
_0-0_
  6
CONTINUOUS
 62
    7
 10
63.429109110009335
 20
4.1978307769483081
 11
63.429109110009335
 21
29.197830776948308
  0
LINE
  8
_0-1_
  6
CENTER2
 62
  152
 10
201.22373243191845
 20
41.197830776948535
 11
191.22373243191845
 21
41.197830776948535
  0
LINE
  8
_0-1_
  6
CENTER2
 62
  152
 10
196.22373243191845
 20
36.197830776948535
 11
196.22373243191845
 21
46.197830776948535
  0
LINE
  8
_0-1_
  6
PHANTOM1
 62
  152
 10
216.22373243191845
 20
61.197830776948535
 11
216.22373243191845
 21
21.197830776948535
  0
LINE
  8
_0-1_
  6
PHANTOM1
 62
  152
 10
216.22373243191845
 20
21.197830776948535
 11
176.22373243191845
 21
21.197830776948535
  0
LINE
  8
_0-1_
  6
PHANTOM1
 62
  152
 10
176.22373243191845
 20
61.197830776948535
 11
216.22373243191845
 21
61.197830776948535
  0
LINE
  8
_0-1_
  6
PHANTOM1
 62
  152
 10
176.22373243191845
 20
21.197830776948535
 11
176.22373243191845
 21
61.197830776948535
  0
LINE
  8
ADD_LINE
  6
DOT
 62
  152
 10
201.72369243191855
 20
14.197830776948308
 11
202.4307992131051
 21
13.490723995761641
  0
LINE
  8
ADD_LINE
  6
DOT
 62
  152
 10
201.72369243191855
 20
14.197830776948308
 11
202.4307992131051
 21
14.904937558134975
  0
LINE
  8
_0-1_
  6
CONTINUOUS
 62
  152
 10
196.32369233655112
 20
19.197830776948308
 11
195.72369243191855
 21
18.59783087231574
  0
LINE
  8
_0-1_
  6
CONTINUOUS
 62
  152
 10
195.72369243191855
 20
9.7978306815808764
 11
195.72369243191855
 21
18.59783087231574
  0
LINE
  8
_0-1_
  6
CONTINUOUS
 62
  152
 10
195.72369243191855
 20
9.7978306815808764
 11
196.32369233655112
 21
9.1978307769483081
  0
LINE
  8
ADD_LINE
  6
DOT
 62
  152
 10
216.2236925273051
 20
14.197830776948308
 11
216.93079930847267
 21
14.904937558115876
  0
LINE
  8
ADD_LINE
  6
DOT
 62
  152
 10
216.93079930847267
 20
13.490723995742542
 11
216.223692527286
 21
14.197830776929209
  0
LINE
  8
_0-1_
  6
CONTINUOUS
 62
  152
 10
223.42368945076993
 20
17.69779507590772
 11
223.42371541291192
 21
10.697960280167877
  0
LINE
  8
_0-1_
  6
CONTINUOUS
 62
  152
 10
219.82369243191857
 20
9.1104222373368202
 11
216.82370400571068
 21
9.3728529264225244
  0
LINE
  8
_0-1_
  6
CONTINUOUS
 62
  152
 10
223.42371541291192
 20
10.697960280167877
 11
221.58845044774267
 21
7.5191152986479892
  0
LINE
  8
_0-1_
  6
CONTINUOUS
 62
  152
 10
219.82369243191857
 20
7.1978768050229291
 11
219.82369243191857
 21
9.1104222373368202
  0
LINE
  8
_0-1_
  6
CONTINUOUS
 62
  152
 10
221.58845044774267
 20
7.5191152986479892
 11
219.82369243191857
 21
7.1978768050229291
  0
LINE
  8
_0-1_
  6
CONTINUOUS
 62
  152
 10
219.82369243191857
 20
19.285312584781764
 11
216.82367085813308
 21
19.022808627435893
  0
LINE
  8
_0-1_
  6
CONTINUOUS
 62
  152
 10
216.82370400571068
 20
9.3728529264225244
 11
216.82367085813308
 21
19.022808627435893
  0
LINE
  8
_0-1_
  6
CONTINUOUS
 62
  152
 10
223.42371541291192
 20
17.69771312987757
 11
221.58845044774267
 21
20.876558111397458
  0
LINE
  8
_0-1_
  6
CONTINUOUS
 62
  152
 10
219.82369243191857
 20
21.197796605022518
 11
219.82369243191857
 21
19.285251172708627
  0
LINE
  8
_0-1_
  6
CONTINUOUS
 62
  152
 10
221.58845044774267
 20
20.876558111397458
 11
219.82369243191857
 21
21.197796605022518
  0
LINE
  8
_0-1_
  6
CONTINUOUS
 62
  152
 10
223.72369243191855
 20
11.647830824632024
 11
223.72369243191855
 21
16.747830729264592
  0
LINE
  8
_0-1_
  6
CONTINUOUS
 62
  152
 10
223.72369243191855
 20
11.647830824632024
 11
223.42371300248914
 21
11.347851236267729
  0
LINE
  8
_0-1_
  6
CONTINUOUS
 62
  152
 10
223.4236918614622
 20
17.047831458667019
 11
223.72369243191855
 21
16.747830729264592
  0
LINE
  8
_0-1_
  6
CONTINUOUS
 62
  152
 10
223.42369297415439
 20
16.747830729264592
 11
223.72369243191855
 21
16.747830729264592
  0
LINE
  8
_0-1_
  6
CONTINUOUS
 62
  152
 10
223.42371188987534
 20
11.647830824632024
 11
223.72369243191855
 21
11.647830824632024
  0
LINE
  8
_0-1_
  6
CENTER1
 62
  152
 10
196.22369243191855
 20
14.197830776948308
 11
215.771203562072
 21
14.197830776948308
  0
LINE
  8
_0-1_
  6
CONTINUOUS
 62
  152
 10
215.72369243191855
 20
16.747830729264592
 11
216.82367867267737
 21
16.747830729264592
  0
LINE
  8
_0-1_
  6
CONTINUOUS
 62
  152
 10
216.82367712692815
 20
17.197830776948308
 11
215.72369243191855
 21
17.197830776948308
  0
LINE
  8
_0-1_
  6
CONTINUOUS
 62
  152
 10
215.72369243191855
 20
11.647830824632024
 11
216.82369619116639
 21
11.647830824632024
  0
LINE
  8
_0-1_
  6
CONTINUOUS
 62
  152
 10
216.82369773691562
 20
11.197830776948308
 11
215.72369243191855
 21
11.197830776948308
  0
LINE
  8
_0-1_
  6
DASHED2
 62
  152
 10
196.32369233655112
 20
12.322830776948308
 11
201.72369243191855
 21
12.322830776948308
  0
LINE
  8
_0-1_
  6
DASHED2
 62
  152
 10
196.32369233655112
 20
11.697830776948308
 11
201.72369243191855
 21
11.697830776948308
  0
LINE
  8
_0-1_
  6
DASHED2
 62
  152
 10
196.32369233655112
 20
11.072830776948308
 11
201.72369243191855
 21
11.072830776948308
  0
LINE
  8
_0-1_
  6
DASHED2
 62
  152
 10
196.32369233655112
 20
10.447830776948308
 11
201.72369243191855
 21
10.447830776948308
  0
LINE
  8
_0-1_
  6
DASHED2
 62
  152
 10
196.32369233655112
 20
9.8228307769483081
 11
201.72369243191855
 21
9.8228307769483081
  0
LINE
  8
_0-1_
  6
DASHED2
 62
  152
 10
196.32369233655112
 20
19.197830776948308
 11
201.72369243191855
 21
19.197830776948308
  0
LINE
  8
_0-1_
  6
DASHED2
 62
  152
 10
196.32369233655112
 20
9.1978307769483081
 11
201.72369243191855
 21
9.1978307769483081
  0
LINE
  8
_0-1_
  6
DASHED2
 62
  152
 10
196.32369233655112
 20
19.197830776948308
 11
196.32369233655112
 21
9.1978307769483081
  0
LINE
  8
_0-1_
  6
DASHED2
 62
  152
 10
215.72369243191855
 20
17.197830776948308
 11
201.72369243191855
 21
17.197830776948308
  0
LINE
  8
_0-1_
  6
DASHED2
 62
  152
 10
201.72369243191855
 20
16.747830729264592
 11
215.72369243191855
 21
16.747830729264592
  0
LINE
  8
_0-1_
  6
DASHED2
 62
  152
 10
201.72369243191855
 20
11.647830824632024
 11
215.72369243191855
 21
11.647830824632024
  0
LINE
  8
_0-1_
  6
DASHED2
 62
  152
 10
215.72369243191855
 20
11.197830776948308
 11
201.72369243191855
 21
11.197830776948308
  0
LINE
  8
_0-1_
  6
CENTER1
 62
  152
 10
216.07827437260573
 20
14.197830776948308
 11
224.3853869194125
 21
14.197830776948308
  0
LINE
  8
_0-1_
  6
DASHED2
 62
  152
 10
201.72369243191855
 20
19.697830776948308
 11
196.22369243191855
 21
19.697830776948308
  0
LINE
  8
_0-1_
  6
DASHED2
 62
  152
 10
201.72369243191855
 20
8.6978307769483081
 11
201.72369243191855
 21
19.697830776948308
  0
LINE
  8
_0-1_
  6
DASHED2
 62
  152
 10
201.72369243191855
 20
17.447830776948308
 11
215.72369243191855
 21
17.447830776948308
  0
LINE
  8
_0-1_
  6
DASHED2
 62
  152
 10
201.72369243191855
 20
10.947830776948308
 11
215.72369243191855
 21
10.947830776948308
  0
LINE
  8
_0-1_
  6
DASHED2
 62
  152
 10
196.22369243191855
 20
8.6978307769483081
 11
201.72369243191855
 21
8.6978307769483081
  0
TEXT
  8
_0-1_
 62
    7
 10
3.4291091100093354
 20
34.295917130319594
 40
5
 41
1
 50
0
  1
SL4B
  0
TEXT
  8
_0-1_
 62
    7
 10
77.554089857407575
 20
34.295917130319594
 40
5
 41
1
 50
0
  1
SL4B
  0
TEXT
  8
_0-1_
 62
    7
 10
3.4291091100093354
 20
39.295917130319594
 40
5
 41
1
 50
0
  1
SL4H
  0
TEXT
  8
_0-1_
 62
    7
 10
77.554089857407575
 20
39.295917130319594
 40
5
 41
1
 50
0
  1
SL4H
  0
TEXT
  8
_0-1_
 62
    7
 10
15.386174229271091
 20
37.321960083023441
 40
5
 41
1
 50
0
  1
-L60
  0
TEXT
  8
_0-1_
 62
    7
 10
90.158107412050185
 20
37.321960083023441
 40
5
 41
1
 50
0
  1
-L40
  0
LINE
  8
_0-1_
  6
CENTER1
 62
  152
 10
133.28140903721135
 20
14.197830776948308
 11
163.28140903721135
 21
14.197830776948308
  0
LINE
  8
_0-1_
  6
CENTER1
 62
  152
 10
148.28140903721135
 20
25.127430776948472
 11
148.28140903721135
 21
4.1978307769483081
  0
TEXT
  8
_0-1_
 62
    7
 10
133.28140903721135
 20
34.295917130319594
 40
5
 41
1
 50
0
  1
SL4B
  0
TEXT
  8
_0-1_
 62
    7
 10
133.28140903721135
 20
39.295917130319594
 40
5
 41
1
 50
0
  1
SL4H
  0
TEXT
  8
_0-1_
 62
    7
 10
144.95982264380518
 20
36.982087659465378
 40
5
 41
1
 50
0
  1
-L30
  0
LINE
  8
_0-1_
  6
CENTER1
 62
  152
 10
156.22377243191789
 20
104.69782922217598
 11
195.92377243191817
 21
104.69782922217598
  0
LINE
  8
_0-1_
  6
CENTER2
 62
  152
 10
161.22381243191779
 20
131.69782922217621
 11
151.22381243191779
 21
131.69782922217621
  0
LINE
  8
_0-1_
  6
CENTER2
 62
  152
 10
156.22381243191779
 20
126.69782922217621
 11
156.22381243191779
 21
136.69782922217621
  0
LINE
  8
_0-1_
  6
CENTER2
 62
  152
 10
196.22373243191845
 20
136.69782922217621
 11
196.22373243191845
 21
126.69782922217621
  0
LINE
  8
_0-1_
  6
CENTER2
 62
  152
 10
191.22373243191845
 20
131.69782922217621
 11
201.22373243191845
 21
131.69782922217621
  0
TEXT
  8
_0-1_
 62
    7
 10
184.10691133210622
 20
84.983435052887899
 40
5
 41
1
 50
0
  1
SL4S-L30
  0
LINE
  8
_0-1_
  6
PHANTOM1
 62
  152
 10
176.22381243191779
 20
111.69782922217621
 11
136.22381243191779
 21
111.69782922217621
  0
LINE
  8
_0-1_
  6
PHANTOM1
 62
  152
 10
136.22381243191779
 20
111.69782922217621
 11
136.22381243191779
 21
151.69782922217621
  0
LINE
  8
_0-1_
  6
PHANTOM1
 62
  152
 10
136.22381243191779
 20
151.69782922217621
 11
176.22381243191779
 21
151.69782922217621
  0
LINE
  8
_0-1_
  6
PHANTOM1
 62
  152
 10
176.22381243191779
 20
151.69782922217621
 11
176.22381243191779
 21
111.69782922217621
  0
LINE
  8
_0-1_
  6
PHANTOM1
 62
  152
 10
216.22373243191845
 20
111.69782922217621
 11
176.22373243191845
 21
111.69782922217621
  0
LINE
  8
_0-1_
  6
PHANTOM1
 62
  152
 10
176.22373243191845
 20
111.69782922217621
 11
176.22373243191845
 21
151.69782922217621
  0
LINE
  8
_0-1_
  6
PHANTOM1
 62
  152
 10
176.22373243191845
 20
151.69782922217621
 11
216.22373243191845
 21
151.69782922217621
  0
LINE
  8
_0-1_
  6
PHANTOM1
 62
  152
 10
216.22373243191845
 20
151.69782922217621
 11
216.22373243191845
 21
111.69782922217621
  0
LINE
  8
_0-1_
  6
CENTER1
 62
  152
 10
259.63437678731606
 20
104.69782922217598
 11
229.63437678731606
 21
104.69782922217598
  0
TEXT
  8
_0-1_
 62
    7
 10
229.63437678731606
 20
124.79591557554727
 40
5
 41
1
 50
0
  1
SL4T-L30
  0
LINE
  8
_0-1_
  6
CENTER1
 62
  152
 10
244.20717678731609
 20
112.3322840489119
 11
244.20717678731609
 21
97.203695958801859
  0
TEXT
  8
_0-1_
 62
    7
 10
20.726242309158124
 20
158.11856055013953
 40
5
 41
1
 50
0
  1
SL40
  0
LINE
  8
_0-1_
  6
DASHED2
 62
  152
 10
156.22377243191789
 20
110.19782922217598
 11
161.72377243191789
 21
110.19782922217598
  0
LINE
  8
_0-1_
  6
DASHED2
 62
  152
 10
161.72377243191789
 20
110.19782922217598
 11
161.72377243191789
 21
99.197829222175983
  0
LINE
  8
_0-1_
  6
DASHED2
 62
  152
 10
175.72377243191789
 20
107.94782922217598
 11
161.72377243191789
 21
107.94782922217598
  0
LINE
  8
_0-1_
  6
DASHED2
 62
  152
 10
161.72377243191789
 20
101.44782922217598
 11
175.72377243191789
 21
101.44782922217598
  0
LINE
  8
_0-1_
  6
DASHED2
 62
  152
 10
161.72377243191789
 20
99.197829222175983
 11
156.22377243191789
 21
99.197829222175983
  0
LINE
  8
_0-1_
  6
DASHED2
 62
  152
 10
176.72377243191789
 20
101.69782922217644
 11
196.22377243191789
 21
101.69782922217644
  0
LINE
  8
_0-1_
  6
DASHED2
 62
  152
 10
196.22377243191789
 20
102.14782926986015
 11
176.72377243191789
 21
102.14782926986015
  0
LINE
  8
_0-1_
  6
DASHED2
 62
  152
 10
196.22377243191789
 20
107.24782917449272
 11
176.72377243191789
 21
107.24782917449272
  0
LINE
  8
_0-1_
  6
DASHED2
 62
  152
 10
176.72377243191789
 20
107.69782922217644
 11
196.22377243191789
 21
107.69782922217644
  0
LINE
  8
_0-1_
  6
CENTER1
 62
  152
 10
53.429109110009335
 20
7.1862028660789861
 11
53.429109110009335
 21
23.774110166881428
  0
LINE
  8
_0-1_
  6
CENTER1
 62
  152
 10
33.429109110009335
 20
23.774110166881428
 11
33.429109110009335
 21
7.1862028660789861
  0
LINE
  8
_0-1_
  6
CENTER1
 62
  152
 10
13.429109110009335
 20
7.1862028660789861
 11
13.429109110009335
 21
23.774110166881428
  0
LINE
  8
_0-1_
  6
CENTER1
 62
  152
 10
107.55408985740803
 20
7.1862028660789861
 11
107.55408985740803
 21
23.774110166881428
  0
LINE
  8
_0-1_
  6
CENTER1
 62
  152
 10
87.554089857407575
 20
23.774110166881428
 11
87.554089857407575
 21
7.1862028660789861
  0
LINE
  8
_0-1_
  6
CENTER1
 62
  152
 10
117.55408985740803
 20
14.197830776948308
 11
77.554089857407575
 21
14.197830776948308
  0
LINE
  8
_0-1_
  6
CENTER1
 62
  152
 10
3.4291091100093354
 20
14.197830776948308
 11
63.429109110009335
 21
14.197830776948308
  0
ENDSEC
  0
EOF
