  0
SECTION
  2
HEADER
  9
$ACADVER
  1
AC1009
  9
$INSBASE
 10
0
 20
0
 30
0
  9
$EXTMIN
 10
0
 20
0
  9
$EXTMAX
 10
1189
 20
841
  9
$LIMMIN
 10
0
 20
0
  9
$LIMMAX
 10
1189
 20
841
  9
$LTSCALE
 40
1
  0
ENDSEC
  0
SECTION
  2
TABLES
  0
TABLE
  2
LTYPE
 70
     9
  0
LTYPE
  2
CONTINUOUS
 70
    64
  3
実線
 72
    65
 73
     0
 40
0.0
  0
LTYPE
  2
DASHED1
 70
    64
  3
--  --  --  --  --  --  --  --  
 72
    65
 73
     2
 40
2.5
 49
1.25
 49
-1.25
  0
LTYPE
  2
DASHED2
 70
    64
  3
----    ----    ----    ----    
 72
    65
 73
     2
 40
5.0
 49
2.5
 49
-2.5
  0
LTYPE
  2
DASHED3
 70
    64
  3
------  ------  ------  ------  
 72
    65
 73
     2
 40
5.0
 49
3.75
 49
-1.25
  0
LTYPE
  2
CENTER1
 70
    64
  3
----- - ----- - ----- - ----- - 
 72
    65
 73
     4
 40
10.0
 49
6.25
 49
-1.25
 49
1.25
 49
-1.25
  0
LTYPE
  2
CENTER2
 70
    64
  3
----------  --  ----------  --  
 72
    65
 73
     4
 40
20.0
 49
12.5
 49
-2.5
 49
2.5
 49
-2.5
  0
LTYPE
  2
PHANTOM1
 70
    64
  3
--- - - --- - - --- - - --- - - 
 72
    65
 73
     6
 40
10.0
 49
3.25
 49
-1.25
 49
1.25
 49
-1.25
 49
1.25
 49
-1.25
  0
LTYPE
  2
PHANTOM2
 70
    64
  3
--------  -  -  --------  -  -  
 72
    65
 73
     6
 40
20.0
 49
10.0
 49
-2.5
 49
1.25
 49
-2.5
 49
1.25
 49
-2.5
  0
LTYPE
  2
DOT
 70
    64
  3
-   -   -   -   -   -   -   -   
 72
    65
 73
     2
 40
2.5
 49
0.625
 49
-1.875
  0
LTYPE
  2
DUMMY
 70
    64
  3
ダミー
 72
    65
 73
     0
 40
0.0
  0
LTYPE
  2
RAND1
 70
    64
  3
ランダム線1
 72
    65
 73
     4
 40
10.0
 49
1.0
 49
-2.0
 49
3.0
 49
-4.0
  0
LTYPE
  2
RAND2
 70
    64
  3
ランダム線2
 72
    65
 73
     4
 40
14.0
 49
2.0
 49
-3.0
 49
4.0
 49
-5.0
  0
LTYPE
  2
RAND3
 70
    64
  3
ランダム線3
 72
    65
 73
     4
 40
18.0
 49
3.0
 49
-4.0
 49
5.0
 49
-6.0
  0
LTYPE
  2
RAND4
 70
    64
  3
ランダム線4
 72
    65
 73
     4
 40
22.0
 49
4.0
 49
-5.0
 49
6.0
 49
-7.0
  0
LTYPE
  2
RAND5
 70
    64
  3
ランダム線5
 72
    65
 73
     4
 40
26.0
 49
5.0
 49
-6.0
 49
7.0
 49
-8.0
  0
LTYPE
  2
LONG1
 70
    64
  3
----------  --  ----------  --  
 72
    65
 73
     4
 40
40.0
 49
32.5
 49
-2.5
 49
2.5
 49
-2.5
  0
LTYPE
  2
LONG2
 70
    64
  3
--------  -  -  --------  -  -  
 72
    65
 73
     6
 40
40.0
 49
30.0
 49
-2.5
 49
1.25
 49
-2.5
 49
1.25
 49
-2.5
  0
LTYPE
  2
LONG3
 70
    64
  3
+++++++++++++++..+++++++++++++++
 72
    65
 73
     2
 40
40.0
 49
37.5
 49
-2.5
  0
LTYPE
  2
LONG4
 70
    64
  3
+++++++++++++++..+++++++++++++++
 72
    65
 73
     2
 40
80.0
 49
75.0
 49
-5.0
  0
LTYPE
  2
LONG5
 70
    64
  3
----------  --  ----------  --  
 72
    65
 73
     4
 40
60.0
 49
37.5
 49
-7.5
 49
7.5
 49
-7.5
  0
LTYPE
  2
dashed
 70
   64
  3
-------   -------------   ------
 72
   65
 73
    2
 40
7.5
 49
6
 49
-1.5
  0
LTYPE
  2
dashed_spaced
 70
   64
  3
----        --------        ----
 72
   65
 73
    2
 40
12
 49
6
 49
-6
  0
LTYPE
  2
long_dashed_dotted
 70
   64
  3
------------- --- --------------
 72
   65
 73
    4
 40
15.25
 49
12
 49
-1.5
 49
0.25
 49
-1.5
  0
LTYPE
  2
long_dashed_double-dotted
 70
   64
  3
----------- --- --- ------------
 72
   65
 73
    6
 40
17
 49
12
 49
-1.5
 49
0.25
 49
-1.5
 49
0.25
 49
-1.5
  0
LTYPE
  2
long_dashed_triplicate-dotted
 70
   64
  3
--------- --- --- --- ----------
 72
   65
 73
    8
 40
18.75
 49
12
 49
-1.5
 49
0.25
 49
-1.5
 49
0.25
 49
-1.5
 49
0.25
 49
-1.5
  0
LTYPE
  2
dotted
 70
   64
  3
   -       -       -       -    
 72
   65
 73
    2
 40
1.75
 49
0.25
 49
-1.5
  0
LTYPE
  2
chain
 70
   64
  3
-------------- -- --------------
 72
   65
 73
    4
 40
18.5
 49
12
 49
-1.5
 49
3.5
 49
-1.5
  0
LTYPE
  2
chain_double_dash
 70
   64
  3
------------ -- -- -------------
 72
   65
 73
    6
 40
23.5
 49
12
 49
-1.5
 49
3.5
 49
-1.5
 49
3.5
 49
-1.5
  0
LTYPE
  2
dashed_dotted
 70
   64
  3
-----------     -     ----------
 72
   65
 73
    4
 40
9.25
 49
6
 49
-1.5
 49
0.25
 49
-1.5
  0
LTYPE
  2
double-dashed_dotted
 70
   64
  3
------   -----------   -   -----
 72
   65
 73
    6
 40
16.75
 49
6
 49
-1.5
 49
6
 49
-1.5
 49
0.25
 49
-1.5
  0
LTYPE
  2
dashed_double-dotted
 70
   64
  3
---------    -    -    ---------
 72
   65
 73
    6
 40
11
 49
6
 49
-1.5
 49
0.25
 49
-1.5
 49
0.25
 49
-1.5
  0
LTYPE
  2
double-dashed_double-dotted
 70
   64
  3
-----   ---------   -   -   ----
 72
   65
 73
    8
 40
18.5
 49
6
 49
-1.5
 49
6
 49
-1.5
 49
0.25
 49
-1.5
 49
0.25
 49
-1.5
  0
LTYPE
  2
dashed_triplicate-dotted
 70
   64
  3
-------    -    -    -    ------
 72
   65
 73
    8
 40
12.75
 49
6
 49
-1.5
 49
0.25
 49
-1.5
 49
0.25
 49
-1.5
 49
0.25
 49
-1.5
  0
LTYPE
  2
double-dashed_triplicate-dotted
 70
   64
  3
-----  ---------  -  -  -  -----
 72
   65
 73
   10
 40
20.25
 49
6
 49
-1.5
 49
6
 49
-1.5
 49
0.25
 49
-1.5
 49
0.25
 49
-1.5
 49
0.25
 49
-1.5
  0
LTYPE
  2
undefined
 70
   64
  3
--------------------------------
 72
   65
 73
    0
 40
0
  0
ENDTAB
  0
TABLE
  2
STYLE
  5
3
100
AcDbSymbolTable
 70
     1
  0
STYLE
  5
10
100
AcDbSymbolTableRecord
100
AcDbTextStyleTableRecord
  2
STANDARD
 70
     0
 40
0.0
 41
1.0
 50
0.0
 71
     0
 42
0.2
  3
txt
  4
bigfont.shx
  0
STYLE
  5
26
100
AcDbSymbolTableRecord
100
AcDbTextStyleTableRecord
  2
TATEGAKI
 70
    68
 40
0.0
 41
1.0
 50
0.0
 71
     0
 42
1.0
  3
txt
  4
bigfont.shx
  0
ENDTAB
  0
TABLE
  2
LAYER
 70
    3
  0
LAYER
  2
_0-0_
 70
   64
 62
    7
  6
CONTINUOUS
  0
LAYER
  2
_0-1_
 70
   64
 62
    7
  6
CONTINUOUS
  0
LAYER
  2
ADD_LINE
 70
   64
 62
    7
  6
CONTINUOUS
  0
ENDTAB
  0
ENDSEC
  0
SECTION
  2
BLOCKS
  0
ENDSEC
  0
SECTION
  2
ENTITIES
  0
LINE
  8
_0-0_
  6
CONTINUOUS
 62
    7
 10
265.99932999203344
 20
132.92056557996818
 11
274.19932999203348
 21
132.92056557996818
  0
LINE
  8
_0-0_
  6
CONTINUOUS
 62
    7
 10
275.69932999203348
 20
131.42056557996818
 11
275.69932999203348
 21
123.42056557996818
  0
LINE
  8
_0-0_
  6
CONTINUOUS
 62
    7
 10
275.19932999203348
 20
122.92056557996818
 11
271.69932999203348
 21
122.92056557996818
  0
LINE
  8
_0-0_
  6
CONTINUOUS
 62
    7
 10
271.69932999203348
 20
122.92056557996818
 11
271.19932999203348
 21
123.42056557996818
  0
LINE
  8
_0-0_
  6
CONTINUOUS
 62
    7
 10
271.19932999203348
 20
123.42056557996818
 11
265.99932999203344
 21
123.42056557996818
  0
LINE
  8
_0-0_
  6
CONTINUOUS
 62
    7
 10
265.99932999203344
 20
123.42056557996818
 11
265.69932999203348
 21
123.72056557996791
  0
LINE
  8
_0-0_
  6
CONTINUOUS
 62
    7
 10
265.69932999203348
 20
123.72056557996791
 11
265.39932999203353
 21
123.42056557996818
  0
LINE
  8
_0-0_
  6
CONTINUOUS
 62
    7
 10
265.39932999203353
 20
123.42056557996818
 11
259.19932999203348
 21
123.42056557996818
  0
LINE
  8
_0-0_
  6
CONTINUOUS
 62
    7
 10
258.69932999203348
 20
123.92056557996818
 11
258.69932999203348
 21
127.620565579968
  0
LINE
  8
_0-0_
  6
CONTINUOUS
 62
    7
 10
258.19932999203348
 20
128.120565579968
 11
255.83552598803504
 21
128.120565579968
  0
LINE
  8
_0-0_
  6
CONTINUOUS
 62
    7
 10
255.40251328614301
 20
127.870565579968
 11
253.84366755933098
 21
125.17056557996818
  0
LINE
  8
_0-0_
  6
CONTINUOUS
 62
    7
 10
253.41065485743871
 20
124.92056557996818
 11
251.19932999203348
 21
124.92056557996818
  0
LINE
  8
_0-0_
  6
CONTINUOUS
 62
    7
 10
250.69932999203348
 20
125.42056557996818
 11
250.69932999203348
 21
132.42056557996818
  0
LINE
  8
_0-0_
  6
CONTINUOUS
 62
    7
 10
251.19932999203348
 20
132.92056557996818
 11
265.39932999203353
 21
132.92056557996818
  0
LINE
  8
_0-0_
  6
CONTINUOUS
 62
    7
 10
265.39932999203353
 20
132.92056557996818
 11
265.69932999203348
 21
132.620565579968
  0
LINE
  8
_0-0_
  6
CONTINUOUS
 62
    7
 10
265.69932999203348
 20
132.620565579968
 11
265.99932999203344
 21
132.92056557996818
  0
ARC
  8
_0-0_
  6
CONTINUOUS
 62
    7
 10
274.19932999203348
 20
131.42056557996818
 40
1.5
 50
0
 51
90
  0
ARC
  8
_0-0_
  6
CONTINUOUS
 62
    7
 10
251.19932999203348
 20
132.42056557996818
 40
0.5
 50
90
 51
180
  0
ARC
  8
_0-0_
  6
CONTINUOUS
 62
    7
 10
251.19932999203348
 20
125.42056557996818
 40
0.5
 50
180
 51
270
  0
ARC
  8
_0-0_
  6
CONTINUOUS
 62
    7
 10
253.41065485743871
 20
125.42056557996818
 40
0.5
 50
270
 51
329.99999999999994
  0
ARC
  8
_0-0_
  6
CONTINUOUS
 62
    7
 10
255.83552598803504
 20
127.620565579968
 40
0.5
 50
90
 51
150.00000000000003
  0
ARC
  8
_0-0_
  6
CONTINUOUS
 62
    7
 10
258.19932999203348
 20
127.620565579968
 40
0.5
 50
0
 51
90
  0
ARC
  8
_0-0_
  6
CONTINUOUS
 62
    7
 10
259.19932999203348
 20
123.92056557996818
 40
0.5
 50
180
 51
270
  0
ARC
  8
_0-0_
  6
CONTINUOUS
 62
    7
 10
275.19932999203348
 20
123.42056557996818
 40
0.5
 50
270
 51
0
  0
LINE
  8
_0-0_
  6
CONTINUOUS
 62
    7
 10
302.85914104156592
 20
6.1931310647804594
 11
272.85914104156598
 21
6.1931310647804594
  0
LINE
  8
_0-0_
  6
CONTINUOUS
 62
    7
 10
272.85914104156598
 20
6.1931310647804594
 11
272.85914104156598
 21
31.193131064780459
  0
LINE
  8
_0-0_
  6
CONTINUOUS
 62
    7
 10
272.85914104156598
 20
31.193131064780459
 11
302.85914104156592
 21
31.193131064780459
  0
LINE
  8
_0-0_
  6
CONTINUOUS
 62
    7
 10
302.85914104156592
 20
31.193131064780459
 11
302.85914104156592
 21
6.1931310647804594
  0
CIRCLE
  8
_0-0_
  6
CONTINUOUS
 62
    7
 10
287.43194104156589
 20
16.193131064780914
 40
2.5499999523162842
  0
LINE
  8
_0-0_
  6
CONTINUOUS
 62
    7
 10
60.828737636828009
 20
6.1931310647804594
 11
90.828737636828009
 21
6.1931310647804594
  0
LINE
  8
_0-0_
  6
CONTINUOUS
 62
    7
 10
90.828737636828009
 20
6.1931310647804594
 11
90.828737636828009
 21
31.193131064780459
  0
LINE
  8
_0-0_
  6
CONTINUOUS
 62
    7
 10
90.828737636828009
 20
31.193131064780459
 11
60.828737636828009
 21
31.193131064780459
  0
LINE
  8
_0-0_
  6
CONTINUOUS
 62
    7
 10
60.828737636828009
 20
31.193131064780459
 11
60.828737636828009
 21
6.1931310647804594
  0
LINE
  8
_0-0_
  6
CONTINUOUS
 62
    7
 10
43.980104497523371
 20
6.1931310647804594
 11
43.980104497523371
 21
31.193131064780459
  0
LINE
  8
_0-0_
  6
CONTINUOUS
 62
    7
 10
43.980104497523371
 20
31.193131064780459
 11
3.9801044975233708
 21
31.193131064780459
  0
LINE
  8
_0-0_
  6
CONTINUOUS
 62
    7
 10
3.9801044975233708
 20
31.193131064780459
 11
3.9801044975233708
 21
6.1931310647804594
  0
LINE
  8
_0-0_
  6
CONTINUOUS
 62
    7
 10
3.9801044975233708
 20
6.1931310647804594
 11
43.980104497523371
 21
6.1931310647804594
  0
CIRCLE
  8
_0-0_
  6
CONTINUOUS
 62
    7
 10
75.828737636828009
 20
16.193131064780459
 40
5.5
  0
CIRCLE
  8
_0-0_
  6
CONTINUOUS
 62
    7
 10
75.828737636828009
 20
16.193131064780459
 40
3.25
  0
CIRCLE
  8
_0-0_
  6
CONTINUOUS
 62
    7
 10
33.980104497523371
 20
16.193131064780459
 40
5.5
  0
CIRCLE
  8
_0-0_
  6
CONTINUOUS
 62
    7
 10
13.980104497523371
 20
16.193131064780459
 40
5.5
  0
CIRCLE
  8
_0-0_
  6
CONTINUOUS
 62
    7
 10
33.980104497523371
 20
16.193131064780459
 40
3.25
  0
CIRCLE
  8
_0-0_
  6
CONTINUOUS
 62
    7
 10
13.980104497523371
 20
16.193131064780459
 40
3.25
  0
LINE
  8
_0-0_
  6
CONTINUOUS
 62
    7
 10
136.31115927470034
 20
15.893131064780505
 11
136.31115927470034
 21
7.6931310647804594
  0
LINE
  8
_0-0_
  6
CONTINUOUS
 62
    7
 10
137.81115927470034
 20
6.1931310647804594
 11
145.81115927470034
 21
6.1931310647804594
  0
LINE
  8
_0-0_
  6
CONTINUOUS
 62
    7
 10
146.31115927470034
 20
6.6931310647804594
 11
146.31115927470034
 21
10.193131064780459
  0
LINE
  8
_0-0_
  6
CONTINUOUS
 62
    7
 10
146.31115927470034
 20
10.193131064780459
 11
145.81115927470034
 21
10.693131064780459
  0
LINE
  8
_0-0_
  6
CONTINUOUS
 62
    7
 10
145.81115927470034
 20
10.693131064780459
 11
145.81115927470034
 21
15.893131064780505
  0
LINE
  8
_0-0_
  6
CONTINUOUS
 62
    7
 10
145.81115927470034
 20
15.893131064780505
 11
145.51115927470062
 21
16.193131064780459
  0
LINE
  8
_0-0_
  6
CONTINUOUS
 62
    7
 10
145.51115927470062
 20
16.193131064780459
 11
145.81115927470034
 21
16.493131064780414
  0
LINE
  8
_0-0_
  6
CONTINUOUS
 62
    7
 10
145.81115927470034
 20
16.493131064780414
 11
145.81115927470034
 21
22.693131064780459
  0
LINE
  8
_0-0_
  6
CONTINUOUS
 62
    7
 10
145.31115927470034
 20
23.193131064780459
 11
141.61115927470053
 21
23.193131064780459
  0
LINE
  8
_0-0_
  6
CONTINUOUS
 62
    7
 10
141.11115927470053
 20
23.693131064780459
 11
141.11115927470053
 21
26.056935068778898
  0
LINE
  8
_0-0_
  6
CONTINUOUS
 62
    7
 10
141.36115927470053
 20
26.489947770670938
 11
144.06115927470034
 21
28.048793497482961
  0
LINE
  8
_0-0_
  6
CONTINUOUS
 62
    7
 10
144.31115927470034
 20
28.481806199375228
 11
144.31115927470034
 21
30.693131064780459
  0
LINE
  8
_0-0_
  6
CONTINUOUS
 62
    7
 10
143.81115927470034
 20
31.193131064780459
 11
136.81115927470034
 21
31.193131064780459
  0
LINE
  8
_0-0_
  6
CONTINUOUS
 62
    7
 10
136.31115927470034
 20
30.693131064780459
 11
136.31115927470034
 21
16.493131064780414
  0
LINE
  8
_0-0_
  6
CONTINUOUS
 62
    7
 10
136.31115927470034
 20
16.493131064780414
 11
136.61115927470053
 21
16.193131064780459
  0
LINE
  8
_0-0_
  6
CONTINUOUS
 62
    7
 10
136.61115927470053
 20
16.193131064780459
 11
136.31115927470034
 21
15.893131064780505
  0
ARC
  8
_0-0_
  6
CONTINUOUS
 62
    7
 10
137.81115927470034
 20
7.6931310647804594
 40
1.5
 50
180
 51
270
  0
ARC
  8
_0-0_
  6
CONTINUOUS
 62
    7
 10
136.81115927470034
 20
30.693131064780459
 40
0.5
 50
90
 51
180
  0
ARC
  8
_0-0_
  6
CONTINUOUS
 62
    7
 10
143.81115927470034
 20
30.693131064780459
 40
0.5
 50
0
 51
90
  0
ARC
  8
_0-0_
  6
CONTINUOUS
 62
    7
 10
143.81115927470034
 20
28.481806199375228
 40
0.5
 50
300.00000000000006
 51
0.0000000000000127
  0
ARC
  8
_0-0_
  6
CONTINUOUS
 62
    7
 10
141.61115927470053
 20
26.056935068778898
 40
0.5
 50
119.99999999999997
 51
180
  0
ARC
  8
_0-0_
  6
CONTINUOUS
 62
    7
 10
141.61115927470053
 20
23.693131064780459
 40
0.5
 50
180
 51
270
  0
ARC
  8
_0-0_
  6
CONTINUOUS
 62
    7
 10
145.31115927470034
 20
22.693131064780459
 40
0.5
 50
0
 51
90
  0
ARC
  8
_0-0_
  6
CONTINUOUS
 62
    7
 10
145.81115927470034
 20
6.6931310647804594
 40
0.5
 50
270
 51
0
  0
LINE
  8
_0-0_
  6
CONTINUOUS
 62
    7
 10
135.81115927470034
 20
11.793130969413028
 11
135.81115927470034
 21
20.593131160147891
  0
LINE
  8
_0-0_
  6
CONTINUOUS
 62
    7
 10
136.41115917933291
 20
21.193131064780459
 11
135.81115927470034
 21
20.593131160147891
  0
LINE
  8
_0-0_
  6
CONTINUOUS
 62
    7
 10
135.81115927470034
 20
11.793130969413028
 11
136.41115917933291
 21
11.193131064780459
  0
LINE
  8
_0-0_
  6
CONTINUOUS
 62
    7
 10
146.91116457969741
 20
13.193131064780459
 11
145.81115927470034
 21
13.193131064780459
  0
LINE
  8
_0-0_
  6
CONTINUOUS
 62
    7
 10
146.91114396970994
 20
19.193131064780459
 11
145.81115927470034
 21
19.193131064780459
  0
LINE
  8
_0-0_
  6
CONTINUOUS
 62
    7
 10
153.81115927470034
 20
13.643131112464175
 11
153.81115927470034
 21
18.743131017096744
  0
LINE
  8
_0-0_
  6
CONTINUOUS
 62
    7
 10
153.51115629355172
 20
19.693095363739872
 11
153.51118225569371
 21
12.693260568000028
  0
LINE
  8
_0-0_
  6
CONTINUOUS
 62
    7
 10
149.91115927470037
 20
11.105722525168972
 11
146.91117084849247
 21
11.368153214254676
  0
LINE
  8
_0-0_
  6
CONTINUOUS
 62
    7
 10
153.51118225569371
 20
12.693260568000028
 11
151.67591729052447
 21
9.5144155864801405
  0
LINE
  8
_0-0_
  6
CONTINUOUS
 62
    7
 10
149.91115927470037
 20
9.1931770928550804
 11
149.91115927470037
 21
11.105722525168972
  0
LINE
  8
_0-0_
  6
CONTINUOUS
 62
    7
 10
151.67591729052447
 20
9.5144155864801405
 11
149.91115927470037
 21
9.1931770928550804
  0
LINE
  8
_0-0_
  6
CONTINUOUS
 62
    7
 10
149.91115927470037
 20
21.280612872613915
 11
146.91113770091488
 21
21.018108915268044
  0
LINE
  8
_0-0_
  6
CONTINUOUS
 62
    7
 10
146.91117084849247
 20
11.368153214254676
 11
146.91113770091488
 21
21.018108915268044
  0
LINE
  8
_0-0_
  6
CONTINUOUS
 62
    7
 10
153.51118225569371
 20
19.693013417709722
 11
151.67591729052447
 21
22.871858399229609
  0
LINE
  8
_0-0_
  6
CONTINUOUS
 62
    7
 10
149.91115927470037
 20
23.193096892854669
 11
149.91115927470037
 21
21.280551460540778
  0
LINE
  8
_0-0_
  6
CONTINUOUS
 62
    7
 10
151.67591729052447
 20
22.871858399229609
 11
149.91115927470037
 21
23.193096892854669
  0
LINE
  8
_0-0_
  6
CONTINUOUS
 62
    7
 10
153.81115927470034
 20
13.643131112464175
 11
153.51117984527093
 21
13.343151524099881
  0
LINE
  8
_0-0_
  6
CONTINUOUS
 62
    7
 10
153.51117873265713
 20
13.643131112464175
 11
153.81115927470034
 21
13.643131112464175
  0
LINE
  8
_0-0_
  6
CONTINUOUS
 62
    7
 10
153.51115981693619
 20
18.743131017096744
 11
153.81115927470034
 21
18.743131017096744
  0
LINE
  8
_0-0_
  6
CONTINUOUS
 62
    7
 10
153.511158704244
 20
19.043131746499171
 11
153.81115927470034
 21
18.743131017096744
  0
LINE
  8
_0-0_
  6
CONTINUOUS
 62
    7
 10
213.86900063238164
 20
16.493131064780641
 11
213.86900063238164
 21
30.693131064780459
  0
LINE
  8
_0-0_
  6
CONTINUOUS
 62
    7
 10
214.36900063238164
 20
31.193131064780459
 11
221.36900063238164
 21
31.193131064780459
  0
LINE
  8
_0-0_
  6
CONTINUOUS
 62
    7
 10
221.86900063238164
 20
30.693131064780459
 11
221.86900063238164
 21
28.481806199375455
  0
LINE
  8
_0-0_
  6
CONTINUOUS
 62
    7
 10
221.61900063238164
 20
28.048793497483189
 11
218.91900063238182
 21
26.489947770671165
  0
LINE
  8
_0-0_
  6
CONTINUOUS
 62
    7
 10
218.66900063238182
 20
26.056935068778898
 11
218.66900063238182
 21
23.693131064780459
  0
LINE
  8
_0-0_
  6
CONTINUOUS
 62
    7
 10
219.16900063238182
 20
23.193131064780459
 11
222.86900063238164
 21
23.193131064780459
  0
LINE
  8
_0-0_
  6
CONTINUOUS
 62
    7
 10
223.36900063238164
 20
22.693131064780459
 11
223.36900063238164
 21
16.493131064780641
  0
LINE
  8
_0-0_
  6
CONTINUOUS
 62
    7
 10
223.36900063238164
 20
16.493131064780641
 11
223.06900063238191
 21
16.193131064780459
  0
LINE
  8
_0-0_
  6
CONTINUOUS
 62
    7
 10
223.06900063238191
 20
16.193131064780459
 11
223.36900063238164
 21
15.893131064780505
  0
LINE
  8
_0-0_
  6
CONTINUOUS
 62
    7
 10
223.36900063238164
 20
15.893131064780505
 11
223.36900063238164
 21
10.693131064780459
  0
LINE
  8
_0-0_
  6
CONTINUOUS
 62
    7
 10
223.36900063238164
 20
10.693131064780459
 11
223.86900063238164
 21
10.193131064780459
  0
LINE
  8
_0-0_
  6
CONTINUOUS
 62
    7
 10
223.86900063238164
 20
10.193131064780459
 11
224.36900063238164
 21
10.693131064780459
  0
LINE
  8
_0-0_
  6
CONTINUOUS
 62
    7
 10
224.36900063238164
 20
10.693131064780459
 11
224.36900063238164
 21
15.893131064780505
  0
LINE
  8
_0-0_
  6
CONTINUOUS
 62
    7
 10
224.36900063238164
 20
15.893131064780505
 11
224.66900063238182
 21
16.193131064780459
  0
LINE
  8
_0-0_
  6
CONTINUOUS
 62
    7
 10
224.66900063238182
 20
16.193131064780459
 11
224.36900063238164
 21
16.493131064780641
  0
LINE
  8
_0-0_
  6
CONTINUOUS
 62
    7
 10
224.36900063238164
 20
16.493131064780641
 11
224.36900063238164
 21
22.693131064780459
  0
LINE
  8
_0-0_
  6
CONTINUOUS
 62
    7
 10
224.86900063238164
 20
23.193131064780459
 11
228.56900063238191
 21
23.193131064780459
  0
LINE
  8
_0-0_
  6
CONTINUOUS
 62
    7
 10
229.06900063238191
 20
23.693131064780459
 11
229.06900063238191
 21
26.056935068778898
  0
LINE
  8
_0-0_
  6
CONTINUOUS
 62
    7
 10
228.81900063238191
 20
26.489947770671165
 11
226.11900063238164
 21
28.048793497483189
  0
LINE
  8
_0-0_
  6
CONTINUOUS
 62
    7
 10
225.86900063238164
 20
28.481806199375455
 11
225.86900063238164
 21
30.693131064780459
  0
LINE
  8
_0-0_
  6
CONTINUOUS
 62
    7
 10
226.36900063238164
 20
31.193131064780459
 11
233.36900063238164
 21
31.193131064780459
  0
LINE
  8
_0-0_
  6
CONTINUOUS
 62
    7
 10
233.86900063238164
 20
30.693131064780459
 11
233.86900063238164
 21
16.493131064780641
  0
LINE
  8
_0-0_
  6
CONTINUOUS
 62
    7
 10
233.86900063238164
 20
16.493131064780641
 11
233.56900063238191
 21
16.193131064780459
  0
LINE
  8
_0-0_
  6
CONTINUOUS
 62
    7
 10
233.56900063238191
 20
16.193131064780459
 11
233.86900063238164
 21
15.893131064780505
  0
LINE
  8
_0-0_
  6
CONTINUOUS
 62
    7
 10
233.86900063238164
 20
15.893131064780505
 11
233.86900063238164
 21
7.6931310647804594
  0
LINE
  8
_0-0_
  6
CONTINUOUS
 62
    7
 10
232.36900063238164
 20
6.1931310647804594
 11
224.36900063238164
 21
6.1931310647804594
  0
LINE
  8
_0-0_
  6
CONTINUOUS
 62
    7
 10
223.86900063238164
 20
6.6931310647804594
 11
223.86900063238164
 21
10.193131064780459
  0
LINE
  8
_0-0_
  6
CONTINUOUS
 62
    7
 10
213.86900063238164
 20
16.493131064780641
 11
214.16900063238182
 21
16.193131064780459
  0
LINE
  8
_0-0_
  6
CONTINUOUS
 62
    7
 10
214.16900063238182
 20
16.193131064780459
 11
213.86900063238164
 21
15.893131064780505
  0
LINE
  8
_0-0_
  6
CONTINUOUS
 62
    7
 10
213.86900063238164
 20
15.893131064780505
 11
213.86900063238164
 21
7.6931310647804594
  0
LINE
  8
_0-0_
  6
CONTINUOUS
 62
    7
 10
215.36900063238164
 20
6.1931310647804594
 11
223.36900063238164
 21
6.1931310647804594
  0
ARC
  8
_0-0_
  6
CONTINUOUS
 62
    7
 10
215.36900063238164
 20
7.6931310647804594
 40
1.5
 50
180
 51
270
  0
ARC
  8
_0-0_
  6
CONTINUOUS
 62
    7
 10
214.36900063238164
 20
30.693131064780459
 40
0.5
 50
90
 51
180
  0
ARC
  8
_0-0_
  6
CONTINUOUS
 62
    7
 10
221.36900063238164
 20
30.693131064780459
 40
0.5
 50
0
 51
90
  0
ARC
  8
_0-0_
  6
CONTINUOUS
 62
    7
 10
221.36900063238164
 20
28.481806199375455
 40
0.5
 50
300.00000000000006
 51
0.0000000000000127
  0
ARC
  8
_0-0_
  6
CONTINUOUS
 62
    7
 10
219.16900063238182
 20
26.056935068778898
 40
0.5
 50
119.99999999999997
 51
180
  0
ARC
  8
_0-0_
  6
CONTINUOUS
 62
    7
 10
219.16900063238182
 20
23.693131064780459
 40
0.5
 50
180
 51
270
  0
ARC
  8
_0-0_
  6
CONTINUOUS
 62
    7
 10
222.86900063238164
 20
22.693131064780459
 40
0.5
 50
0
 51
90
  0
ARC
  8
_0-0_
  6
CONTINUOUS
 62
    7
 10
223.36900063238164
 20
6.6931310647804594
 40
0.5
 50
270
 51
0
  0
ARC
  8
_0-0_
  6
CONTINUOUS
 62
    7
 10
232.36900063238164
 20
7.6931310647804594
 40
1.5
 50
270
 51
0
  0
ARC
  8
_0-0_
  6
CONTINUOUS
 62
    7
 10
233.36900063238164
 20
30.693131064780459
 40
0.5
 50
0
 51
90
  0
ARC
  8
_0-0_
  6
CONTINUOUS
 62
    7
 10
226.36900063238164
 20
30.693131064780459
 40
0.5
 50
90
 51
180
  0
ARC
  8
_0-0_
  6
CONTINUOUS
 62
    7
 10
226.36900063238164
 20
28.481806199375455
 40
0.5
 50
180
 51
239.99999999999994
  0
ARC
  8
_0-0_
  6
CONTINUOUS
 62
    7
 10
228.56900063238191
 20
26.056935068778898
 40
0.5
 50
0
 51
60.000000000000036
  0
ARC
  8
_0-0_
  6
CONTINUOUS
 62
    7
 10
228.56900063238191
 20
23.693131064780459
 40
0.5
 50
270
 51
0
  0
ARC
  8
_0-0_
  6
CONTINUOUS
 62
    7
 10
224.86900063238164
 20
22.693131064780459
 40
0.5
 50
90
 51
180
  0
ARC
  8
_0-0_
  6
CONTINUOUS
 62
    7
 10
224.36900063238164
 20
6.6931310647804594
 40
0.5
 50
180
 51
270
  0
LINE
  8
_0-0_
  6
CONTINUOUS
 62
    7
 10
213.86900063238164
 20
16.493131064780414
 11
214.16900063238182
 21
16.193131064780459
  0
LINE
  8
_0-0_
  6
CONTINUOUS
 62
    7
 10
214.16900063238182
 20
16.193131064780459
 11
213.86900063238164
 21
15.893131064780505
  0
LINE
  8
_0-0_
  6
CONTINUOUS
 62
    7
 10
213.36900063238164
 20
11.793130969413028
 11
213.36900063238164
 21
20.593131160147891
  0
LINE
  8
_0-0_
  6
CONTINUOUS
 62
    7
 10
213.96900053701421
 20
21.193131064780459
 11
213.36900063238164
 21
20.593131160147891
  0
LINE
  8
_0-0_
  6
CONTINUOUS
 62
    7
 10
213.36900063238164
 20
11.793130969413028
 11
213.96900053701421
 21
11.193131064780459
  0
LINE
  8
_0-0_
  6
CONTINUOUS
 62
    7
 10
224.36900063238164
 20
19.193131064780459
 11
223.36900063238164
 21
19.193131064780459
  0
LINE
  8
_0-0_
  6
CONTINUOUS
 62
    7
 10
224.36900063238164
 20
13.193131064780459
 11
223.36900063238164
 21
13.193131064780459
  0
TEXT
  8
_0-1_
 62
    7
 10
244.8105450350597
 20
136.36343476064485
 40
5
 41
1
 50
0
  1
SL30
  0
LINE
  8
_0-1_
  6
CENTER1
 62
  152
 10
302.85914104156592
 20
16.193131064780459
 11
272.85914104156598
 21
16.193131064780459
  0
LINE
  8
_0-1_
  6
CENTER1
 62
  152
 10
287.43194104156589
 20
22.294368784617745
 11
287.43194104156589
 21
9.6643310647806402
  0
CIRCLE
  8
_0-1_
  6
CONTINUOUS
 62
  152
 10
287.43194104156589
 20
16.193131064780914
 40
3
  0
TEXT
  8
_0-1_
 62
    7
 10
282.69206075705694
 20
34.594068200435004
 40
5
 41
1
 50
0
  1
SL3T-L30
  0
LINE
  8
_0-1_
  6
CENTER1
 62
  152
 10
75.828737636828009
 20
31.193131064780459
 11
75.828737636828009
 21
6.1931310647804594
  0
LINE
  8
_0-1_
  6
CENTER1
 62
  152
 10
60.828737636828009
 20
16.193131064780459
 11
90.828737636828009
 21
16.193131064780459
  0
LINE
  8
_0-1_
  6
CENTER1
 62
  152
 10
43.980104497523371
 20
16.193131064780459
 11
3.9801044975233708
 21
16.193131064780459
  0
LINE
  8
_0-1_
  6
CENTER1
 62
  152
 10
13.980104497523371
 20
6.1931310647804594
 11
13.980104497523371
 21
31.193131064780459
  0
LINE
  8
_0-1_
  6
CENTER1
 62
  152
 10
33.980104497523371
 20
31.193131064780459
 11
33.980104497523371
 21
6.1931310647804594
  0
LINE
  8
_0-1_
  6
CENTER1
 62
  152
 10
136.61115927470053
 20
16.193131064780459
 11
145.51115927470062
 21
16.193131064780459
  0
LINE
  8
_0-1_
  6
CENTER2
 62
  152
 10
141.31118927403384
 20
43.193141064780662
 11
129.06807214408525
 21
43.193141064780662
  0
LINE
  8
_0-1_
  6
CENTER2
 62
  152
 10
136.31118927403384
 20
48.193141064780662
 11
136.31118927403384
 21
38.193141064780662
  0
LINE
  8
_0-1_
  6
CENTER1
 62
  152
 10
146.31118927403384
 20
23.193141064780662
 11
126.31118927403384
 21
23.193141064780662
  0
LINE
  8
_0-1_
  6
CENTER1
 62
  152
 10
126.31118927403384
 20
23.193141064780662
 11
126.31118927403384
 21
63.193141064780662
  0
LINE
  8
_0-1_
  6
CENTER1
 62
  152
 10
126.31118927403384
 20
63.193141064780662
 11
146.31118927403384
 21
63.193141064780662
  0
LINE
  8
_0-1_
  6
CENTER1
 62
  152
 10
146.31118927403384
 20
63.193141064780662
 11
146.31118927403384
 21
23.193141064780662
  0
LINE
  8
_0-1_
  6
DASHED2
 62
  152
 10
141.81115927470034
 20
10.693131064780459
 11
136.31115927470034
 21
10.693131064780459
  0
LINE
  8
_0-1_
  6
DASHED2
 62
  152
 10
141.81115927470034
 20
21.693131064780459
 11
141.81115927470034
 21
10.693131064780459
  0
LINE
  8
_0-1_
  6
DASHED2
 62
  152
 10
141.81115927470034
 20
12.943131064780459
 11
145.81115927470034
 21
12.943131064780459
  0
LINE
  8
_0-1_
  6
DASHED2
 62
  152
 10
145.81115927470034
 20
19.443131064780459
 11
141.81115927470034
 21
19.443131064780459
  0
LINE
  8
_0-1_
  6
DASHED2
 62
  152
 10
141.81115927470034
 20
21.693131064780459
 11
136.31115927470034
 21
21.693131064780459
  0
LINE
  8
_0-1_
  6
DASHED2
 62
  152
 10
141.81115927470034
 20
16.193131064780459
 11
142.5182660558869
 21
15.486024283593792
  0
LINE
  8
_0-1_
  6
DASHED2
 62
  152
 10
141.81115927470034
 20
16.193131064780459
 11
142.5182660558869
 21
16.900237845967126
  0
LINE
  8
_0-1_
  6
DASHED2
 62
  152
 10
136.41115917933291
 20
14.318131064780459
 11
141.81115927470034
 21
14.318131064780459
  0
LINE
  8
_0-1_
  6
DASHED2
 62
  152
 10
136.41115917933291
 20
13.693131064780459
 11
141.81115927470034
 21
13.693131064780459
  0
LINE
  8
_0-1_
  6
DASHED2
 62
  152
 10
136.41115917933291
 20
13.068131064780459
 11
141.81115927470034
 21
13.068131064780459
  0
LINE
  8
_0-1_
  6
DASHED2
 62
  152
 10
136.41115917933291
 20
12.443131064780459
 11
141.81115927470034
 21
12.443131064780459
  0
LINE
  8
_0-1_
  6
DASHED2
 62
  152
 10
136.41115917933291
 20
11.818131064780459
 11
141.81115927470034
 21
11.818131064780459
  0
LINE
  8
_0-1_
  6
DASHED2
 62
  152
 10
136.41115917933291
 20
21.193131064780459
 11
141.81115927470034
 21
21.193131064780459
  0
LINE
  8
_0-1_
  6
DASHED2
 62
  152
 10
136.41115917933291
 20
11.193131064780459
 11
141.81115927470034
 21
11.193131064780459
  0
LINE
  8
_0-1_
  6
DASHED2
 62
  152
 10
136.41115917933291
 20
21.193131064780459
 11
136.41115917933291
 21
11.193131064780459
  0
LINE
  8
_0-1_
  6
DASHED2
 62
  152
 10
141.81115927470034
 20
18.743131017096744
 11
145.81115927470034
 21
18.743131017096744
  0
LINE
  8
_0-1_
  6
DASHED2
 62
  152
 10
145.81115927470034
 20
19.193131064780459
 11
141.81115927470034
 21
19.193131064780459
  0
LINE
  8
_0-1_
  6
DASHED2
 62
  152
 10
141.81115927470034
 20
13.643131112464175
 11
145.81115927470034
 21
13.643131112464175
  0
LINE
  8
_0-1_
  6
DASHED2
 62
  152
 10
145.81115927470034
 20
13.193131064780459
 11
141.81115927470034
 21
13.193131064780459
  0
LINE
  8
_0-1_
  6
CONTINUOUS
 62
  152
 10
145.81115927470034
 20
13.643131112464175
 11
146.91116303394818
 21
13.643131112464175
  0
LINE
  8
_0-1_
  6
CONTINUOUS
 62
  152
 10
145.81115927470034
 20
18.743131017096744
 11
146.91114551545917
 21
18.743131017096744
  0
LINE
  8
_0-1_
  6
CENTER1
 62
  152
 10
214.16900063238182
 20
16.193131064780459
 11
236.3866381341839
 21
16.193131064780459
  0
LINE
  8
_0-1_
  6
CENTER2
 62
  152
 10
233.8689706330486
 20
38.193141064780662
 11
233.8689706330486
 21
48.193141064780662
  0
LINE
  8
_0-1_
  6
CENTER2
 62
  152
 10
228.8689706330486
 20
43.193141064780662
 11
241.11208776299719
 21
43.193141064780662
  0
LINE
  8
_0-1_
  6
CENTER2
 62
  152
 10
218.86903063171513
 20
43.193141064780662
 11
206.62591350176609
 21
43.193141064780662
  0
LINE
  8
_0-1_
  6
CENTER2
 62
  152
 10
213.86903063171513
 20
38.193141064780662
 11
213.86903063171513
 21
48.193141064780662
  0
LINE
  8
_0-1_
  6
CENTER1
 62
  152
 10
203.86903063171513
 20
23.193141064780662
 11
223.86903063171513
 21
23.193141064780662
  0
LINE
  8
_0-1_
  6
CENTER1
 62
  152
 10
223.86903063171513
 20
23.193141064780662
 11
223.86903063171513
 21
63.193141064780605
  0
LINE
  8
_0-1_
  6
CENTER1
 62
  152
 10
223.86903063171513
 20
63.193141064780605
 11
203.86903063171513
 21
63.193141064780605
  0
LINE
  8
_0-1_
  6
CENTER1
 62
  152
 10
203.86903063171513
 20
63.193141064780605
 11
203.86903063171513
 21
23.193141064780662
  0
LINE
  8
_0-1_
  6
CENTER1
 62
  152
 10
223.8689706330486
 20
23.193141064780662
 11
243.8689706330486
 21
23.193141064780662
  0
LINE
  8
_0-1_
  6
CENTER1
 62
  152
 10
243.8689706330486
 20
23.193141064780662
 11
243.8689706330486
 21
63.193141064780605
  0
LINE
  8
_0-1_
  6
CENTER1
 62
  152
 10
243.8689706330486
 20
63.193141064780605
 11
223.8689706330486
 21
63.193141064780605
  0
LINE
  8
_0-1_
  6
CENTER1
 62
  152
 10
223.8689706330486
 20
63.193141064780605
 11
223.8689706330486
 21
23.193141064780662
  0
LINE
  8
_0-1_
  6
DASHED2
 62
  152
 10
213.96900053701421
 20
14.318131064780459
 11
219.36900063238164
 21
14.318131064780459
  0
LINE
  8
_0-1_
  6
DASHED2
 62
  152
 10
213.96900053701421
 20
13.693131064780459
 11
219.36900063238164
 21
13.693131064780459
  0
LINE
  8
_0-1_
  6
DASHED2
 62
  152
 10
213.96900053701421
 20
13.068131064780459
 11
219.36900063238164
 21
13.068131064780459
  0
LINE
  8
_0-1_
  6
DASHED2
 62
  152
 10
213.96900053701421
 20
12.443131064780459
 11
219.36900063238164
 21
12.443131064780459
  0
LINE
  8
_0-1_
  6
DASHED2
 62
  152
 10
213.96900053701421
 20
11.818131064780459
 11
219.36900063238164
 21
11.818131064780459
  0
LINE
  8
_0-1_
  6
DASHED2
 62
  152
 10
213.96900053701421
 20
21.193131064780459
 11
219.36900063238164
 21
21.193131064780459
  0
LINE
  8
_0-1_
  6
DASHED2
 62
  152
 10
213.96900053701421
 20
11.193131064780459
 11
219.36900063238164
 21
11.193131064780459
  0
LINE
  8
_0-1_
  6
DASHED2
 62
  152
 10
213.96900053701421
 20
21.193131064780459
 11
213.96900053701421
 21
11.193131064780459
  0
LINE
  8
_0-1_
  6
DASHED2
 62
  152
 10
223.36900063238164
 20
13.193131064780459
 11
219.36900063238164
 21
13.193131064780459
  0
LINE
  8
_0-1_
  6
DASHED2
 62
  152
 10
219.36900063238164
 20
13.643131112464175
 11
223.36900063238164
 21
13.643131112464175
  0
LINE
  8
_0-1_
  6
DASHED2
 62
  152
 10
219.36900063238164
 20
18.743131017096744
 11
223.36900063238164
 21
18.743131017096744
  0
LINE
  8
_0-1_
  6
DASHED2
 62
  152
 10
223.36900063238164
 20
19.193131064780459
 11
219.36900063238164
 21
19.193131064780459
  0
LINE
  8
_0-1_
  6
CONTINUOUS
 62
  152
 10
223.36900063238164
 20
18.743131017096744
 11
224.36900063238164
 21
18.743131017096744
  0
LINE
  8
_0-1_
  6
CONTINUOUS
 62
  152
 10
223.36900063238164
 20
13.643131112464175
 11
224.36900063238164
 21
13.643131112464175
  0
LINE
  8
_0-1_
  6
DASHED2
 62
  152
 10
223.36900063238164
 20
12.943131064780459
 11
219.36900063238164
 21
12.943131064780459
  0
LINE
  8
_0-1_
  6
DASHED2
 62
  152
 10
213.86900063238164
 20
10.693131064780459
 11
219.36900063238164
 21
10.693131064780459
  0
LINE
  8
_0-1_
  6
DASHED2
 62
  152
 10
219.36900063238164
 20
10.693131064780459
 11
219.36900063238164
 21
21.693131064780459
  0
LINE
  8
_0-1_
  6
DASHED2
 62
  152
 10
219.36900063238164
 20
21.693131064780459
 11
213.86900063238164
 21
21.693131064780459
  0
LINE
  8
_0-1_
  6
DASHED2
 62
  152
 10
223.36900063238164
 20
19.443131064780459
 11
219.36900063238164
 21
19.443131064780459
  0
LINE
  8
_0-1_
  6
DASHED2
 62
  152
 10
233.86900063238164
 20
19.193131064780914
 11
224.36900063238164
 21
19.193131064780914
  0
LINE
  8
_0-1_
  6
DASHED2
 62
  152
 10
224.36900063238164
 20
18.743131017097198
 11
233.86900063238164
 21
18.743131017097198
  0
LINE
  8
_0-1_
  6
DASHED2
 62
  152
 10
233.86900063238164
 20
13.64313111246463
 11
224.36900063238164
 21
13.64313111246463
  0
LINE
  8
_0-1_
  6
DASHED2
 62
  152
 10
224.36900063238164
 20
13.193131064780914
 11
233.86900063238164
 21
13.193131064780914
  0
TEXT
  8
_0-1_
 62
    7
 10
3.9801044975233708
 20
37.495699387249772
 40
5
 41
1
 50
0
  1
SL3B
  0
TEXT
  8
_0-1_
 62
    7
 10
3.9801044975233708
 20
42.495699387249772
 40
5
 41
1
 50
0
  1
SL3H
  0
TEXT
  8
_0-1_
 62
    7
 10
15.721174295803849
 20
40.72814285245255
 40
5
 41
1
 50
0
  1
-L40
  0
TEXT
  8
_0-1_
 62
    7
 10
60.828737636828009
 20
37.495699387249772
 40
5
 41
1
 50
0
  1
SL3B
  0
TEXT
  8
_0-1_
 62
    7
 10
60.828737636828009
 20
42.495699387249772
 40
5
 41
1
 50
0
  1
SL3H
  0
TEXT
  8
_0-1_
 62
    7
 10
73.320903152019923
 20
40.239713897887441
 40
5
 41
1
 50
0
  1
-L30
  0
TEXT
  8
_0-1_
 62
    7
 10
189.98806081581091
 20
6.7644760816939424
 40
5
 41
1
 50
0
  1
SL3S
  0
ENDSEC
  0
EOF
