  0
SECTION
  2
HEADER
  9
$ACADVER
  1
AC1009
  9
$INSBASE
 10
0
 20
0
 30
0
  9
$EXTMIN
 10
0
 20
0
  9
$EXTMAX
 10
1189
 20
841
  9
$LIMMIN
 10
0
 20
0
  9
$LIMMAX
 10
1189
 20
841
  9
$LTSCALE
 40
1
  0
ENDSEC
  0
SECTION
  2
TABLES
  0
TABLE
  2
LTYPE
 70
     9
  0
LTYPE
  2
CONTINUOUS
 70
    64
  3
実線
 72
    65
 73
     0
 40
0.0
  0
LTYPE
  2
DASHED1
 70
    64
  3
--  --  --  --  --  --  --  --  
 72
    65
 73
     2
 40
2.5
 49
1.25
 49
-1.25
  0
LTYPE
  2
DASHED2
 70
    64
  3
----    ----    ----    ----    
 72
    65
 73
     2
 40
5.0
 49
2.5
 49
-2.5
  0
LTYPE
  2
DASHED3
 70
    64
  3
------  ------  ------  ------  
 72
    65
 73
     2
 40
5.0
 49
3.75
 49
-1.25
  0
LTYPE
  2
CENTER1
 70
    64
  3
----- - ----- - ----- - ----- - 
 72
    65
 73
     4
 40
10.0
 49
6.25
 49
-1.25
 49
1.25
 49
-1.25
  0
LTYPE
  2
CENTER2
 70
    64
  3
----------  --  ----------  --  
 72
    65
 73
     4
 40
20.0
 49
12.5
 49
-2.5
 49
2.5
 49
-2.5
  0
LTYPE
  2
PHANTOM1
 70
    64
  3
--- - - --- - - --- - - --- - - 
 72
    65
 73
     6
 40
10.0
 49
3.25
 49
-1.25
 49
1.25
 49
-1.25
 49
1.25
 49
-1.25
  0
LTYPE
  2
PHANTOM2
 70
    64
  3
--------  -  -  --------  -  -  
 72
    65
 73
     6
 40
20.0
 49
10.0
 49
-2.5
 49
1.25
 49
-2.5
 49
1.25
 49
-2.5
  0
LTYPE
  2
DOT
 70
    64
  3
-   -   -   -   -   -   -   -   
 72
    65
 73
     2
 40
2.5
 49
0.625
 49
-1.875
  0
LTYPE
  2
DUMMY
 70
    64
  3
ダミー
 72
    65
 73
     0
 40
0.0
  0
LTYPE
  2
RAND1
 70
    64
  3
ランダム線1
 72
    65
 73
     4
 40
10.0
 49
1.0
 49
-2.0
 49
3.0
 49
-4.0
  0
LTYPE
  2
RAND2
 70
    64
  3
ランダム線2
 72
    65
 73
     4
 40
14.0
 49
2.0
 49
-3.0
 49
4.0
 49
-5.0
  0
LTYPE
  2
RAND3
 70
    64
  3
ランダム線3
 72
    65
 73
     4
 40
18.0
 49
3.0
 49
-4.0
 49
5.0
 49
-6.0
  0
LTYPE
  2
RAND4
 70
    64
  3
ランダム線4
 72
    65
 73
     4
 40
22.0
 49
4.0
 49
-5.0
 49
6.0
 49
-7.0
  0
LTYPE
  2
RAND5
 70
    64
  3
ランダム線5
 72
    65
 73
     4
 40
26.0
 49
5.0
 49
-6.0
 49
7.0
 49
-8.0
  0
LTYPE
  2
LONG1
 70
    64
  3
----------  --  ----------  --  
 72
    65
 73
     4
 40
40.0
 49
32.5
 49
-2.5
 49
2.5
 49
-2.5
  0
LTYPE
  2
LONG2
 70
    64
  3
--------  -  -  --------  -  -  
 72
    65
 73
     6
 40
40.0
 49
30.0
 49
-2.5
 49
1.25
 49
-2.5
 49
1.25
 49
-2.5
  0
LTYPE
  2
LONG3
 70
    64
  3
+++++++++++++++..+++++++++++++++
 72
    65
 73
     2
 40
40.0
 49
37.5
 49
-2.5
  0
LTYPE
  2
LONG4
 70
    64
  3
+++++++++++++++..+++++++++++++++
 72
    65
 73
     2
 40
80.0
 49
75.0
 49
-5.0
  0
LTYPE
  2
LONG5
 70
    64
  3
----------  --  ----------  --  
 72
    65
 73
     4
 40
60.0
 49
37.5
 49
-7.5
 49
7.5
 49
-7.5
  0
LTYPE
  2
dashed
 70
   64
  3
-------   -------------   ------
 72
   65
 73
    2
 40
7.5
 49
6
 49
-1.5
  0
LTYPE
  2
dashed_spaced
 70
   64
  3
----        --------        ----
 72
   65
 73
    2
 40
12
 49
6
 49
-6
  0
LTYPE
  2
long_dashed_dotted
 70
   64
  3
------------- --- --------------
 72
   65
 73
    4
 40
15.25
 49
12
 49
-1.5
 49
0.25
 49
-1.5
  0
LTYPE
  2
long_dashed_double-dotted
 70
   64
  3
----------- --- --- ------------
 72
   65
 73
    6
 40
17
 49
12
 49
-1.5
 49
0.25
 49
-1.5
 49
0.25
 49
-1.5
  0
LTYPE
  2
long_dashed_triplicate-dotted
 70
   64
  3
--------- --- --- --- ----------
 72
   65
 73
    8
 40
18.75
 49
12
 49
-1.5
 49
0.25
 49
-1.5
 49
0.25
 49
-1.5
 49
0.25
 49
-1.5
  0
LTYPE
  2
dotted
 70
   64
  3
   -       -       -       -    
 72
   65
 73
    2
 40
1.75
 49
0.25
 49
-1.5
  0
LTYPE
  2
chain
 70
   64
  3
-------------- -- --------------
 72
   65
 73
    4
 40
18.5
 49
12
 49
-1.5
 49
3.5
 49
-1.5
  0
LTYPE
  2
chain_double_dash
 70
   64
  3
------------ -- -- -------------
 72
   65
 73
    6
 40
23.5
 49
12
 49
-1.5
 49
3.5
 49
-1.5
 49
3.5
 49
-1.5
  0
LTYPE
  2
dashed_dotted
 70
   64
  3
-----------     -     ----------
 72
   65
 73
    4
 40
9.25
 49
6
 49
-1.5
 49
0.25
 49
-1.5
  0
LTYPE
  2
double-dashed_dotted
 70
   64
  3
------   -----------   -   -----
 72
   65
 73
    6
 40
16.75
 49
6
 49
-1.5
 49
6
 49
-1.5
 49
0.25
 49
-1.5
  0
LTYPE
  2
dashed_double-dotted
 70
   64
  3
---------    -    -    ---------
 72
   65
 73
    6
 40
11
 49
6
 49
-1.5
 49
0.25
 49
-1.5
 49
0.25
 49
-1.5
  0
LTYPE
  2
double-dashed_double-dotted
 70
   64
  3
-----   ---------   -   -   ----
 72
   65
 73
    8
 40
18.5
 49
6
 49
-1.5
 49
6
 49
-1.5
 49
0.25
 49
-1.5
 49
0.25
 49
-1.5
  0
LTYPE
  2
dashed_triplicate-dotted
 70
   64
  3
-------    -    -    -    ------
 72
   65
 73
    8
 40
12.75
 49
6
 49
-1.5
 49
0.25
 49
-1.5
 49
0.25
 49
-1.5
 49
0.25
 49
-1.5
  0
LTYPE
  2
double-dashed_triplicate-dotted
 70
   64
  3
-----  ---------  -  -  -  -----
 72
   65
 73
   10
 40
20.25
 49
6
 49
-1.5
 49
6
 49
-1.5
 49
0.25
 49
-1.5
 49
0.25
 49
-1.5
 49
0.25
 49
-1.5
  0
LTYPE
  2
undefined
 70
   64
  3
--------------------------------
 72
   65
 73
    0
 40
0
  0
ENDTAB
  0
TABLE
  2
STYLE
  5
3
100
AcDbSymbolTable
 70
     1
  0
STYLE
  5
10
100
AcDbSymbolTableRecord
100
AcDbTextStyleTableRecord
  2
STANDARD
 70
     0
 40
0.0
 41
1.0
 50
0.0
 71
     0
 42
0.2
  3
txt
  4
bigfont.shx
  0
STYLE
  5
26
100
AcDbSymbolTableRecord
100
AcDbTextStyleTableRecord
  2
TATEGAKI
 70
    68
 40
0.0
 41
1.0
 50
0.0
 71
     0
 42
1.0
  3
txt
  4
bigfont.shx
  0
ENDTAB
  0
TABLE
  2
LAYER
 70
    3
  0
LAYER
  2
_0-0_
 70
   64
 62
    7
  6
CONTINUOUS
  0
LAYER
  2
_0-1_
 70
   64
 62
    7
  6
CONTINUOUS
  0
LAYER
  2
ADD_LINE
 70
   64
 62
    7
  6
CONTINUOUS
  0
ENDTAB
  0
ENDSEC
  0
SECTION
  2
BLOCKS
  0
ENDSEC
  0
SECTION
  2
ENTITIES
  0
LINE
  8
_0-0_
  6
CONTINUOUS
 62
    7
 10
175.70085258798503
 20
100.94916316333939
 11
174.08161377244227
 21
99.329924347796634
  0
LINE
  8
_0-0_
  6
CONTINUOUS
 62
    7
 10
173.78872055362893
 20
98.622817566609967
 11
173.78872055362893
 21
91.337031128983028
  0
LINE
  8
_0-0_
  6
CONTINUOUS
 62
    7
 10
173.78872055362893
 20
91.337031128983028
 11
174.08872055362912
 21
91.037031128982846
  0
LINE
  8
_0-0_
  6
CONTINUOUS
 62
    7
 10
174.08872055362912
 20
91.037031128982846
 11
173.78872055362893
 21
90.737031128983119
  0
LINE
  8
_0-0_
  6
CONTINUOUS
 62
    7
 10
173.78872055362893
 20
90.737031128983119
 11
173.78872055362893
 21
84.037031128982846
  0
LINE
  8
_0-0_
  6
CONTINUOUS
 62
    7
 10
174.78872055362893
 20
83.037031128982846
 11
188.78872055362893
 21
83.037031128982846
  0
LINE
  8
_0-0_
  6
CONTINUOUS
 62
    7
 10
189.78872055362893
 20
84.037031128982846
 11
189.78872055362893
 21
90.737031128983119
  0
LINE
  8
_0-0_
  6
CONTINUOUS
 62
    7
 10
189.78872055362893
 20
90.737031128983119
 11
189.48872055362875
 21
91.037031128982846
  0
LINE
  8
_0-0_
  6
CONTINUOUS
 62
    7
 10
189.48872055362875
 20
91.037031128982846
 11
189.78872055362893
 21
91.337031128983028
  0
LINE
  8
_0-0_
  6
CONTINUOUS
 62
    7
 10
189.78872055362893
 20
91.337031128983028
 11
189.78872055362893
 21
98.622817566609967
  0
LINE
  8
_0-0_
  6
CONTINUOUS
 62
    7
 10
189.4958273348156
 20
99.329924347796634
 11
187.87658851927284
 21
100.94916316333939
  0
LINE
  8
_0-0_
  6
CONTINUOUS
 62
    7
 10
187.66445648491657
 20
101.03703112898285
 11
183.58872055362866
 21
101.03703112898285
  0
LINE
  8
_0-0_
  6
CONTINUOUS
 62
    7
 10
183.28872055362893
 20
100.73703112898312
 11
183.28872055362893
 21
99.410236209739935
  0
LINE
  8
_0-0_
  6
CONTINUOUS
 62
    7
 10
183.43872055362857
 20
99.150428588604711
 11
185.83872055362866
 21
97.764787942549731
  0
LINE
  8
_0-0_
  6
CONTINUOUS
 62
    7
 10
185.98872055362875
 20
97.504980321414507
 11
185.98872055362875
 21
96.337031128983028
  0
LINE
  8
_0-0_
  6
CONTINUOUS
 62
    7
 10
185.68872055362857
 20
96.037031128982846
 11
182.58872055362912
 21
96.037031128982846
  0
LINE
  8
_0-0_
  6
CONTINUOUS
 62
    7
 10
182.28872055362893
 20
95.737031128983119
 11
182.28872055362893
 21
91.337031128983028
  0
LINE
  8
_0-0_
  6
CONTINUOUS
 62
    7
 10
182.28872055362893
 20
91.337031128983028
 11
182.58872055362912
 21
91.037031128982846
  0
LINE
  8
_0-0_
  6
CONTINUOUS
 62
    7
 10
182.58872055362912
 20
91.037031128982846
 11
182.28872055362893
 21
90.737031128983119
  0
LINE
  8
_0-0_
  6
CONTINUOUS
 62
    7
 10
182.28872055362893
 20
90.737031128983119
 11
182.28872055362893
 21
85.037031128982846
  0
LINE
  8
_0-0_
  6
CONTINUOUS
 62
    7
 10
182.28872055362893
 20
85.037031128982846
 11
181.78872055362893
 21
84.537031128982846
  0
LINE
  8
_0-0_
  6
CONTINUOUS
 62
    7
 10
181.78872055362893
 20
84.537031128982846
 11
181.28872055362893
 21
85.037031128982846
  0
LINE
  8
_0-0_
  6
CONTINUOUS
 62
    7
 10
181.28872055362893
 20
85.037031128982846
 11
181.28872055362893
 21
90.737031128983119
  0
LINE
  8
_0-0_
  6
CONTINUOUS
 62
    7
 10
181.28872055362893
 20
90.737031128983119
 11
180.98872055362875
 21
91.037031128982846
  0
LINE
  8
_0-0_
  6
CONTINUOUS
 62
    7
 10
180.98872055362875
 20
91.037031128982846
 11
181.28872055362893
 21
91.337031128983028
  0
LINE
  8
_0-0_
  6
CONTINUOUS
 62
    7
 10
181.28872055362893
 20
91.337031128983028
 11
181.28872055362893
 21
95.737031128983119
  0
LINE
  8
_0-0_
  6
CONTINUOUS
 62
    7
 10
180.98872055362875
 20
96.037031128982846
 11
177.8887205536293
 21
96.037031128982846
  0
LINE
  8
_0-0_
  6
CONTINUOUS
 62
    7
 10
177.58872055362912
 20
96.337031128983028
 11
177.58872055362912
 21
97.504980321414507
  0
LINE
  8
_0-0_
  6
CONTINUOUS
 62
    7
 10
177.73872055362921
 20
97.764787942549731
 11
180.1387205536293
 21
99.150428588604711
  0
LINE
  8
_0-0_
  6
CONTINUOUS
 62
    7
 10
180.28872055362893
 20
99.410236209739935
 11
180.28872055362893
 21
100.73703112898312
  0
LINE
  8
_0-0_
  6
CONTINUOUS
 62
    7
 10
179.98872055362921
 20
101.03703112898285
 11
175.9129846223413
 21
101.03703112898285
  0
LINE
  8
_0-0_
  6
CONTINUOUS
 62
    7
 10
181.78872055362893
 20
84.537031128982846
 11
181.78872055362893
 21
83.037031128982846
  0
ARC
  8
_0-0_
  6
CONTINUOUS
 62
    7
 10
183.58872055362866
 20
100.73703112898312
 40
0.2999999999999998
 50
90
 51
180
  0
ARC
  8
_0-0_
  6
CONTINUOUS
 62
    7
 10
185.68872055362857
 20
97.504980321414507
 40
0.2999999999999998
 50
0.0000000000000031
 51
60.000000000000135
  0
ARC
  8
_0-0_
  6
CONTINUOUS
 62
    7
 10
185.68872055362857
 20
96.337031128983028
 40
0.2999999999999998
 50
270
 51
0
  0
ARC
  8
_0-0_
  6
CONTINUOUS
 62
    7
 10
188.78872055362893
 20
84.037031128982846
 40
1
 50
270
 51
0
  0
ARC
  8
_0-0_
  6
CONTINUOUS
 62
    7
 10
188.78872055362893
 20
98.622817566609967
 40
1
 50
0.0000000000000063
 51
45.000000000000007
  0
ARC
  8
_0-0_
  6
CONTINUOUS
 62
    7
 10
187.66445648491657
 20
100.73703112898312
 40
0.2999999999999998
 50
45
 51
90
  0
ARC
  8
_0-0_
  6
CONTINUOUS
 62
    7
 10
182.58872055362912
 20
95.737031128983119
 40
0.2999999999999998
 50
90
 51
179.59796648921102
  0
ARC
  8
_0-0_
  6
CONTINUOUS
 62
    7
 10
182.58872055362912
 20
95.737031128983119
 40
0.2999999999999998
 50
179.59796648921102
 51
179.99999999999997
  0
ARC
  8
_0-0_
  6
CONTINUOUS
 62
    7
 10
183.58872055362866
 20
99.410236209739935
 40
0.2999999999999998
 50
180
 51
240.00000000000003
  0
ARC
  8
_0-0_
  6
CONTINUOUS
 62
    7
 10
179.98872055362921
 20
100.73703112898312
 40
0.2999999999999998
 50
0
 51
90
  0
ARC
  8
_0-0_
  6
CONTINUOUS
 62
    7
 10
177.8887205536293
 20
97.504980321414507
 40
0.2999999999999998
 50
119.99999999999986
 51
180
  0
ARC
  8
_0-0_
  6
CONTINUOUS
 62
    7
 10
177.8887205536293
 20
96.337031128983028
 40
0.2999999999999998
 50
180
 51
270
  0
ARC
  8
_0-0_
  6
CONTINUOUS
 62
    7
 10
174.78872055362893
 20
84.037031128982846
 40
1
 50
180
 51
270
  0
ARC
  8
_0-0_
  6
CONTINUOUS
 62
    7
 10
174.78872055362893
 20
98.622817566609967
 40
1
 50
135
 51
180
  0
ARC
  8
_0-0_
  6
CONTINUOUS
 62
    7
 10
175.9129846223413
 20
100.73703112898312
 40
0.2999999999999998
 50
90
 51
135
  0
ARC
  8
_0-0_
  6
CONTINUOUS
 62
    7
 10
180.98872055362875
 20
95.737031128983119
 40
0.2999999999999998
 50
0.4020335107889891
 51
90.000000000000028
  0
ARC
  8
_0-0_
  6
CONTINUOUS
 62
    7
 10
180.98872055362875
 20
95.737031128983119
 40
0.2999999999999998
 50
0.0000000000000254
 51
0.4020335107890005
  0
ARC
  8
_0-0_
  6
CONTINUOUS
 62
    7
 10
179.98872055362921
 20
99.410236209739935
 40
0.2999999999999998
 50
299.99999999999989
 51
0.0000000000000254
  0
LINE
  8
_0-1_
  6
CONTINUOUS
 62
    7
 10
173.28872055362865
 20
94.037031128983188
 11
173.78872055362865
 21
94.537031128983188
  0
LINE
  8
_0-1_
  6
CONTINUOUS
 62
    7
 10
173.28872055362865
 20
94.037031128983188
 11
173.28872055362865
 21
88.037031128983188
  0
LINE
  8
_0-1_
  6
CONTINUOUS
 62
    7
 10
173.78872055362865
 20
87.537031128983188
 11
173.28872055362865
 21
88.037031128983188
  0
LINE
  8
_0-0_
  6
CONTINUOUS
 62
    7
 10
221.65372916583419
 20
101.03703112898313
 11
221.65372916583419
 21
83.037031128983131
  0
LINE
  8
_0-0_
  6
CONTINUOUS
 62
    7
 10
221.65372916583419
 20
83.037031128983131
 11
240.65372916583419
 21
83.037031128983131
  0
LINE
  8
_0-0_
  6
CONTINUOUS
 62
    7
 10
240.65372916583419
 20
83.037031128983131
 11
240.65372916583419
 21
101.03703112898313
  0
LINE
  8
_0-0_
  6
CONTINUOUS
 62
    7
 10
240.65372916583419
 20
101.03703112898313
 11
221.65372916583419
 21
101.03703112898313
  0
CIRCLE
  8
_0-0_
  6
CONTINUOUS
 62
    7
 10
231.15372916583419
 20
91.037031128983131
 40
1.7000000476837158
  0
LINE
  8
_0-0_
  6
CONTINUOUS
 62
    7
 10
118.92839923242855
 20
83.037031128983131
 11
111.92839923242855
 21
83.037031128983131
  0
LINE
  8
_0-0_
  6
CONTINUOUS
 62
    7
 10
110.92839923242855
 20
84.037031128983131
 11
110.92839923242855
 21
90.737031128983404
  0
LINE
  8
_0-0_
  6
CONTINUOUS
 62
    7
 10
110.92839923242855
 20
90.737031128983404
 11
111.22839923242873
 21
91.037031128983131
  0
LINE
  8
_0-0_
  6
CONTINUOUS
 62
    7
 10
111.22839923242873
 20
91.037031128983131
 11
110.92839923242855
 21
91.337031128983313
  0
LINE
  8
_0-0_
  6
CONTINUOUS
 62
    7
 10
110.92839923242855
 20
91.337031128983313
 11
110.92839923242855
 21
98.622817566610252
  0
LINE
  8
_0-0_
  6
CONTINUOUS
 62
    7
 10
111.22129245124188
 20
99.329924347796918
 11
112.84053126678464
 21
100.94916316333968
  0
LINE
  8
_0-0_
  6
CONTINUOUS
 62
    7
 10
113.05266330114091
 20
101.03703112898313
 11
117.12839923242882
 21
101.03703112898313
  0
LINE
  8
_0-0_
  6
CONTINUOUS
 62
    7
 10
117.42839923242855
 20
100.7370311289834
 11
117.42839923242855
 21
99.410236209740219
  0
LINE
  8
_0-0_
  6
CONTINUOUS
 62
    7
 10
117.27839923242891
 20
99.150428588604996
 11
114.87839923242882
 21
97.764787942550015
  0
LINE
  8
_0-0_
  6
CONTINUOUS
 62
    7
 10
114.72839923242873
 20
97.504980321414791
 11
114.72839923242873
 21
96.337031128983313
  0
LINE
  8
_0-0_
  6
CONTINUOUS
 62
    7
 10
115.02839923242891
 20
96.037031128983131
 11
118.12839923242836
 21
96.037031128983131
  0
LINE
  8
_0-0_
  6
CONTINUOUS
 62
    7
 10
118.42839923242855
 20
95.737031128983404
 11
118.42839923242855
 21
91.337031128983313
  0
LINE
  8
_0-0_
  6
CONTINUOUS
 62
    7
 10
118.42839923242855
 20
91.337031128983313
 11
118.12839923242836
 21
91.037031128983131
  0
LINE
  8
_0-0_
  6
CONTINUOUS
 62
    7
 10
118.12839923242836
 20
91.037031128983131
 11
118.42839923242855
 21
90.737031128983404
  0
LINE
  8
_0-0_
  6
CONTINUOUS
 62
    7
 10
118.42839923242855
 20
90.737031128983404
 11
118.42839923242855
 21
85.037031128983131
  0
LINE
  8
_0-0_
  6
CONTINUOUS
 62
    7
 10
118.42839923242855
 20
85.037031128983131
 11
118.92839923242855
 21
84.537031128983131
  0
LINE
  8
_0-0_
  6
CONTINUOUS
 62
    7
 10
118.92839923242855
 20
84.537031128983131
 11
118.92839923242855
 21
83.037031128983131
  0
ARC
  8
_0-0_
  6
CONTINUOUS
 62
    7
 10
117.12839923242882
 20
100.7370311289834
 40
0.2999999999999998
 50
0
 51
90
  0
ARC
  8
_0-0_
  6
CONTINUOUS
 62
    7
 10
115.02839923242891
 20
97.504980321414791
 40
0.2999999999999998
 50
119.99999999999986
 51
180
  0
ARC
  8
_0-0_
  6
CONTINUOUS
 62
    7
 10
115.02839923242891
 20
96.337031128983313
 40
0.2999999999999998
 50
180
 51
270
  0
ARC
  8
_0-0_
  6
CONTINUOUS
 62
    7
 10
111.92839923242855
 20
84.037031128983131
 40
1
 50
180
 51
270
  0
ARC
  8
_0-0_
  6
CONTINUOUS
 62
    7
 10
111.92839923242855
 20
98.622817566610252
 40
1
 50
135
 51
180
  0
ARC
  8
_0-0_
  6
CONTINUOUS
 62
    7
 10
113.05266330114091
 20
100.7370311289834
 40
0.2999999999999998
 50
90
 51
135
  0
ARC
  8
_0-0_
  6
CONTINUOUS
 62
    7
 10
118.12839923242836
 20
95.737031128983404
 40
0.2999999999999998
 50
0.4020335107889891
 51
90.000000000000028
  0
ARC
  8
_0-0_
  6
CONTINUOUS
 62
    7
 10
118.12839923242836
 20
95.737031128983404
 40
0.2999999999999998
 50
0.0000000000000254
 51
0.4020335107890005
  0
ARC
  8
_0-0_
  6
CONTINUOUS
 62
    7
 10
117.12839923242882
 20
99.410236209740219
 40
0.2999999999999998
 50
299.99999999999989
 51
0.0000000000000254
  0
LINE
  8
_0-1_
  6
CONTINUOUS
 62
    7
 10
110.42839923242855
 20
94.037031128983188
 11
110.92839923242855
 21
94.537031128983188
  0
LINE
  8
_0-1_
  6
CONTINUOUS
 62
    7
 10
110.42839923242855
 20
94.037031128983188
 11
110.42839923242855
 21
88.037031128983188
  0
LINE
  8
_0-1_
  6
CONTINUOUS
 62
    7
 10
110.92839923242855
 20
87.537031128983188
 11
110.42839923242855
 21
88.037031128983188
  0
LINE
  8
_0-0_
  6
CONTINUOUS
 62
    7
 10
80.682732746542115
 20
83.037031128983415
 11
80.682732746542115
 21
101.03703112898341
  0
LINE
  8
_0-0_
  6
CONTINUOUS
 62
    7
 10
80.682732746542115
 20
101.03703112898341
 11
50.682732746542115
 21
101.03703112898341
  0
LINE
  8
_0-0_
  6
CONTINUOUS
 62
    7
 10
50.682732746542115
 20
101.03703112898341
 11
50.682732746542115
 21
83.037031128983415
  0
LINE
  8
_0-0_
  6
CONTINUOUS
 62
    7
 10
50.682732746542115
 20
83.037031128983415
 11
80.682732746542115
 21
83.037031128983415
  0
CIRCLE
  8
_0-0_
  6
CONTINUOUS
 62
    7
 10
58.182732746542115
 20
91.037031128983415
 40
4
  0
CIRCLE
  8
_0-0_
  6
CONTINUOUS
 62
    7
 10
73.182732746542115
 20
91.037031128983415
 40
4
  0
CIRCLE
  8
_0-0_
  6
CONTINUOUS
 62
    7
 10
73.182732746542115
 20
91.037031128983415
 40
2.25
  0
CIRCLE
  8
_0-0_
  6
CONTINUOUS
 62
    7
 10
58.182732746542115
 20
91.037031128983415
 40
2.25
  0
LINE
  8
_0-0_
  6
CONTINUOUS
 62
    7
 10
21.110278433712438
 20
83.037031128983415
 11
2.1102784337124376
 21
83.037031128983415
  0
LINE
  8
_0-0_
  6
CONTINUOUS
 62
    7
 10
2.1102784337124376
 20
83.037031128983415
 11
2.1102784337124376
 21
101.03703112898341
  0
LINE
  8
_0-0_
  6
CONTINUOUS
 62
    7
 10
2.1102784337124376
 20
101.03703112898341
 11
21.110278433712438
 21
101.03703112898341
  0
LINE
  8
_0-0_
  6
CONTINUOUS
 62
    7
 10
21.110278433712438
 20
101.03703112898341
 11
21.110278433712438
 21
83.037031128983415
  0
CIRCLE
  8
_0-0_
  6
CONTINUOUS
 62
    7
 10
11.610278433712438
 20
91.037031128983415
 40
4
  0
CIRCLE
  8
_0-0_
  6
CONTINUOUS
 62
    7
 10
11.610278433712438
 20
91.037031128983415
 40
2.25
  0
LINE
  8
_0-0_
  6
CONTINUOUS
 62
    7
 10
168.78872055362979
 20
2.5429885087104935
 11
168.78872055362979
 21
9.2429885087098569
  0
LINE
  8
_0-0_
  6
CONTINUOUS
 62
    7
 10
168.78872055362979
 20
9.2429885087098569
 11
169.08872055362997
 21
9.5429885087100388
  0
LINE
  8
_0-0_
  6
CONTINUOUS
 62
    7
 10
169.08872055362997
 20
9.5429885087100388
 11
168.78872055362979
 21
9.8429885087102207
  0
LINE
  8
_0-0_
  6
CONTINUOUS
 62
    7
 10
168.78872055362979
 20
9.8429885087102207
 11
168.78872055362979
 21
17.12877494633716
  0
LINE
  8
_0-0_
  6
CONTINUOUS
 62
    7
 10
169.08161377244357
 20
17.835881727523372
 11
170.70085258798588
 21
19.45512054306613
  0
LINE
  8
_0-0_
  6
CONTINUOUS
 62
    7
 10
170.91298462234215
 20
19.542988508710039
 11
174.98872055363006
 21
19.542988508710039
  0
LINE
  8
_0-0_
  6
CONTINUOUS
 62
    7
 10
175.28872055362979
 20
19.242988508709857
 11
175.28872055362979
 21
17.916193589467127
  0
LINE
  8
_0-0_
  6
CONTINUOUS
 62
    7
 10
175.13872055363015
 20
17.656385968331449
 11
172.73872055363006
 21
16.270745322276923
  0
LINE
  8
_0-0_
  6
CONTINUOUS
 62
    7
 10
172.58872055362997
 20
16.010937701141245
 11
172.58872055362997
 21
14.842988508710221
  0
LINE
  8
_0-0_
  6
CONTINUOUS
 62
    7
 10
172.88872055363015
 20
14.542988508710039
 11
180.98872055363006
 21
14.542988508710039
  0
LINE
  8
_0-0_
  6
CONTINUOUS
 62
    7
 10
181.28872055362979
 20
14.242988508709857
 11
181.28872055362979
 21
9.8429885087102207
  0
LINE
  8
_0-0_
  6
CONTINUOUS
 62
    7
 10
181.28872055362979
 20
9.8429885087102207
 11
180.98872055363006
 21
9.5429885087100388
  0
LINE
  8
_0-0_
  6
CONTINUOUS
 62
    7
 10
180.98872055363006
 20
9.5429885087100388
 11
181.28872055362979
 21
9.2429885087098569
  0
LINE
  8
_0-0_
  6
CONTINUOUS
 62
    7
 10
181.28872055362979
 20
9.2429885087098569
 11
181.28872055362979
 21
3.5429885087104935
  0
LINE
  8
_0-0_
  6
CONTINUOUS
 62
    7
 10
181.28872055362979
 20
3.5429885087104935
 11
181.78872055362979
 21
3.0429885087104935
  0
LINE
  8
_0-0_
  6
CONTINUOUS
 62
    7
 10
181.78872055362979
 20
3.0429885087104935
 11
182.28872055362979
 21
3.5429885087104935
  0
LINE
  8
_0-0_
  6
CONTINUOUS
 62
    7
 10
182.28872055362979
 20
3.5429885087104935
 11
182.28872055362979
 21
9.2429885087098569
  0
LINE
  8
_0-0_
  6
CONTINUOUS
 62
    7
 10
182.28872055362979
 20
9.2429885087098569
 11
182.58872055362951
 21
9.5429885087100388
  0
LINE
  8
_0-0_
  6
CONTINUOUS
 62
    7
 10
182.58872055362951
 20
9.5429885087100388
 11
182.28872055362979
 21
9.8429885087102207
  0
LINE
  8
_0-0_
  6
CONTINUOUS
 62
    7
 10
182.28872055362979
 20
9.8429885087102207
 11
182.28872055362979
 21
14.242988508709857
  0
LINE
  8
_0-0_
  6
CONTINUOUS
 62
    7
 10
182.58872055362951
 20
14.542988508710039
 11
190.68872055362942
 21
14.542988508710039
  0
LINE
  8
_0-0_
  6
CONTINUOUS
 62
    7
 10
190.98872055362961
 20
14.842988508710221
 11
190.98872055362961
 21
16.010937701141245
  0
LINE
  8
_0-0_
  6
CONTINUOUS
 62
    7
 10
190.83872055362951
 20
16.270745322276923
 11
188.43872055362942
 21
17.656385968331449
  0
LINE
  8
_0-0_
  6
CONTINUOUS
 62
    7
 10
188.28872055362979
 20
17.916193589467127
 11
188.28872055362979
 21
19.242988508709857
  0
LINE
  8
_0-0_
  6
CONTINUOUS
 62
    7
 10
188.58872055362951
 20
19.542988508710039
 11
192.66445648491742
 21
19.542988508710039
  0
LINE
  8
_0-0_
  6
CONTINUOUS
 62
    7
 10
192.8765885192737
 20
19.45512054306613
 11
194.495827334816
 21
17.835881727523372
  0
LINE
  8
_0-0_
  6
CONTINUOUS
 62
    7
 10
194.78872055362979
 20
17.12877494633716
 11
194.78872055362979
 21
9.8429885087102207
  0
LINE
  8
_0-0_
  6
CONTINUOUS
 62
    7
 10
194.78872055362979
 20
9.8429885087102207
 11
194.48872055362961
 21
9.5429885087100388
  0
LINE
  8
_0-0_
  6
CONTINUOUS
 62
    7
 10
194.48872055362961
 20
9.5429885087100388
 11
194.78872055362979
 21
9.2429885087098569
  0
LINE
  8
_0-0_
  6
CONTINUOUS
 62
    7
 10
194.78872055362979
 20
9.2429885087098569
 11
194.78872055362979
 21
2.5429885087104935
  0
LINE
  8
_0-0_
  6
CONTINUOUS
 62
    7
 10
193.78872055362979
 20
1.5429885087104935
 11
169.78872055362979
 21
1.5429885087104935
  0
LINE
  8
_0-0_
  6
CONTINUOUS
 62
    7
 10
181.78872055362979
 20
1.5429885087104935
 11
181.78872055362979
 21
3.0429885087104935
  0
ARC
  8
_0-0_
  6
CONTINUOUS
 62
    7
 10
169.78872055362979
 20
2.5429885087104935
 40
1
 50
180
 51
270
  0
ARC
  8
_0-0_
  6
CONTINUOUS
 62
    7
 10
174.98872055363006
 20
19.242988508709857
 40
0.2999999999999998
 50
0
 51
90
  0
ARC
  8
_0-0_
  6
CONTINUOUS
 62
    7
 10
172.88872055363015
 20
16.010937701141245
 40
0.2999999999999998
 50
119.99999999999986
 51
180
  0
ARC
  8
_0-0_
  6
CONTINUOUS
 62
    7
 10
172.88872055363015
 20
14.842988508710221
 40
0.2999999999999998
 50
180
 51
270
  0
ARC
  8
_0-0_
  6
CONTINUOUS
 62
    7
 10
170.91298462234215
 20
19.242988508710312
 40
0.2999999999999998
 50
90
 51
135
  0
ARC
  8
_0-0_
  6
CONTINUOUS
 62
    7
 10
174.98872055363006
 20
17.916193589467127
 40
0.2999999999999998
 50
299.99999999999989
 51
0.0000000000000254
  0
ARC
  8
_0-0_
  6
CONTINUOUS
 62
    7
 10
180.98872055363006
 20
14.242988508709857
 40
0.2999999999999998
 50
0.0000000000000254
 51
0.4020335107890005
  0
ARC
  8
_0-0_
  6
CONTINUOUS
 62
    7
 10
180.98872055363006
 20
14.242988508709857
 40
0.2999999999999998
 50
0
 51
90
  0
ARC
  8
_0-0_
  6
CONTINUOUS
 62
    7
 10
169.78872055362979
 20
17.12877494633716
 40
1
 50
135
 51
180
  0
ARC
  8
_0-0_
  6
CONTINUOUS
 62
    7
 10
193.78872055362979
 20
2.5429885087104935
 40
1
 50
270
 51
0
  0
ARC
  8
_0-0_
  6
CONTINUOUS
 62
    7
 10
188.58872055362951
 20
19.242988508709857
 40
0.2999999999999998
 50
90
 51
180
  0
ARC
  8
_0-0_
  6
CONTINUOUS
 62
    7
 10
190.68872055362942
 20
16.010937701141245
 40
0.2999999999999998
 50
0.0000000000000035
 51
60.000000000000135
  0
ARC
  8
_0-0_
  6
CONTINUOUS
 62
    7
 10
190.68872055362942
 20
14.842988508710221
 40
0.2999999999999998
 50
270
 51
0
  0
ARC
  8
_0-0_
  6
CONTINUOUS
 62
    7
 10
192.66445648491742
 20
19.242988508710312
 40
0.2999999999999998
 50
45.000000000000014
 51
90
  0
ARC
  8
_0-0_
  6
CONTINUOUS
 62
    7
 10
188.58872055362951
 20
17.916193589467127
 40
0.2999999999999998
 50
180
 51
240.00000000000003
  0
ARC
  8
_0-0_
  6
CONTINUOUS
 62
    7
 10
182.58872055362951
 20
14.242988508709857
 40
0.2999999999999998
 50
179.59796648921102
 51
179.99999999999997
  0
ARC
  8
_0-0_
  6
CONTINUOUS
 62
    7
 10
182.58872055362951
 20
14.242988508709857
 40
0.2999999999999998
 50
90
 51
180
  0
ARC
  8
_0-0_
  6
CONTINUOUS
 62
    7
 10
193.78872055362979
 20
17.12877494633716
 40
1
 50
0.0000000000000035
 51
45.000000000000028
  0
LINE
  8
_0-0_
  6
CONTINUOUS
 62
    7
 10
221.65372916583419
 20
1.5429885087104935
 11
221.65372916583419
 21
19.542988508710494
  0
LINE
  8
_0-0_
  6
CONTINUOUS
 62
    7
 10
221.65372916583419
 20
19.542988508710494
 11
240.65372916583419
 21
19.542988508710494
  0
LINE
  8
_0-0_
  6
CONTINUOUS
 62
    7
 10
240.65372916583419
 20
19.542988508710494
 11
240.65372916583419
 21
1.5429885087104935
  0
LINE
  8
_0-0_
  6
CONTINUOUS
 62
    7
 10
240.65372916583419
 20
1.5429885087104935
 11
221.65372916583419
 21
1.5429885087104935
  0
CIRCLE
  8
_0-0_
  6
CONTINUOUS
 62
    7
 10
231.15372916583419
 20
9.5429885087104935
 40
1.7000000476837158
  0
LINE
  8
_0-0_
  6
CONTINUOUS
 62
    7
 10
105.9283992324286
 20
2.5429885087104935
 11
105.9283992324286
 21
9.2429885087098569
  0
LINE
  8
_0-0_
  6
CONTINUOUS
 62
    7
 10
105.9283992324286
 20
9.2429885087098569
 11
106.22839923242879
 21
9.5429885087100388
  0
LINE
  8
_0-0_
  6
CONTINUOUS
 62
    7
 10
106.22839923242879
 20
9.5429885087100388
 11
105.9283992324286
 21
9.8429885087102207
  0
LINE
  8
_0-0_
  6
CONTINUOUS
 62
    7
 10
105.9283992324286
 20
9.8429885087102207
 11
105.9283992324286
 21
17.12877494633716
  0
LINE
  8
_0-0_
  6
CONTINUOUS
 62
    7
 10
106.22129245124239
 20
17.835881727523372
 11
107.84053126678464
 21
19.45512054306613
  0
LINE
  8
_0-0_
  6
CONTINUOUS
 62
    7
 10
108.05266330114091
 20
19.542988508710039
 11
112.12839923242882
 21
19.542988508710039
  0
LINE
  8
_0-0_
  6
CONTINUOUS
 62
    7
 10
112.42839923242855
 20
19.242988508709857
 11
112.42839923242855
 21
17.916193589467127
  0
LINE
  8
_0-0_
  6
CONTINUOUS
 62
    7
 10
112.27839923242891
 20
17.656385968331449
 11
109.87839923242882
 21
16.270745322276923
  0
LINE
  8
_0-0_
  6
CONTINUOUS
 62
    7
 10
109.72839923242873
 20
16.010937701141245
 11
109.72839923242873
 21
14.842988508710221
  0
LINE
  8
_0-0_
  6
CONTINUOUS
 62
    7
 10
110.02839923242891
 20
14.542988508710039
 11
118.12839923242882
 21
14.542988508710039
  0
LINE
  8
_0-0_
  6
CONTINUOUS
 62
    7
 10
118.42839923242855
 20
14.242988508709857
 11
118.42839923242855
 21
9.8429885087102207
  0
LINE
  8
_0-0_
  6
CONTINUOUS
 62
    7
 10
118.42839923242855
 20
9.8429885087102207
 11
118.12839923242882
 21
9.5429885087100388
  0
LINE
  8
_0-0_
  6
CONTINUOUS
 62
    7
 10
118.12839923242882
 20
9.5429885087100388
 11
118.42839923242855
 21
9.2429885087098569
  0
LINE
  8
_0-0_
  6
CONTINUOUS
 62
    7
 10
118.42839923242855
 20
9.2429885087098569
 11
118.42839923242855
 21
3.5429885087104935
  0
LINE
  8
_0-0_
  6
CONTINUOUS
 62
    7
 10
118.42839923242855
 20
3.5429885087104935
 11
118.92839923242855
 21
3.0429885087104935
  0
LINE
  8
_0-0_
  6
CONTINUOUS
 62
    7
 10
118.92839923242855
 20
3.0429885087104935
 11
118.92839923242855
 21
1.5429885087104935
  0
LINE
  8
_0-0_
  6
CONTINUOUS
 62
    7
 10
118.92839923242855
 20
1.5429885087104935
 11
106.9283992324286
 21
1.5429885087104935
  0
ARC
  8
_0-0_
  6
CONTINUOUS
 62
    7
 10
106.9283992324286
 20
2.5429885087104935
 40
1
 50
180
 51
270
  0
ARC
  8
_0-0_
  6
CONTINUOUS
 62
    7
 10
112.12839923242882
 20
19.242988508709857
 40
0.2999999999999998
 50
0
 51
90
  0
ARC
  8
_0-0_
  6
CONTINUOUS
 62
    7
 10
110.02839923242891
 20
16.010937701141245
 40
0.2999999999999998
 50
119.99999999999986
 51
180
  0
ARC
  8
_0-0_
  6
CONTINUOUS
 62
    7
 10
110.02839923242891
 20
14.842988508710221
 40
0.2999999999999998
 50
180
 51
270
  0
ARC
  8
_0-0_
  6
CONTINUOUS
 62
    7
 10
108.05266330114091
 20
19.242988508710312
 40
0.2999999999999998
 50
90
 51
135
  0
ARC
  8
_0-0_
  6
CONTINUOUS
 62
    7
 10
112.12839923242882
 20
17.916193589467127
 40
0.2999999999999998
 50
299.99999999999989
 51
0.0000000000000254
  0
ARC
  8
_0-0_
  6
CONTINUOUS
 62
    7
 10
118.12839923242882
 20
14.242988508709857
 40
0.2999999999999998
 50
0.0000000000000254
 51
0.4020335107890005
  0
ARC
  8
_0-0_
  6
CONTINUOUS
 62
    7
 10
118.12839923242882
 20
14.242988508709857
 40
0.2999999999999998
 50
0
 51
90
  0
ARC
  8
_0-0_
  6
CONTINUOUS
 62
    7
 10
106.9283992324286
 20
17.12877494633716
 40
1
 50
135
 51
180
  0
LINE
  8
_0-0_
  6
CONTINUOUS
 62
    7
 10
80.682732746542115
 20
1.5429885087104935
 11
80.682732746542115
 21
19.542988508710039
  0
LINE
  8
_0-0_
  6
CONTINUOUS
 62
    7
 10
80.682732746542115
 20
19.542988508710039
 11
50.682732746542115
 21
19.542988508710039
  0
LINE
  8
_0-0_
  6
CONTINUOUS
 62
    7
 10
50.682732746542115
 20
19.542988508710039
 11
50.682732746542115
 21
1.5429885087104935
  0
LINE
  8
_0-0_
  6
CONTINUOUS
 62
    7
 10
50.682732746542115
 20
1.5429885087104935
 11
80.682732746542115
 21
1.5429885087104935
  0
CIRCLE
  8
_0-0_
  6
CONTINUOUS
 62
    7
 10
58.182732746542115
 20
9.5429885087100388
 40
4
  0
CIRCLE
  8
_0-0_
  6
CONTINUOUS
 62
    7
 10
73.182732746542115
 20
9.5429885087100388
 40
4
  0
CIRCLE
  8
_0-0_
  6
CONTINUOUS
 62
    7
 10
73.182732746542115
 20
9.5429885087100388
 40
2.25
  0
CIRCLE
  8
_0-0_
  6
CONTINUOUS
 62
    7
 10
58.182732746542115
 20
9.5429885087100388
 40
2.25
  0
LINE
  8
_0-0_
  6
CONTINUOUS
 62
    7
 10
2.1102784337124376
 20
1.5429885087104935
 11
2.1102784337124376
 21
19.542988508710039
  0
LINE
  8
_0-0_
  6
CONTINUOUS
 62
    7
 10
2.1102784337124376
 20
19.542988508710039
 11
21.110278433712438
 21
19.542988508710039
  0
LINE
  8
_0-0_
  6
CONTINUOUS
 62
    7
 10
21.110278433712438
 20
19.542988508710039
 11
21.110278433712438
 21
1.5429885087104935
  0
LINE
  8
_0-0_
  6
CONTINUOUS
 62
    7
 10
21.110278433712438
 20
1.5429885087104935
 11
2.1102784337124376
 21
1.5429885087104935
  0
CIRCLE
  8
_0-0_
  6
CONTINUOUS
 62
    7
 10
11.610278433712438
 20
9.5429885087100388
 40
4
  0
CIRCLE
  8
_0-0_
  6
CONTINUOUS
 62
    7
 10
11.610278433712438
 20
9.5429885087100388
 40
2.25
  0
LINE
  8
_0-1_
  6
CENTER1
 62
  152
 10
189.48872055362847
 20
91.037031128983131
 11
174.08872055362883
 21
91.037031128983131
  0
LINE
  8
_0-1_
  6
CENTER1
 62
  152
 10
174.28872055362979
 20
103.53703112898313
 11
174.28872055362979
 21
113.53703112898313
  0
LINE
  8
_0-1_
  6
CENTER1
 62
  152
 10
169.28872055362979
 20
108.53703112898313
 11
179.28872055362979
 21
108.53703112898313
  0
LINE
  8
_0-1_
  6
DASHED2
 62
  152
 10
173.78872055362893
 20
95.037031128982846
 11
177.28872055362893
 21
95.037031128982846
  0
LINE
  8
_0-1_
  6
DASHED2
 62
  152
 10
181.28872055362893
 20
93.287031128982846
 11
177.28872055362893
 21
93.287031128982846
  0
LINE
  8
_0-1_
  6
DASHED2
 62
  152
 10
177.28872055362893
 20
95.037031128982846
 11
177.28872055362893
 21
87.037031128982846
  0
LINE
  8
_0-1_
  6
DASHED2
 62
  152
 10
177.28872055362893
 20
88.787031128982846
 11
181.28872055362893
 21
88.787031128982846
  0
LINE
  8
_0-1_
  6
DASHED2
 62
  152
 10
177.28872055362893
 20
87.037031128982846
 11
173.78872055362893
 21
87.037031128982846
  0
LINE
  8
_0-1_
  6
DASHED2
 62
  152
 10
182.28872055362893
 20
89.037031128982846
 11
189.78872055362893
 21
89.037031128982846
  0
LINE
  8
_0-1_
  6
DASHED2
 62
  152
 10
189.78872055362893
 20
89.337031081299131
 11
182.28872055362893
 21
89.337031081299131
  0
LINE
  8
_0-1_
  6
DASHED2
 62
  152
 10
189.78872055362893
 20
93.037031128982846
 11
182.28872055362893
 21
93.037031128982846
  0
LINE
  8
_0-1_
  6
DASHED2
 62
  152
 10
182.28872055362893
 20
92.737031176666562
 11
189.78872055362893
 21
92.737031176666562
  0
LINE
  8
_0-1_
  6
DASHED2
 62
  152
 10
173.78872055362865
 20
92.203697755913424
 11
177.28872055362865
 21
92.203697755913424
  0
LINE
  8
_0-1_
  6
DASHED2
 62
  152
 10
173.78872055362865
 20
92.787031128983188
 11
177.28872055362865
 21
92.787031128983188
  0
LINE
  8
_0-1_
  6
DASHED2
 62
  152
 10
173.78872055362865
 20
93.370364382843661
 11
177.28872055362865
 21
93.370364382843661
  0
LINE
  8
_0-1_
  6
DASHED2
 62
  152
 10
173.78872055362865
 20
93.953697875122714
 11
177.28872055362865
 21
93.953697875122714
  0
LINE
  8
_0-1_
  6
DASHED2
 62
  152
 10
173.78872055362865
 20
87.537031128983188
 11
177.28872055362865
 21
87.537031128983188
  0
LINE
  8
_0-1_
  6
DASHED2
 62
  152
 10
173.78872055362865
 20
94.537031128983188
 11
177.28872055362865
 21
94.537031128983188
  0
LINE
  8
_0-1_
  6
DASHED2
 62
  152
 10
189.28872055362893
 20
92.737031176666903
 11
189.28872055362893
 21
89.337031081299472
  0
LINE
  8
_0-1_
  6
DASHED2
 62
  152
 10
188.98872036289407
 20
89.037031128983188
 11
189.28872055362893
 21
89.337031081299472
  0
LINE
  8
_0-1_
  6
DASHED2
 62
  152
 10
189.28872055362893
 20
92.737031176666903
 11
188.98872036289407
 21
93.037031128983188
  0
LINE
  8
_0-1_
  6
DASHED2
 62
  152
 10
188.98872036289407
 20
89.037031128983188
 11
188.98872036289407
 21
93.037031128983188
  0
LINE
  8
_0-1_
  6
PHANTOM1
 62
  152
 10
166.78872055362979
 20
121.03703112898313
 11
166.78872055362979
 21
96.037031128983131
  0
LINE
  8
_0-1_
  6
PHANTOM1
 62
  152
 10
181.78872055362979
 20
96.037031128983131
 11
181.78872055362979
 21
121.03703112898313
  0
LINE
  8
_0-1_
  6
PHANTOM1
 62
  152
 10
181.78872055362979
 20
121.03703112898313
 11
166.78872055362979
 21
121.03703112898313
  0
LINE
  8
_0-1_
  6
PHANTOM1
 62
  152
 10
181.78872055362979
 20
121.03703112898313
 11
196.78872055362979
 21
121.03703112898313
  0
LINE
  8
_0-1_
  6
PHANTOM1
 62
  152
 10
196.78872055362979
 20
121.03703112898313
 11
196.78872055362979
 21
96.037031128983131
  0
LINE
  8
_0-1_
  6
PHANTOM1
 62
  152
 10
196.78872055362979
 20
96.037031128983131
 11
181.78872055362979
 21
96.037031128983131
  0
LINE
  8
_0-1_
  6
PHANTOM1
 62
  152
 10
166.78872055362979
 20
96.037031128983131
 11
181.78872055362979
 21
96.037031128983131
  0
LINE
  8
_0-1_
  6
CONTINUOUS
 62
  152
 10
240.65372916583419
 20
91.337031128982858
 11
233.13110115916288
 21
91.337031128982858
  0
LINE
  8
_0-1_
  6
CONTINUOUS
 62
  152
 10
233.13110115916288
 20
90.737031128982949
 11
240.65372916583419
 21
90.737031128982949
  0
LINE
  8
_0-1_
  6
CENTER1
 62
  152
 10
240.65372916583419
 20
91.037031128983131
 11
221.65372916583419
 21
91.037031128983131
  0
LINE
  8
_0-1_
  6
CONTINUOUS
 62
  152
 10
221.65372916583419
 20
91.337031128982858
 11
229.17635717250596
 21
91.337031128982858
  0
LINE
  8
_0-1_
  6
CONTINUOUS
 62
  152
 10
229.17635717250596
 20
90.737031128982949
 11
221.65372916583419
 21
90.737031128982949
  0
LINE
  8
_0-1_
  6
CENTER1
 62
  152
 10
231.15372916583419
 20
89.037031128983131
 11
231.15372916583419
 21
93.037031128983131
  0
LINE
  8
_0-1_
  6
CENTER1
 62
  152
 10
111.42839923242911
 20
113.53703112898313
 11
111.42839923242911
 21
103.53703112898313
  0
LINE
  8
_0-1_
  6
CENTER1
 62
  152
 10
116.42839923242911
 20
108.53703112898313
 11
106.42839923242917
 21
108.53703112898313
  0
LINE
  8
_0-1_
  6
DASHED2
 62
  152
 10
110.92839923242855
 20
95.037031128983131
 11
114.42839923242855
 21
95.037031128983131
  0
LINE
  8
_0-1_
  6
DASHED2
 62
  152
 10
114.42839923242855
 20
95.037031128983131
 11
114.42839923242855
 21
87.037031128983131
  0
LINE
  8
_0-1_
  6
DASHED2
 62
  152
 10
114.42839923242855
 20
93.287031128983131
 11
118.42839923242855
 21
93.287031128983131
  0
LINE
  8
_0-1_
  6
DASHED2
 62
  152
 10
118.42839923242855
 20
88.787031128983131
 11
114.42839923242855
 21
88.787031128983131
  0
LINE
  8
_0-1_
  6
DASHED2
 62
  152
 10
114.42839923242855
 20
87.037031128983131
 11
110.92839923242855
 21
87.037031128983131
  0
LINE
  8
_0-1_
  6
DASHED2
 62
  152
 10
110.92839923242855
 20
92.203697755913424
 11
114.42839923242855
 21
92.203697755913424
  0
LINE
  8
_0-1_
  6
DASHED2
 62
  152
 10
110.92839923242855
 20
92.787031128983188
 11
114.42839923242855
 21
92.787031128983188
  0
LINE
  8
_0-1_
  6
DASHED2
 62
  152
 10
110.92839923242855
 20
93.370364382843661
 11
114.42839923242855
 21
93.370364382843661
  0
LINE
  8
_0-1_
  6
DASHED2
 62
  152
 10
110.92839923242855
 20
93.953697875122714
 11
114.42839923242855
 21
93.953697875122714
  0
LINE
  8
_0-1_
  6
DASHED2
 62
  152
 10
110.92839923242855
 20
87.537031128983188
 11
114.42839923242855
 21
87.537031128983188
  0
LINE
  8
_0-1_
  6
DASHED2
 62
  152
 10
110.92839923242855
 20
94.537031128983188
 11
114.42839923242855
 21
94.537031128983188
  0
LINE
  8
_0-1_
  6
DASHED2
 62
  152
 10
110.92839923242855
 20
87.537031128983188
 11
110.92839923242855
 21
94.537031128983188
  0
LINE
  8
_0-1_
  6
DASHED2
 62
  152
 10
122.42839923242855
 20
92.737031176666903
 11
122.42839923242855
 21
89.337031081299472
  0
LINE
  8
_0-1_
  6
DASHED2
 62
  152
 10
122.12839904169368
 20
89.037031128983188
 11
122.42839923242855
 21
89.337031081299472
  0
LINE
  8
_0-1_
  6
DASHED2
 62
  152
 10
122.42839923242855
 20
92.737031176666903
 11
122.12839904169368
 21
93.037031128983188
  0
LINE
  8
_0-1_
  6
DASHED2
 62
  152
 10
122.12839904169368
 20
89.037031128983188
 11
122.12839904169368
 21
93.037031128983188
  0
LINE
  8
_0-1_
  6
CONTINUOUS
 62
  152
 10
123.58979923242936
 20
87.881980128982889
 11
123.90778923242914
 21
88.755644128983079
  0
LINE
  8
_0-1_
  6
CONTINUOUS
 62
  152
 10
124.02839923242931
 20
89.439684128983174
 11
124.02839923242931
 21
92.63437712898309
  0
LINE
  8
_0-1_
  6
CONTINUOUS
 62
  152
 10
123.90778923242914
 20
93.318417128983185
 11
123.58979923242936
 21
94.19208112898292
  0
ARC
  8
_0-1_
  6
CONTINUOUS
 62
  152
 10
122.02839923242931
 20
89.439684128983174
 40
2
 50
340
 51
359.99999999999989
  0
ARC
  8
_0-1_
  6
CONTINUOUS
 62
  152
 10
122.02839923242931
 20
92.63437712898309
 40
2
 50
0
 51
20
  0
ARC
  8
_0-1_
  6
CONTINUOUS
 62
  152
 10
121.2405692324291
 20
88.737031128982892
 40
2.5
 50
258.17822799457855
 51
339.99999999999994
  0
LINE
  8
_0-1_
  6
CONTINUOUS
 62
  152
 10
120.72839923242913
 20
87.465493222190673
 11
120.72839923242913
 21
86.290057101515515
  0
ARC
  8
_0-1_
  6
CONTINUOUS
 62
  152
 10
121.2405692324291
 20
93.337031128982801
 40
2.5
 50
20.000000000000028
 51
101.82177200542145
  0
LINE
  8
_0-1_
  6
CONTINUOUS
 62
  152
 10
120.72839923242913
 20
95.784005156450178
 11
120.72839923242913
 21
94.608568035775079
  0
LINE
  8
_0-1_
  6
CONTINUOUS
 62
  152
 10
119.52839923242931
 20
94.28703222219076
 11
120.72839923242913
 21
94.608568035775079
  0
LINE
  8
_0-1_
  6
CONTINUOUS
 62
  152
 10
120.72839923242913
 20
87.465493222190673
 11
119.52839923242931
 21
87.787029035775106
  0
LINE
  8
_0-1_
  6
CONTINUOUS
 62
  152
 10
119.52839923242931
 20
94.28703222219076
 11
119.52839923242931
 21
87.787029035775106
  0
LINE
  8
_0-1_
  6
DASHED2
 62
  152
 10
123.98744740853016
 20
93.037031128983188
 11
114.42839923242855
 21
93.037031128983188
  0
LINE
  8
_0-1_
  6
DASHED2
 62
  152
 10
114.42839923242855
 20
92.737031176666903
 11
124.02576303166421
 21
92.737031176666903
  0
LINE
  8
_0-1_
  6
DASHED2
 62
  152
 10
114.42839923242855
 20
89.337031081299472
 11
124.02576308305873
 21
89.337031081299472
  0
LINE
  8
_0-1_
  6
DASHED2
 62
  152
 10
123.98744761406545
 20
89.037031128983188
 11
114.42839923242855
 21
89.037031128983188
  0
LINE
  8
_0-1_
  6
CENTER1
 62
  152
 10
111.22839923242867
 20
91.037031128983188
 11
124.8313981720579
 21
91.037031128983074
  0
LINE
  8
_0-1_
  6
PHANTOM1
 62
  152
 10
118.92839923242911
 20
121.03703112898313
 11
103.92839923242917
 21
121.03703112898313
  0
LINE
  8
_0-1_
  6
PHANTOM1
 62
  152
 10
103.92839923242917
 20
121.03703112898313
 11
103.92839923242917
 21
96.037031128983131
  0
LINE
  8
_0-1_
  6
PHANTOM1
 62
  152
 10
118.92839923242911
 20
96.037031128983131
 11
118.92839923242911
 21
121.03703112898313
  0
LINE
  8
_0-1_
  6
PHANTOM1
 62
  152
 10
103.92839923242917
 20
96.037031128983131
 11
118.92839923242911
 21
96.037031128983131
  0
TEXT
  8
_0-1_
 62
    7
 10
50.682732746542115
 20
111.03703112898341
 40
5
 41
1
 50
0
  1
SL1H
  0
TEXT
  8
_0-1_
 62
    7
 10
62.595371361490493
 20
109.27005359618482
 40
5
 41
1
 50
0
  1
-L30
  0
TEXT
  8
_0-1_
 62
    7
 10
50.682732746542115
 20
106.03703112898341
 40
5
 41
1
 50
0
  1
SL1B
  0
LINE
  8
_0-1_
  6
CONTINUOUS
 62
  152
 10
80.682732746542115
 20
91.337031128983597
 11
77.171466881577999
 21
91.337031128983597
  0
LINE
  8
_0-1_
  6
CONTINUOUS
 62
  152
 10
77.171466881577999
 20
90.737031128983688
 11
80.682732746542115
 21
90.737031128983688
  0
LINE
  8
_0-1_
  6
CENTER1
 62
  152
 10
80.682732746542115
 20
91.037031128983301
 11
50.682732746542115
 21
91.037031128983529
  0
LINE
  8
_0-1_
  6
CONTINUOUS
 62
  152
 10
50.682732746542115
 20
90.737031128983688
 11
54.193998611506686
 21
90.737031128983688
  0
LINE
  8
_0-1_
  6
CONTINUOUS
 62
  152
 10
54.193998611506686
 20
91.337031128983597
 11
50.682732746542115
 21
91.337031128983597
  0
LINE
  8
_0-1_
  6
CENTER1
 62
  152
 10
58.182732746542115
 20
87.037031128983415
 11
58.182732746542115
 21
95.037031128983415
  0
LINE
  8
_0-1_
  6
CONTINUOUS
 62
  152
 10
62.171466881577999
 20
91.337031128983597
 11
69.193998611506686
 21
91.337031128983597
  0
LINE
  8
_0-1_
  6
CONTINUOUS
 62
  152
 10
69.193998611506686
 20
90.737031128983688
 11
62.171466881577999
 21
90.737031128983688
  0
LINE
  8
_0-1_
  6
CENTER1
 62
  152
 10
73.182732746542115
 20
87.037031128983415
 11
73.182732746542115
 21
95.037031128983415
  0
TEXT
  8
_0-1_
 62
    7
 10
2.1102784337124376
 20
111.03703112898341
 40
5
 41
1
 50
0
  1
SL1H
  0
TEXT
  8
_0-1_
 62
    7
 10
14.057349757483735
 20
109.02612380542251
 40
5
 41
1
 50
0
  1
-L19
  0
TEXT
  8
_0-1_
 62
    7
 10
2.1102784337124376
 20
106.03703112898341
 40
5
 41
1
 50
0
  1
SL1B
  0
LINE
  8
_0-1_
  6
CONTINUOUS
 62
  152
 10
21.110278433712438
 20
91.337031128983597
 11
15.599012568748321
 21
91.337031128983597
  0
LINE
  8
_0-1_
  6
CONTINUOUS
 62
  152
 10
15.599012568748321
 20
90.737031128983688
 11
21.110278433712438
 21
90.737031128983688
  0
LINE
  8
_0-1_
  6
CENTER1
 62
  152
 10
21.110278433712438
 20
91.037031128983585
 11
2.1102784337124376
 21
91.037031128983585
  0
LINE
  8
_0-1_
  6
CONTINUOUS
 62
  152
 10
2.1102784337124376
 20
90.737031128983688
 11
7.6215442986765538
 21
90.737031128983688
  0
LINE
  8
_0-1_
  6
CONTINUOUS
 62
  152
 10
7.6215442986765538
 20
91.337031128983597
 11
2.1102784337124376
 21
91.337031128983597
  0
LINE
  8
_0-1_
  6
CENTER1
 62
  152
 10
11.610278433712438
 20
95.037031128983415
 11
11.610278433712438
 21
87.037031128983415
  0
TEXT
  8
_0-1_
 62
    7
 10
172.40276857967518
 20
73.695276788087369
 40
5
 41
1
 50
0
  1
SL1S
  0
LINE
  8
_0-1_
  6
DASHED1
 62
  152
 10
194.78872055362979
 20
11.542988508710039
 11
182.28872055362979
 21
11.542988508710039
  0
LINE
  8
_0-1_
  6
DASHED1
 62
  152
 10
182.28872055362979
 20
11.242988556393755
 11
194.78872055362979
 21
11.242988556393755
  0
LINE
  8
_0-1_
  6
CENTER1
 62
  152
 10
194.48872055362961
 20
9.5429885087100388
 11
182.58872055362997
 21
9.5429885087100388
  0
LINE
  8
_0-1_
  6
CENTER1
 62
  152
 10
181.28872055363024
 20
9.5429885087100388
 11
168.78872055363024
 21
9.5429885087100388
  0
LINE
  8
_0-1_
  6
DASHED1
 62
  152
 10
168.78872055362979
 20
5.5429885087104935
 11
172.28872055362979
 21
5.5429885087104935
  0
LINE
  8
_0-1_
  6
DASHED1
 62
  152
 10
172.28872055362979
 20
5.5429885087104935
 11
172.28872055362979
 21
13.542988508710039
  0
LINE
  8
_0-1_
  6
DASHED1
 62
  152
 10
172.28872055362979
 20
13.542988508710039
 11
168.78872055362979
 21
13.542988508710039
  0
LINE
  8
_0-1_
  6
DASHED1
 62
  152
 10
172.28872055362979
 20
11.792988508710039
 11
181.28872055362979
 21
11.792988508710039
  0
LINE
  8
_0-1_
  6
DASHED1
 62
  152
 10
181.28872055362979
 20
7.2929885087104935
 11
172.28872055362979
 21
7.2929885087104935
  0
LINE
  8
_0-1_
  6
DASHED1
 62
  152
 10
182.28872055362979
 20
7.5429885087100388
 11
194.78872055362979
 21
7.5429885087100388
  0
LINE
  8
_0-1_
  6
DASHED1
 62
  152
 10
194.78872055362979
 20
7.842988461026323
 11
182.28872055362979
 21
7.842988461026323
  0
LINE
  8
_0-1_
  6
CENTER1
 62
  152
 10
169.28872055362979
 20
22.042988508710039
 11
169.28872055362979
 21
32.042988508710039
  0
LINE
  8
_0-1_
  6
CENTER1
 62
  152
 10
164.28872055362979
 20
27.042988508710039
 11
174.28872055362979
 21
27.042988508710039
  0
LINE
  8
_0-1_
  6
PHANTOM1
 62
  152
 10
156.78872055362979
 20
14.542988508710039
 11
181.78872055362979
 21
14.542988508710039
  0
LINE
  8
_0-1_
  6
PHANTOM1
 62
  152
 10
181.78872055362979
 20
14.542988508710039
 11
181.78872055362979
 21
39.542988508710039
  0
LINE
  8
_0-1_
  6
PHANTOM1
 62
  152
 10
181.78872055362979
 20
39.542988508710039
 11
156.78872055362979
 21
39.542988508710039
  0
LINE
  8
_0-1_
  6
PHANTOM1
 62
  152
 10
156.78872055362979
 20
39.542988508710039
 11
156.78872055362979
 21
14.542988508710039
  0
LINE
  8
_0-1_
  6
PHANTOM1
 62
  152
 10
206.78872055362979
 20
39.542988508710039
 11
206.78872055362979
 21
14.542988508710039
  0
LINE
  8
_0-1_
  6
PHANTOM1
 62
  152
 10
206.78872055362979
 20
14.542988508710039
 11
181.78872055362979
 21
14.542988508710039
  0
LINE
  8
_0-1_
  6
PHANTOM1
 62
  152
 10
181.78872055362979
 20
39.542988508710039
 11
206.78872055362979
 21
39.542988508710039
  0
LINE
  8
_0-1_
  6
CONTINUOUS
 62
  152
 10
221.65372916583419
 20
9.2429885087103116
 11
229.17635717250596
 21
9.2429885087103116
  0
LINE
  8
_0-1_
  6
CONTINUOUS
 62
  152
 10
229.17635717250596
 20
9.8429885087102207
 11
221.65372916583419
 21
9.8429885087102207
  0
LINE
  8
_0-1_
  6
CENTER1
 62
  152
 10
221.65372916583419
 20
9.5429885087104935
 11
240.65372916583419
 21
9.5429885087104935
  0
LINE
  8
_0-1_
  6
CONTINUOUS
 62
  152
 10
240.65372916583419
 20
9.8429885087102207
 11
233.13110115916288
 21
9.8429885087102207
  0
LINE
  8
_0-1_
  6
CONTINUOUS
 62
  152
 10
233.13110115916288
 20
9.2429885087103116
 11
240.65372916583419
 21
9.2429885087103116
  0
LINE
  8
_0-1_
  6
CENTER1
 62
  152
 10
231.15372916583419
 20
5.5429885087104935
 11
231.15372916583419
 21
13.542988508710494
  0
LINE
  8
_0-1_
  6
DASHED1
 62
  152
 10
118.42839923242855
 20
11.792988508710039
 11
109.42839923242855
 21
11.792988508710039
  0
LINE
  8
_0-1_
  6
DASHED1
 62
  152
 10
109.42839923242855
 20
13.542988508710039
 11
109.42839923242855
 21
5.5429885087104935
  0
LINE
  8
_0-1_
  6
DASHED1
 62
  152
 10
109.42839923242855
 20
5.5429885087104935
 11
105.9283992324286
 21
5.5429885087104935
  0
LINE
  8
_0-1_
  6
CENTER1
 62
  152
 10
105.92839923242906
 20
9.5429885087100388
 11
118.428399232429
 21
9.5429885087100388
  0
LINE
  8
_0-1_
  6
DASHED1
 62
  152
 10
118.42839923242855
 20
7.2929885087104935
 11
109.42839923242855
 21
7.2929885087104935
  0
LINE
  8
_0-1_
  6
DASHED1
 62
  152
 10
109.42839923242855
 20
13.542988508710039
 11
105.9283992324286
 21
13.542988508710039
  0
LINE
  8
_0-1_
  6
CENTER1
 62
  152
 10
106.4283992324286
 20
22.042988508710039
 11
106.4283992324286
 21
32.042988508710039
  0
LINE
  8
_0-1_
  6
CENTER1
 62
  152
 10
101.4283992324286
 20
27.042988508710039
 11
111.42839923242855
 21
27.042988508710039
  0
LINE
  8
_0-1_
  6
PHANTOM1
 62
  152
 10
93.928399232428603
 20
14.542988508710039
 11
118.92839923242855
 21
14.542988508710039
  0
LINE
  8
_0-1_
  6
PHANTOM1
 62
  152
 10
118.92839923242855
 20
14.542988508710039
 11
118.92839923242855
 21
39.542988508710039
  0
LINE
  8
_0-1_
  6
PHANTOM1
 62
  152
 10
118.92839923242855
 20
39.542988508710039
 11
93.928399232428603
 21
39.542988508710039
  0
LINE
  8
_0-1_
  6
PHANTOM1
 62
  152
 10
93.928399232428603
 20
39.542988508710039
 11
93.928399232428603
 21
14.542988508710039
  0
LINE
  8
_0-1_
  6
CONTINUOUS
 62
  152
 10
80.682732746542115
 20
9.8429885087102207
 11
77.171466881577999
 21
9.8429885087102207
  0
LINE
  8
_0-1_
  6
CONTINUOUS
 62
  152
 10
77.171466881577999
 20
9.2429885087098569
 11
80.682732746542115
 21
9.2429885087098569
  0
LINE
  8
_0-1_
  6
CENTER1
 62
  152
 10
80.682732746542115
 20
9.5429885087100388
 11
50.682732746542115
 21
9.5429885087100388
  0
LINE
  8
_0-1_
  6
CONTINUOUS
 62
  152
 10
50.682732746542115
 20
9.2429885087098569
 11
54.193998611506686
 21
9.2429885087098569
  0
LINE
  8
_0-1_
  6
CONTINUOUS
 62
  152
 10
54.193998611506686
 20
9.8429885087102207
 11
50.682732746542115
 21
9.8429885087102207
  0
LINE
  8
_0-1_
  6
CENTER1
 62
  152
 10
58.182732746542115
 20
13.542988508710039
 11
58.182732746542115
 21
5.5429885087100388
  0
LINE
  8
_0-1_
  6
CONTINUOUS
 62
  152
 10
62.171466881577999
 20
9.2429885087098569
 11
69.193998611506686
 21
9.2429885087098569
  0
LINE
  8
_0-1_
  6
CONTINUOUS
 62
  152
 10
69.193998611506686
 20
9.8429885087102207
 11
62.171466881577999
 21
9.8429885087102207
  0
LINE
  8
_0-1_
  6
CENTER1
 62
  152
 10
73.182732746542115
 20
13.542988508710039
 11
73.182732746542115
 21
5.5429885087100388
  0
TEXT
  8
_0-1_
 62
    7
 10
62.595371361490493
 20
27.776010975911447
 40
5
 41
1
 50
0
  1
-L30
  0
TEXT
  8
_0-1_
 62
    7
 10
50.682732746542115
 20
24.542988508710039
 40
5
 41
1
 50
0
  1
SL2B
  0
LINE
  8
_0-1_
  6
CONTINUOUS
 62
  152
 10
21.110278433712438
 20
9.8429885087102207
 11
15.599012568748321
 21
9.8429885087102207
  0
LINE
  8
_0-1_
  6
CONTINUOUS
 62
  152
 10
15.599012568748321
 20
9.2429885087098569
 11
21.110278433712438
 21
9.2429885087098569
  0
LINE
  8
_0-1_
  6
CENTER1
 62
  152
 10
21.110278433712438
 20
9.5429885087100388
 11
2.1102784337124376
 21
9.5429885087100388
  0
LINE
  8
_0-1_
  6
CONTINUOUS
 62
  152
 10
2.1102784337124376
 20
9.8429885087102207
 11
7.6215442986770086
 21
9.8429885087102207
  0
LINE
  8
_0-1_
  6
CONTINUOUS
 62
  152
 10
7.6215442986770086
 20
9.2429885087098569
 11
2.1102784337124376
 21
9.2429885087098569
  0
LINE
  8
_0-1_
  6
CENTER1
 62
  152
 10
11.610278433712438
 20
5.5429885087104935
 11
11.610278433712438
 21
13.542988508710039
  0
TEXT
  8
_0-1_
 62
    7
 10
14.057349757483735
 20
27.532081185149138
 40
5
 41
1
 50
0
  1
-L19
  0
TEXT
  8
_0-1_
 62
    7
 10
2.1102784337124376
 20
24.542988508710039
 40
5
 41
1
 50
0
  1
SL2B
  0
TEXT
  8
_0-1_
 62
    7
 10
171.90276857967604
 20
-5.7987658321849835
 40
5
 41
1
 50
0
  1
SL2S
  0
TEXT
  8
_0-1_
 62
    7
 10
2.1102784337124376
 20
29.542988508710039
 40
5
 41
1
 50
0
  1
SL2H
  0
TEXT
  8
_0-1_
 62
    7
 10
50.682732746542115
 20
29.542988508710039
 40
5
 41
1
 50
0
  1
SL2H
  0
TEXT
  8
_0-1_
 62
    7
 10
220.48664888132521
 20
22.943925644365038
 40
5
 41
1
 50
0
  1
SL2T-L19
  0
TEXT
  8
_0-1_
 62
    7
 10
220.48664888132521
 20
104.43796826463768
 40
5
 41
1
 50
0
  1
SL1T-L19
  0
CIRCLE
  8
_0-1_
  6
CONTINUOUS
 62
  152
 10
231.15372916583419
 20
9.5429885087104935
 40
2
  0
CIRCLE
  8
_0-1_
  6
CONTINUOUS
 62
  152
 10
231.15372916583419
 20
91.037031128983131
 40
2
  0
ENDSEC
  0
EOF
