  0
SECTION
  2
HEADER
  9
$ACADVER
  1
AC1009
  9
$INSBASE
 10
0
 20
0
 30
0
  9
$EXTMIN
 10
0
 20
0
  9
$EXTMAX
 10
1189
 20
841
  9
$LIMMIN
 10
0
 20
0
  9
$LIMMAX
 10
1189
 20
841
  9
$LTSCALE
 40
1
  0
ENDSEC
  0
SECTION
  2
TABLES
  0
TABLE
  2
LTYPE
 70
     9
  0
LTYPE
  2
CONTINUOUS
 70
    64
  3
実線
 72
    65
 73
     0
 40
0.0
  0
LTYPE
  2
DASHED1
 70
    64
  3
--  --  --  --  --  --  --  --  
 72
    65
 73
     2
 40
2.5
 49
1.25
 49
-1.25
  0
LTYPE
  2
DASHED2
 70
    64
  3
----    ----    ----    ----    
 72
    65
 73
     2
 40
5.0
 49
2.5
 49
-2.5
  0
LTYPE
  2
DASHED3
 70
    64
  3
------  ------  ------  ------  
 72
    65
 73
     2
 40
5.0
 49
3.75
 49
-1.25
  0
LTYPE
  2
CENTER1
 70
    64
  3
----- - ----- - ----- - ----- - 
 72
    65
 73
     4
 40
10.0
 49
6.25
 49
-1.25
 49
1.25
 49
-1.25
  0
LTYPE
  2
CENTER2
 70
    64
  3
----------  --  ----------  --  
 72
    65
 73
     4
 40
20.0
 49
12.5
 49
-2.5
 49
2.5
 49
-2.5
  0
LTYPE
  2
PHANTOM1
 70
    64
  3
--- - - --- - - --- - - --- - - 
 72
    65
 73
     6
 40
10.0
 49
3.25
 49
-1.25
 49
1.25
 49
-1.25
 49
1.25
 49
-1.25
  0
LTYPE
  2
PHANTOM2
 70
    64
  3
--------  -  -  --------  -  -  
 72
    65
 73
     6
 40
20.0
 49
10.0
 49
-2.5
 49
1.25
 49
-2.5
 49
1.25
 49
-2.5
  0
LTYPE
  2
DOT
 70
    64
  3
-   -   -   -   -   -   -   -   
 72
    65
 73
     2
 40
2.5
 49
0.625
 49
-1.875
  0
LTYPE
  2
DUMMY
 70
    64
  3
ダミー
 72
    65
 73
     0
 40
0.0
  0
LTYPE
  2
RAND1
 70
    64
  3
ランダム線1
 72
    65
 73
     4
 40
10.0
 49
1.0
 49
-2.0
 49
3.0
 49
-4.0
  0
LTYPE
  2
RAND2
 70
    64
  3
ランダム線2
 72
    65
 73
     4
 40
14.0
 49
2.0
 49
-3.0
 49
4.0
 49
-5.0
  0
LTYPE
  2
RAND3
 70
    64
  3
ランダム線3
 72
    65
 73
     4
 40
18.0
 49
3.0
 49
-4.0
 49
5.0
 49
-6.0
  0
LTYPE
  2
RAND4
 70
    64
  3
ランダム線4
 72
    65
 73
     4
 40
22.0
 49
4.0
 49
-5.0
 49
6.0
 49
-7.0
  0
LTYPE
  2
RAND5
 70
    64
  3
ランダム線5
 72
    65
 73
     4
 40
26.0
 49
5.0
 49
-6.0
 49
7.0
 49
-8.0
  0
LTYPE
  2
LONG1
 70
    64
  3
----------  --  ----------  --  
 72
    65
 73
     4
 40
40.0
 49
32.5
 49
-2.5
 49
2.5
 49
-2.5
  0
LTYPE
  2
LONG2
 70
    64
  3
--------  -  -  --------  -  -  
 72
    65
 73
     6
 40
40.0
 49
30.0
 49
-2.5
 49
1.25
 49
-2.5
 49
1.25
 49
-2.5
  0
LTYPE
  2
LONG3
 70
    64
  3
+++++++++++++++..+++++++++++++++
 72
    65
 73
     2
 40
40.0
 49
37.5
 49
-2.5
  0
LTYPE
  2
LONG4
 70
    64
  3
+++++++++++++++..+++++++++++++++
 72
    65
 73
     2
 40
80.0
 49
75.0
 49
-5.0
  0
LTYPE
  2
LONG5
 70
    64
  3
----------  --  ----------  --  
 72
    65
 73
     4
 40
60.0
 49
37.5
 49
-7.5
 49
7.5
 49
-7.5
  0
LTYPE
  2
dashed
 70
   64
  3
-------   -------------   ------
 72
   65
 73
    2
 40
7.5
 49
6
 49
-1.5
  0
LTYPE
  2
dashed_spaced
 70
   64
  3
----        --------        ----
 72
   65
 73
    2
 40
12
 49
6
 49
-6
  0
LTYPE
  2
long_dashed_dotted
 70
   64
  3
------------- --- --------------
 72
   65
 73
    4
 40
15.25
 49
12
 49
-1.5
 49
0.25
 49
-1.5
  0
LTYPE
  2
long_dashed_double-dotted
 70
   64
  3
----------- --- --- ------------
 72
   65
 73
    6
 40
17
 49
12
 49
-1.5
 49
0.25
 49
-1.5
 49
0.25
 49
-1.5
  0
LTYPE
  2
long_dashed_triplicate-dotted
 70
   64
  3
--------- --- --- --- ----------
 72
   65
 73
    8
 40
18.75
 49
12
 49
-1.5
 49
0.25
 49
-1.5
 49
0.25
 49
-1.5
 49
0.25
 49
-1.5
  0
LTYPE
  2
dotted
 70
   64
  3
   -       -       -       -    
 72
   65
 73
    2
 40
1.75
 49
0.25
 49
-1.5
  0
LTYPE
  2
chain
 70
   64
  3
-------------- -- --------------
 72
   65
 73
    4
 40
18.5
 49
12
 49
-1.5
 49
3.5
 49
-1.5
  0
LTYPE
  2
chain_double_dash
 70
   64
  3
------------ -- -- -------------
 72
   65
 73
    6
 40
23.5
 49
12
 49
-1.5
 49
3.5
 49
-1.5
 49
3.5
 49
-1.5
  0
LTYPE
  2
dashed_dotted
 70
   64
  3
-----------     -     ----------
 72
   65
 73
    4
 40
9.25
 49
6
 49
-1.5
 49
0.25
 49
-1.5
  0
LTYPE
  2
double-dashed_dotted
 70
   64
  3
------   -----------   -   -----
 72
   65
 73
    6
 40
16.75
 49
6
 49
-1.5
 49
6
 49
-1.5
 49
0.25
 49
-1.5
  0
LTYPE
  2
dashed_double-dotted
 70
   64
  3
---------    -    -    ---------
 72
   65
 73
    6
 40
11
 49
6
 49
-1.5
 49
0.25
 49
-1.5
 49
0.25
 49
-1.5
  0
LTYPE
  2
double-dashed_double-dotted
 70
   64
  3
-----   ---------   -   -   ----
 72
   65
 73
    8
 40
18.5
 49
6
 49
-1.5
 49
6
 49
-1.5
 49
0.25
 49
-1.5
 49
0.25
 49
-1.5
  0
LTYPE
  2
dashed_triplicate-dotted
 70
   64
  3
-------    -    -    -    ------
 72
   65
 73
    8
 40
12.75
 49
6
 49
-1.5
 49
0.25
 49
-1.5
 49
0.25
 49
-1.5
 49
0.25
 49
-1.5
  0
LTYPE
  2
double-dashed_triplicate-dotted
 70
   64
  3
-----  ---------  -  -  -  -----
 72
   65
 73
   10
 40
20.25
 49
6
 49
-1.5
 49
6
 49
-1.5
 49
0.25
 49
-1.5
 49
0.25
 49
-1.5
 49
0.25
 49
-1.5
  0
LTYPE
  2
undefined
 70
   64
  3
--------------------------------
 72
   65
 73
    0
 40
0
  0
ENDTAB
  0
TABLE
  2
STYLE
  5
3
100
AcDbSymbolTable
 70
     1
  0
STYLE
  5
10
100
AcDbSymbolTableRecord
100
AcDbTextStyleTableRecord
  2
STANDARD
 70
     0
 40
0.0
 41
1.0
 50
0.0
 71
     0
 42
0.2
  3
txt
  4
bigfont.shx
  0
STYLE
  5
26
100
AcDbSymbolTableRecord
100
AcDbTextStyleTableRecord
  2
TATEGAKI
 70
    68
 40
0.0
 41
1.0
 50
0.0
 71
     0
 42
1.0
  3
txt
  4
bigfont.shx
  0
ENDTAB
  0
TABLE
  2
LAYER
 70
    4
  0
LAYER
  2
_0-0_
 70
   64
 62
    7
  6
CONTINUOUS
  0
LAYER
  2
_0-1_
 70
   64
 62
    7
  6
CONTINUOUS
  0
LAYER
  2
_0-e_
 70
   64
 62
    7
  6
CONTINUOUS
  0
LAYER
  2
ADD_LINE
 70
   64
 62
    7
  6
CONTINUOUS
  0
ENDTAB
  0
ENDSEC
  0
SECTION
  2
BLOCKS
  0
ENDSEC
  0
SECTION
  2
ENTITIES
  0
LINE
  8
_0-0_
  6
CONTINUOUS
 62
    7
 10
54.302538182421358
 20
88.031117945551443
 11
25.302518182421181
 21
88.031117945551443
  0
LINE
  8
_0-0_
  6
CONTINUOUS
 62
    7
 10
54.302538182421358
 20
93.031115945551448
 11
25.302518182421181
 21
93.031115945551448
  0
LINE
  8
_0-0_
  6
CONTINUOUS
 62
    7
 10
25.302518182421181
 20
106.03110594555147
 11
26.102498182421414
 21
106.03110594555147
  0
LINE
  8
_0-0_
  6
CONTINUOUS
 62
    7
 10
26.102498182421414
 20
105.83110594555166
 11
26.102498182421414
 21
111.23110594555152
  0
LINE
  8
_0-0_
  6
CONTINUOUS
 62
    7
 10
26.102498182421414
 20
111.23110594555152
 11
30.502508182421252
 21
111.23110594555152
  0
LINE
  8
_0-0_
  6
CONTINUOUS
 62
    7
 10
30.502508182421252
 20
111.23110594555152
 11
30.502508182421252
 21
105.83110594555166
  0
LINE
  8
_0-0_
  6
CONTINUOUS
 62
    7
 10
30.502508182421252
 20
105.83110594555166
 11
26.102498182421414
 21
105.83110594555166
  0
LINE
  8
_0-0_
  6
CONTINUOUS
 62
    7
 10
26.102498182421414
 20
111.03110594555147
 11
25.302518182421181
 21
111.03110594555147
  0
LINE
  8
_0-0_
  6
CONTINUOUS
 62
    7
 10
38.302508182421434
 20
108.53110594555147
 11
39.002518182421454
 21
108.53110594555147
  0
LINE
  8
_0-0_
  6
CONTINUOUS
 62
    7
 10
40.302518182421181
 20
108.53110594555147
 11
53.002528182421202
 21
108.53110594555147
  0
LINE
  8
_0-0_
  6
CONTINUOUS
 62
    7
 10
54.302508182421434
 20
112.03110594555147
 11
54.302508182421434
 21
112.53110594555147
  0
LINE
  8
_0-0_
  6
CONTINUOUS
 62
    7
 10
54.302508182421434
 20
112.53110594555147
 11
39.002518182421454
 21
112.53110594555147
  0
LINE
  8
_0-0_
  6
CONTINUOUS
 62
    7
 10
39.002518182421454
 20
112.53110594555147
 11
39.002518182421454
 21
104.53110594555147
  0
LINE
  8
_0-0_
  6
CONTINUOUS
 62
    7
 10
39.002518182421454
 20
104.53110594555147
 11
54.302508182421434
 21
104.53110594555147
  0
LINE
  8
_0-0_
  6
CONTINUOUS
 62
    7
 10
54.302508182421434
 20
104.53110594555147
 11
54.302508182421434
 21
105.03110594555147
  0
LINE
  8
_0-0_
  6
CONTINUOUS
 62
    7
 10
54.302508182421434
 20
105.03110594555147
 11
56.302508182421434
 21
105.03110594555147
  0
LINE
  8
_0-0_
  6
CONTINUOUS
 62
    7
 10
56.302508182421434
 20
105.03110594555147
 11
56.302508182421434
 21
112.03110594555147
  0
LINE
  8
_0-0_
  6
CONTINUOUS
 62
    7
 10
56.302508182421434
 20
112.03110594555147
 11
54.302508182421434
 21
112.03110594555147
  0
LINE
  8
_0-0_
  6
CONTINUOUS
 62
    7
 10
54.302508182421434
 20
112.03110594555147
 11
54.302508182421434
 21
105.03110594555147
  0
ARC
  8
_0-0_
  6
CONTINUOUS
 62
    7
 10
40.302518182421181
 20
111.23111594555149
 40
1.2999999
 50
90
 51
180
  0
ARC
  8
_0-0_
  6
CONTINUOUS
 62
    7
 10
40.302518182421181
 20
109.8311159455514
 40
1.2999999
 50
180
 51
270
  0
ARC
  8
_0-0_
  6
CONTINUOUS
 62
    7
 10
40.302518182421181
 20
107.23110594555152
 40
1.2999999
 50
90
 51
180
  0
ARC
  8
_0-0_
  6
CONTINUOUS
 62
    7
 10
40.302518182421181
 20
105.83110594555166
 40
1.2999999
 50
180
 51
270
  0
ARC
  8
_0-0_
  6
CONTINUOUS
 62
    7
 10
53.002528182421202
 20
105.83110594555166
 40
1.2999999
 50
270
 51
0
  0
ARC
  8
_0-0_
  6
CONTINUOUS
 62
    7
 10
53.002528182421202
 20
107.23110594555152
 40
1.2999999
 50
0
 51
90
  0
ARC
  8
_0-0_
  6
CONTINUOUS
 62
    7
 10
53.002528182421202
 20
109.8311159455514
 40
1.2999999
 50
270
 51
0
  0
ARC
  8
_0-0_
  6
CONTINUOUS
 62
    7
 10
53.002528182421202
 20
111.23111594555149
 40
1.2999999
 50
0
 51
90
  0
ARC
  8
_0-0_
  6
CONTINUOUS
 62
    7
 10
25.302518182421181
 20
99.531105945551474
 40
6.5
 50
90
 51
270
  0
ARC
  8
_0-0_
  6
CONTINUOUS
 62
    7
 10
25.302518182421181
 20
99.531105945551474
 40
11.499998
 50
90
 51
270
  0
ARC
  8
_0-0_
  6
CONTINUOUS
 62
    7
 10
54.302538182421358
 20
99.531105945551474
 40
6.5
 50
270
 51
72.079894999999993
  0
ARC
  8
_0-0_
  6
CONTINUOUS
 62
    7
 10
54.302538182421358
 20
99.531105945551474
 40
11.499998
 50
270
 51
79.984649000000005
  0
TEXT
  8
_0-e_
 62
    7
 10
2.7055360875278893
 20
116.73579654930791
 40
5
 41
1
 50
0
  1
SH-5
  0
LINE
  8
_0-0_
  6
CONTINUOUS
 62
    7
 10
59.101062059635296
 20
4.9906838278088799
 11
25.101052059635322
 21
4.9906838278088799
  0
LINE
  8
_0-0_
  6
CONTINUOUS
 62
    7
 10
59.101062059635296
 20
10.990682827808769
 11
25.101052059635322
 21
10.990682827808769
  0
LINE
  8
_0-0_
  6
CONTINUOUS
 62
    7
 10
25.101052059635322
 20
25.990684827808764
 11
27.301052059635367
 21
25.990684827808764
  0
LINE
  8
_0-0_
  6
CONTINUOUS
 62
    7
 10
32.301052059635367
 20
25.740684827808764
 11
32.301052059635367
 21
32.240684827808764
  0
LINE
  8
_0-0_
  6
CONTINUOUS
 62
    7
 10
27.301052059635367
 20
31.990684827808764
 11
25.101052059635322
 21
31.990684827808764
  0
LINE
  8
_0-0_
  6
CONTINUOUS
 62
    7
 10
27.301052059635367
 20
32.240684827808764
 11
27.301052059635367
 21
25.740684827808764
  0
LINE
  8
_0-0_
  6
CONTINUOUS
 62
    7
 10
58.301072059635317
 20
28.976934827808918
 11
43.301032059635418
 21
28.976934827808918
  0
LINE
  8
_0-0_
  6
CONTINUOUS
 62
    7
 10
41.801042059635165
 20
24.490674827808789
 11
59.801072059635317
 21
24.490674827808789
  0
LINE
  8
_0-0_
  6
CONTINUOUS
 62
    7
 10
59.801072059635317
 20
24.490674827808789
 11
59.801072059635317
 21
33.490684827808764
  0
LINE
  8
_0-0_
  6
CONTINUOUS
 62
    7
 10
59.801072059635317
 20
33.490684827808764
 11
41.801042059635165
 21
33.490684827808764
  0
LINE
  8
_0-0_
  6
CONTINUOUS
 62
    7
 10
41.801042059635165
 20
33.490684827808764
 11
41.801042059635165
 21
24.490674827808789
  0
LINE
  8
_0-0_
  6
CONTINUOUS
 62
    7
 10
59.801072059635317
 20
24.990684827808764
 11
61.801072059635317
 21
24.990684827808764
  0
LINE
  8
_0-0_
  6
CONTINUOUS
 62
    7
 10
61.801072059635317
 20
24.990684827808764
 11
61.801072059635317
 21
32.990684827808764
  0
LINE
  8
_0-0_
  6
CONTINUOUS
 62
    7
 10
61.801072059635317
 20
32.990684827808764
 11
59.801072059635317
 21
32.990684827808764
  0
ARC
  8
_0-0_
  6
CONTINUOUS
 62
    7
 10
25.101052059635322
 20
18.490684827808764
 40
13.499999000000003
 50
90.000152
 51
270
  0
ARC
  8
_0-0_
  6
CONTINUOUS
 62
    7
 10
25.101052059635322
 20
18.490684827808764
 40
7.4999992000000004
 50
90.000152
 51
270
  0
ARC
  8
_0-0_
  6
CONTINUOUS
 62
    7
 10
59.101062059635296
 20
18.490684827808764
 40
7.4999992000000004
 50
270
 51
68.899733999999981
  0
ARC
  8
_0-0_
  6
CONTINUOUS
 62
    7
 10
59.101062059635296
 20
18.490684827808764
 40
13.499999000000003
 50
270.00015000000002
 51
78.462997000000044
  0
ARC
  8
_0-0_
  6
CONTINUOUS
 62
    7
 10
57.353232059635275
 20
31.233804827808854
 40
2.4478328
 50
292.78139999999996
 51
67.218596999999917
  0
ARC
  8
_0-0_
  6
CONTINUOUS
 62
    7
 10
57.373842059635308
 20
26.733804827808854
 40
2.4272095
 50
292.45812000000001
 51
67.54194600000001
  0
ARC
  8
_0-0_
  6
CONTINUOUS
 62
    7
 10
44.248882059635434
 20
31.233804827808854
 40
2.4478328
 50
112.7814
 51
247.21859000000001
  0
ARC
  8
_0-0_
  6
CONTINUOUS
 62
    7
 10
44.228262059635199
 20
26.733804827808854
 40
2.4272095
 50
112.45805
 51
247.54186999999999
  0
TEXT
  8
_0-e_
 62
    7
 10
5.47140944755688
 20
41.311439163775049
 40
5
 41
1
 50
0
  1
SH-6
  0
LINE
  8
_0-0_
  6
CONTINUOUS
 62
    7
 10
27.301052059635367
 20
25.740684827808764
 11
32.301052059635367
 21
25.740684827808764
  0
LINE
  8
_0-0_
  6
CONTINUOUS
 62
    7
 10
27.301052059635367
 20
32.240684827808764
 11
32.301052059635367
 21
32.240684827808764
  0
LINE
  8
_0-1_
  6
CENTER1
 62
  152
 10
25.302518182421181
 20
90.531105945551474
 11
54.302538182421358
 21
90.531105945551474
  0
LINE
  8
_0-1_
  6
CONTINUOUS
 62
  152
 10
26.102498182421414
 20
106.23110594555152
 11
30.502508182421252
 21
106.23110594555152
  0
LINE
  8
_0-1_
  6
CONTINUOUS
 62
  152
 10
30.502508182421252
 20
110.83110594555166
 11
26.102498182421414
 21
110.83110594555166
  0
LINE
  8
_0-1_
  6
CENTER1
 62
  152
 10
25.302518182421181
 20
108.53110594555147
 11
38.302508182421434
 21
108.53110594555147
  0
ARC
  8
_0-1_
  6
CENTER1
 62
  152
 10
25.302518182421181
 20
99.531105945551474
 40
9
 50
90
 51
270
  0
ARC
  8
_0-1_
  6
CENTER1
 62
  152
 10
54.302538182421358
 20
99.531105945551474
 40
9
 50
270
 51
90
  0
LINE
  8
_0-1_
  6
CENTER1
 62
  152
 10
25.101052059635322
 20
7.9906848278087637
 11
59.101062059635296
 21
7.9906848278087637
  0
LINE
  8
_0-1_
  6
CONTINUOUS
 62
  152
 10
27.301052059635367
 20
26.240684827808764
 11
32.301052059635367
 21
26.240684827808764
  0
LINE
  8
_0-1_
  6
CONTINUOUS
 62
  152
 10
32.301052059635367
 20
31.740684827808764
 11
27.301052059635367
 21
31.740684827808764
  0
LINE
  8
_0-1_
  6
CENTER1
 62
  152
 10
25.101052059635322
 20
28.990684827808764
 11
59.101062059635296
 21
28.990684827808764
  0
ARC
  8
_0-1_
  6
CENTER1
 62
  152
 10
25.101052059635322
 20
18.490684827808764
 40
10.5
 50
90
 51
270
  0
ARC
  8
_0-1_
  6
CENTER1
 62
  152
 10
59.101062059635296
 20
18.490684827808764
 40
10.5
 50
270
 51
90
  0
ENDSEC
  0
EOF
