  0
SECTION
  2
HEADER
  9
$ACADVER
  1
AC1009
  9
$INSBASE
 10
0
 20
0
 30
0
  9
$EXTMIN
 10
0
 20
0
  9
$EXTMAX
 10
1189
 20
841
  9
$LIMMIN
 10
0
 20
0
  9
$LIMMAX
 10
1189
 20
841
  9
$LTSCALE
 40
1
  0
ENDSEC
  0
SECTION
  2
TABLES
  0
TABLE
  2
LTYPE
 70
     9
  0
LTYPE
  2
CONTINUOUS
 70
    64
  3
実線
 72
    65
 73
     0
 40
0.0
  0
LTYPE
  2
DASHED1
 70
    64
  3
--  --  --  --  --  --  --  --  
 72
    65
 73
     2
 40
2.5
 49
1.25
 49
-1.25
  0
LTYPE
  2
DASHED2
 70
    64
  3
----    ----    ----    ----    
 72
    65
 73
     2
 40
5.0
 49
2.5
 49
-2.5
  0
LTYPE
  2
DASHED3
 70
    64
  3
------  ------  ------  ------  
 72
    65
 73
     2
 40
5.0
 49
3.75
 49
-1.25
  0
LTYPE
  2
CENTER1
 70
    64
  3
----- - ----- - ----- - ----- - 
 72
    65
 73
     4
 40
10.0
 49
6.25
 49
-1.25
 49
1.25
 49
-1.25
  0
LTYPE
  2
CENTER2
 70
    64
  3
----------  --  ----------  --  
 72
    65
 73
     4
 40
20.0
 49
12.5
 49
-2.5
 49
2.5
 49
-2.5
  0
LTYPE
  2
PHANTOM1
 70
    64
  3
--- - - --- - - --- - - --- - - 
 72
    65
 73
     6
 40
10.0
 49
3.25
 49
-1.25
 49
1.25
 49
-1.25
 49
1.25
 49
-1.25
  0
LTYPE
  2
PHANTOM2
 70
    64
  3
--------  -  -  --------  -  -  
 72
    65
 73
     6
 40
20.0
 49
10.0
 49
-2.5
 49
1.25
 49
-2.5
 49
1.25
 49
-2.5
  0
LTYPE
  2
DOT
 70
    64
  3
-   -   -   -   -   -   -   -   
 72
    65
 73
     2
 40
2.5
 49
0.625
 49
-1.875
  0
LTYPE
  2
DUMMY
 70
    64
  3
ダミー
 72
    65
 73
     0
 40
0.0
  0
LTYPE
  2
RAND1
 70
    64
  3
ランダム線1
 72
    65
 73
     4
 40
10.0
 49
1.0
 49
-2.0
 49
3.0
 49
-4.0
  0
LTYPE
  2
RAND2
 70
    64
  3
ランダム線2
 72
    65
 73
     4
 40
14.0
 49
2.0
 49
-3.0
 49
4.0
 49
-5.0
  0
LTYPE
  2
RAND3
 70
    64
  3
ランダム線3
 72
    65
 73
     4
 40
18.0
 49
3.0
 49
-4.0
 49
5.0
 49
-6.0
  0
LTYPE
  2
RAND4
 70
    64
  3
ランダム線4
 72
    65
 73
     4
 40
22.0
 49
4.0
 49
-5.0
 49
6.0
 49
-7.0
  0
LTYPE
  2
RAND5
 70
    64
  3
ランダム線5
 72
    65
 73
     4
 40
26.0
 49
5.0
 49
-6.0
 49
7.0
 49
-8.0
  0
LTYPE
  2
LONG1
 70
    64
  3
----------  --  ----------  --  
 72
    65
 73
     4
 40
40.0
 49
32.5
 49
-2.5
 49
2.5
 49
-2.5
  0
LTYPE
  2
LONG2
 70
    64
  3
--------  -  -  --------  -  -  
 72
    65
 73
     6
 40
40.0
 49
30.0
 49
-2.5
 49
1.25
 49
-2.5
 49
1.25
 49
-2.5
  0
LTYPE
  2
LONG3
 70
    64
  3
+++++++++++++++..+++++++++++++++
 72
    65
 73
     2
 40
40.0
 49
37.5
 49
-2.5
  0
LTYPE
  2
LONG4
 70
    64
  3
+++++++++++++++..+++++++++++++++
 72
    65
 73
     2
 40
80.0
 49
75.0
 49
-5.0
  0
LTYPE
  2
LONG5
 70
    64
  3
----------  --  ----------  --  
 72
    65
 73
     4
 40
60.0
 49
37.5
 49
-7.5
 49
7.5
 49
-7.5
  0
LTYPE
  2
dashed
 70
   64
  3
-------   -------------   ------
 72
   65
 73
    2
 40
7.5
 49
6
 49
-1.5
  0
LTYPE
  2
dashed_spaced
 70
   64
  3
----        --------        ----
 72
   65
 73
    2
 40
12
 49
6
 49
-6
  0
LTYPE
  2
long_dashed_dotted
 70
   64
  3
------------- --- --------------
 72
   65
 73
    4
 40
15.25
 49
12
 49
-1.5
 49
0.25
 49
-1.5
  0
LTYPE
  2
long_dashed_double-dotted
 70
   64
  3
----------- --- --- ------------
 72
   65
 73
    6
 40
17
 49
12
 49
-1.5
 49
0.25
 49
-1.5
 49
0.25
 49
-1.5
  0
LTYPE
  2
long_dashed_triplicate-dotted
 70
   64
  3
--------- --- --- --- ----------
 72
   65
 73
    8
 40
18.75
 49
12
 49
-1.5
 49
0.25
 49
-1.5
 49
0.25
 49
-1.5
 49
0.25
 49
-1.5
  0
LTYPE
  2
dotted
 70
   64
  3
   -       -       -       -    
 72
   65
 73
    2
 40
1.75
 49
0.25
 49
-1.5
  0
LTYPE
  2
chain
 70
   64
  3
-------------- -- --------------
 72
   65
 73
    4
 40
18.5
 49
12
 49
-1.5
 49
3.5
 49
-1.5
  0
LTYPE
  2
chain_double_dash
 70
   64
  3
------------ -- -- -------------
 72
   65
 73
    6
 40
23.5
 49
12
 49
-1.5
 49
3.5
 49
-1.5
 49
3.5
 49
-1.5
  0
LTYPE
  2
dashed_dotted
 70
   64
  3
-----------     -     ----------
 72
   65
 73
    4
 40
9.25
 49
6
 49
-1.5
 49
0.25
 49
-1.5
  0
LTYPE
  2
double-dashed_dotted
 70
   64
  3
------   -----------   -   -----
 72
   65
 73
    6
 40
16.75
 49
6
 49
-1.5
 49
6
 49
-1.5
 49
0.25
 49
-1.5
  0
LTYPE
  2
dashed_double-dotted
 70
   64
  3
---------    -    -    ---------
 72
   65
 73
    6
 40
11
 49
6
 49
-1.5
 49
0.25
 49
-1.5
 49
0.25
 49
-1.5
  0
LTYPE
  2
double-dashed_double-dotted
 70
   64
  3
-----   ---------   -   -   ----
 72
   65
 73
    8
 40
18.5
 49
6
 49
-1.5
 49
6
 49
-1.5
 49
0.25
 49
-1.5
 49
0.25
 49
-1.5
  0
LTYPE
  2
dashed_triplicate-dotted
 70
   64
  3
-------    -    -    -    ------
 72
   65
 73
    8
 40
12.75
 49
6
 49
-1.5
 49
0.25
 49
-1.5
 49
0.25
 49
-1.5
 49
0.25
 49
-1.5
  0
LTYPE
  2
double-dashed_triplicate-dotted
 70
   64
  3
-----  ---------  -  -  -  -----
 72
   65
 73
   10
 40
20.25
 49
6
 49
-1.5
 49
6
 49
-1.5
 49
0.25
 49
-1.5
 49
0.25
 49
-1.5
 49
0.25
 49
-1.5
  0
LTYPE
  2
undefined
 70
   64
  3
--------------------------------
 72
   65
 73
    0
 40
0
  0
ENDTAB
  0
TABLE
  2
STYLE
  5
3
100
AcDbSymbolTable
 70
     1
  0
STYLE
  5
10
100
AcDbSymbolTableRecord
100
AcDbTextStyleTableRecord
  2
STANDARD
 70
     0
 40
0.0
 41
1.0
 50
0.0
 71
     0
 42
0.2
  3
txt
  4
bigfont.shx
  0
STYLE
  5
26
100
AcDbSymbolTableRecord
100
AcDbTextStyleTableRecord
  2
TATEGAKI
 70
    68
 40
0.0
 41
1.0
 50
0.0
 71
     0
 42
1.0
  3
txt
  4
bigfont.shx
  0
ENDTAB
  0
TABLE
  2
LAYER
 70
    3
  0
LAYER
  2
_0-0_
 70
   64
 62
    7
  6
CONTINUOUS
  0
LAYER
  2
_0-1_
 70
   64
 62
    7
  6
CONTINUOUS
  0
LAYER
  2
ADD_LINE
 70
   64
 62
    7
  6
CONTINUOUS
  0
ENDTAB
  0
ENDSEC
  0
SECTION
  2
BLOCKS
  0
ENDSEC
  0
SECTION
  2
ENTITIES
  0
LINE
  8
_0-0_
  6
CONTINUOUS
 62
    7
 10
30.663780254834251
 20
47.816298056498397
 11
30.663780254834251
 21
43.416298056498306
  0
LINE
  8
_0-0_
  6
CONTINUOUS
 62
    7
 10
30.363780254834523
 20
43.116298056498124
 11
28.213780254834433
 21
43.116298056498124
  0
LINE
  8
_0-0_
  6
CONTINUOUS
 62
    7
 10
27.913780254834251
 20
42.816298056498397
 11
27.913780254834251
 21
41.216298056498488
  0
LINE
  8
_0-0_
  6
CONTINUOUS
 62
    7
 10
27.613780254834523
 20
40.916298056498306
 11
27.097443748823821
 21
40.916298056498306
  0
LINE
  8
_0-0_
  6
CONTINUOUS
 62
    7
 10
26.614480835679274
 20
40.54570757904952
 11
26.101807867329967
 21
38.63238601350298
  0
LINE
  8
_0-0_
  6
CONTINUOUS
 62
    7
 10
26.13177799408129
 20
38.404740299971706
 11
26.673587875969929
 21
37.466298056498488
  0
LINE
  8
_0-0_
  6
CONTINUOUS
 62
    7
 10
26.563780254834342
 20
37.056490435363173
 11
26.044165012563894
 21
36.756490435362991
  0
LINE
  8
_0-0_
  6
CONTINUOUS
 62
    7
 10
25.63435739142858
 20
36.866298056498124
 11
25.092547509539941
 21
37.804740299972252
  0
LINE
  8
_0-0_
  6
CONTINUOUS
 62
    7
 10
24.942696875783327
 20
38.942968867625893
 11
25.758312692199411
 21
41.98688853394691
  0
LINE
  8
_0-0_
  6
CONTINUOUS
 62
    7
 10
25.275349779054864
 20
42.616298056498124
 11
20.552210730614092
 21
42.616298056498124
  0
LINE
  8
_0-0_
  6
CONTINUOUS
 62
    7
 10
20.069247817469545
 20
41.98688853394691
 11
20.884863633885629
 21
38.942968867625893
  0
LINE
  8
_0-0_
  6
CONTINUOUS
 62
    7
 10
20.735013000129015
 20
37.804740299972252
 11
20.193203118240376
 21
36.866298056498124
  0
LINE
  8
_0-0_
  6
CONTINUOUS
 62
    7
 10
19.783395497105062
 20
36.756490435362991
 11
19.263780254834614
 21
37.056490435363173
  0
LINE
  8
_0-0_
  6
CONTINUOUS
 62
    7
 10
19.153972633699027
 20
37.466298056498488
 11
19.695782515587666
 21
38.404740299971706
  0
LINE
  8
_0-0_
  6
CONTINUOUS
 62
    7
 10
19.725752642338989
 20
38.63238601350298
 11
19.213079673989682
 21
40.54570757904952
  0
LINE
  8
_0-0_
  6
CONTINUOUS
 62
    7
 10
18.730116760845135
 20
40.916298056498306
 11
18.213780254834433
 21
40.916298056498306
  0
LINE
  8
_0-0_
  6
CONTINUOUS
 62
    7
 10
17.913780254834251
 20
41.216298056498488
 11
17.913780254834251
 21
42.816298056498397
  0
LINE
  8
_0-0_
  6
CONTINUOUS
 62
    7
 10
17.613780254834523
 20
43.116298056498124
 11
15.463780254834433
 21
43.116298056498124
  0
LINE
  8
_0-0_
  6
CONTINUOUS
 62
    7
 10
15.163780254834251
 20
43.416298056498306
 11
15.163780254834251
 21
47.816298056498397
  0
LINE
  8
_0-0_
  6
CONTINUOUS
 62
    7
 10
15.463780254834433
 20
48.116298056498124
 11
16.363780254834523
 21
48.116298056498124
  0
LINE
  8
_0-0_
  6
CONTINUOUS
 62
    7
 10
16.663780254834251
 20
47.816298056498397
 11
16.663780254834251
 21
44.816298056498397
  0
LINE
  8
_0-0_
  6
CONTINUOUS
 62
    7
 10
17.62203782433005
 20
44.616298056498124
 11
21.205522685338906
 21
44.616298056498124
  0
LINE
  8
_0-0_
  6
CONTINUOUS
 62
    7
 10
22.163780254834251
 20
44.816298056498397
 11
22.163780254834251
 21
47.816298056498397
  0
LINE
  8
_0-0_
  6
CONTINUOUS
 62
    7
 10
22.463780254834433
 20
48.116298056498124
 11
23.363780254834523
 21
48.116298056498124
  0
LINE
  8
_0-0_
  6
CONTINUOUS
 62
    7
 10
23.663780254834251
 20
47.816298056498397
 11
23.663780254834251
 21
44.816298056498397
  0
LINE
  8
_0-0_
  6
CONTINUOUS
 62
    7
 10
24.62203782433005
 20
44.616298056498124
 11
28.205522685338906
 21
44.616298056498124
  0
LINE
  8
_0-0_
  6
CONTINUOUS
 62
    7
 10
29.163780254834251
 20
44.816298056498397
 11
29.163780254834251
 21
47.816298056498397
  0
LINE
  8
_0-0_
  6
CONTINUOUS
 62
    7
 10
29.463780254834433
 20
48.116298056498124
 11
30.363780254834523
 21
48.116298056498124
  0
ARC
  8
_0-0_
  6
CONTINUOUS
 62
    7
 10
26.413780254834251
 20
37.316298056498397
 40
0.2999999999999999
 50
300.00000000000512
 51
29.99999999999568
  0
ARC
  8
_0-0_
  6
CONTINUOUS
 62
    7
 10
28.663780254834251
 20
44.816298056498397
 40
0.5
 50
203.57817847820181
 51
0
  0
ARC
  8
_0-0_
  6
CONTINUOUS
 62
    7
 10
25.894165012563803
 20
37.01629805649867
 40
0.2999999999999999
 50
210.00000000000003
 51
300
  0
ARC
  8
_0-0_
  6
CONTINUOUS
 62
    7
 10
24.163780254834251
 20
44.816298056498397
 40
0.5
 50
180
 51
336.42182152179822
  0
ARC
  8
_0-0_
  6
CONTINUOUS
 62
    7
 10
25.275349779054864
 20
42.116298056498124
 40
0.5
 50
345
 51
90.000000000000085
  0
ARC
  8
_0-0_
  6
CONTINUOUS
 62
    7
 10
26.391585615216968
 20
38.554740299972252
 40
1.5
 50
164.99999999999997
 51
210.00000000000003
  0
ARC
  8
_0-0_
  6
CONTINUOUS
 62
    7
 10
26.391585615216968
 20
38.554740299972252
 40
0.2999999999999999
 50
165.00000000000003
 51
210.00000000000003
  0
ARC
  8
_0-0_
  6
CONTINUOUS
 62
    7
 10
27.613780254834523
 20
41.216298056498488
 40
0.2999999999999999
 50
270
 51
0
  0
ARC
  8
_0-0_
  6
CONTINUOUS
 62
    7
 10
28.213780254834433
 20
42.816298056498397
 40
0.2999999999999999
 50
90
 51
180
  0
ARC
  8
_0-0_
  6
CONTINUOUS
 62
    7
 10
30.363780254834523
 20
43.416298056498306
 40
0.2999999999999999
 50
270
 51
0
  0
ARC
  8
_0-0_
  6
CONTINUOUS
 62
    7
 10
30.363780254834523
 20
47.816298056498397
 40
0.2999999999999999
 50
0
 51
90
  0
ARC
  8
_0-0_
  6
CONTINUOUS
 62
    7
 10
29.463780254834433
 20
47.816298056498397
 40
0.2999999999999999
 50
90
 51
180
  0
ARC
  8
_0-0_
  6
CONTINUOUS
 62
    7
 10
23.363780254834523
 20
47.816298056498397
 40
0.2999999999999999
 50
0
 51
90.000000000000028
  0
ARC
  8
_0-0_
  6
CONTINUOUS
 62
    7
 10
17.163780254834251
 20
44.816298056498397
 40
0.5
 50
180.00000000000006
 51
336.42182152179822
  0
ARC
  8
_0-0_
  6
CONTINUOUS
 62
    7
 10
19.933395497105153
 20
37.01629805649867
 40
0.2999999999999999
 50
240
 51
330
  0
ARC
  8
_0-0_
  6
CONTINUOUS
 62
    7
 10
21.663780254834251
 20
44.816298056498397
 40
0.5
 50
203.57817847820178
 51
0
  0
ARC
  8
_0-0_
  6
CONTINUOUS
 62
    7
 10
20.552210730614092
 20
42.116298056498124
 40
0.5
 50
89.999999999999929
 51
194.99999999999994
  0
ARC
  8
_0-0_
  6
CONTINUOUS
 62
    7
 10
19.435974894451988
 20
38.554740299972252
 40
1.5
 50
330
 51
15.000000000000041
  0
ARC
  8
_0-0_
  6
CONTINUOUS
 62
    7
 10
19.435974894451988
 20
38.554740299972252
 40
0.2999999999999999
 50
330
 51
14.999999999999982
  0
ARC
  8
_0-0_
  6
CONTINUOUS
 62
    7
 10
18.213780254834433
 20
41.216298056498488
 40
0.2999999999999999
 50
180
 51
270
  0
ARC
  8
_0-0_
  6
CONTINUOUS
 62
    7
 10
17.613780254834523
 20
42.816298056498397
 40
0.2999999999999999
 50
0
 51
90
  0
ARC
  8
_0-0_
  6
CONTINUOUS
 62
    7
 10
15.463780254834433
 20
43.416298056498306
 40
0.2999999999999999
 50
180
 51
270
  0
ARC
  8
_0-0_
  6
CONTINUOUS
 62
    7
 10
15.463780254834433
 20
47.816298056498397
 40
0.2999999999999999
 50
90
 51
180
  0
ARC
  8
_0-0_
  6
CONTINUOUS
 62
    7
 10
16.363780254834523
 20
47.816298056498397
 40
0.2999999999999999
 50
0
 51
90
  0
ARC
  8
_0-0_
  6
CONTINUOUS
 62
    7
 10
22.463780254834433
 20
47.816298056498397
 40
0.2999999999999999
 50
89.999999999999986
 51
180
  0
ARC
  8
_0-0_
  6
CONTINUOUS
 62
    7
 10
19.413780254834251
 20
37.316298056498397
 40
0.2999999999999999
 50
149.99999999999994
 51
240.00000000000003
  0
ARC
  8
_0-0_
  6
CONTINUOUS
 62
    7
 10
18.730116760845135
 20
40.416298056498306
 40
0.5
 50
14.999999999999982
 51
90.000000000000057
  0
ARC
  8
_0-0_
  6
CONTINUOUS
 62
    7
 10
27.097443748823821
 20
40.416298056498306
 40
0.5
 50
90
 51
165.00000000000003
  0
LINE
  8
_0-0_
  6
CONTINUOUS
 62
    7
 10
17.813780254834114
 20
40.716298056192443
 11
17.313780254834114
 21
39.691146135402448
  0
LINE
  8
_0-0_
  6
CONTINUOUS
 62
    7
 10
17.313780254834114
 20
39.691146135402448
 11
17.313780254834114
 21
36.951510745297981
  0
LINE
  8
_0-0_
  6
CONTINUOUS
 62
    7
 10
17.313780254834114
 20
36.951510745297981
 11
18.01378025483416
 21
35.51629805619217
  0
LINE
  8
_0-0_
  6
CONTINUOUS
 62
    7
 10
18.01378025483416
 20
35.51629805619217
 11
18.01378025483416
 21
34.416298056192261
  0
LINE
  8
_0-0_
  6
CONTINUOUS
 62
    7
 10
18.613780254834296
 20
34.416298056192261
 11
19.213780254834205
 21
35.01629805619217
  0
LINE
  8
_0-0_
  6
CONTINUOUS
 62
    7
 10
19.213780254834205
 20
35.01629805619217
 11
19.213780254834205
 21
37.316298056192352
  0
LINE
  8
_0-0_
  6
CONTINUOUS
 62
    7
 10
19.213780254834205
 20
37.316298056192352
 11
19.828843764295357
 21
37.931361565653276
  0
LINE
  8
_0-0_
  6
CONTINUOUS
 62
    7
 10
19.828843764295357
 20
37.931361565653276
 11
18.913780254834251
 21
39.51629805619217
  0
LINE
  8
_0-0_
  6
CONTINUOUS
 62
    7
 10
18.913780254834251
 20
39.51629805619217
 11
18.913780254834251
 21
40.716298056192443
  0
LINE
  8
_0-0_
  6
CONTINUOUS
 62
    7
 10
18.913780254834251
 20
40.716298056192443
 11
17.813780254834114
 21
40.716298056192443
  0
LINE
  8
_0-0_
  6
CONTINUOUS
 62
    7
 10
19.313780254834114
 20
33.716298056192443
 11
20.213780254834205
 21
34.616298056192079
  0
LINE
  8
_0-0_
  6
CONTINUOUS
 62
    7
 10
20.213780254834205
 20
34.616298056192079
 11
25.613780254834296
 21
34.616298056192079
  0
LINE
  8
_0-0_
  6
CONTINUOUS
 62
    7
 10
25.613780254834296
 20
34.616298056192079
 11
26.51378025483416
 21
33.716298056192443
  0
LINE
  8
_0-0_
  6
CONTINUOUS
 62
    7
 10
26.51378025483416
 20
33.116298056192079
 11
19.313780254834114
 21
33.116298056192079
  0
LINE
  8
_0-0_
  6
CONTINUOUS
 62
    7
 10
26.613780254834296
 20
35.01629805619217
 11
27.213780254834205
 21
34.416298056192261
  0
LINE
  8
_0-0_
  6
CONTINUOUS
 62
    7
 10
27.813780254834114
 20
34.416298056192261
 11
27.813780254834114
 21
35.51629805619217
  0
LINE
  8
_0-0_
  6
CONTINUOUS
 62
    7
 10
27.813780254834114
 20
35.51629805619217
 11
28.51378025483416
 21
36.951510745297981
  0
LINE
  8
_0-0_
  6
CONTINUOUS
 62
    7
 10
28.51378025483416
 20
36.951510745297981
 11
28.51378025483416
 21
39.691146135402448
  0
LINE
  8
_0-0_
  6
CONTINUOUS
 62
    7
 10
28.51378025483416
 20
39.691146135402448
 11
28.01378025483416
 21
40.716298056192443
  0
LINE
  8
_0-0_
  6
CONTINUOUS
 62
    7
 10
28.01378025483416
 20
40.716298056192443
 11
26.913780254834251
 21
40.716298056192443
  0
LINE
  8
_0-0_
  6
CONTINUOUS
 62
    7
 10
26.913780254834251
 20
40.716298056192443
 11
26.913780254834251
 21
39.51629805619217
  0
LINE
  8
_0-0_
  6
CONTINUOUS
 62
    7
 10
26.913780254834251
 20
39.51629805619217
 11
25.998716745373144
 21
37.931361565653276
  0
LINE
  8
_0-0_
  6
CONTINUOUS
 62
    7
 10
25.998716745373144
 20
37.931361565653276
 11
26.613780254834296
 21
37.316298056192352
  0
LINE
  8
_0-0_
  6
CONTINUOUS
 62
    7
 10
26.613780254834296
 20
37.316298056192352
 11
26.613780254834296
 21
35.01629805619217
  0
ARC
  8
_0-0_
  6
CONTINUOUS
 62
    7
 10
19.313780254834114
 20
34.416298056192261
 40
1.3000000000000007
 50
180
 51
270
  0
ARC
  8
_0-0_
  6
CONTINUOUS
 62
    7
 10
19.313780254834114
 20
34.416298056192261
 40
0.7000000000000009
 50
180
 51
270
  0
ARC
  8
_0-0_
  6
CONTINUOUS
 62
    7
 10
26.51378025483416
 20
34.416298056192261
 40
1.2999999999999998
 50
270
 51
0
  0
ARC
  8
_0-0_
  6
CONTINUOUS
 62
    7
 10
26.51378025483416
 20
34.416298056192261
 40
0.7
 50
270
 51
0
  0
LINE
  8
_0-0_
  6
CONTINUOUS
 62
    7
 10
30.363780254834523
 20
123.11629805649812
 11
29.463780254834433
 21
123.11629805649812
  0
LINE
  8
_0-0_
  6
CONTINUOUS
 62
    7
 10
29.163780254834251
 20
123.41629805649831
 11
29.163780254834251
 21
131.41629805649831
  0
LINE
  8
_0-0_
  6
CONTINUOUS
 62
    7
 10
28.205522685338906
 20
131.61629805649812
 11
24.62203782433005
 21
131.61629805649812
  0
LINE
  8
_0-0_
  6
CONTINUOUS
 62
    7
 10
23.663780254834251
 20
131.41629805649831
 11
23.663780254834251
 21
123.41629805649831
  0
LINE
  8
_0-0_
  6
CONTINUOUS
 62
    7
 10
23.363780254834523
 20
123.11629805649812
 11
22.463780254834433
 21
123.11629805649812
  0
LINE
  8
_0-0_
  6
CONTINUOUS
 62
    7
 10
22.163780254834251
 20
123.41629805649831
 11
22.163780254834251
 21
131.41629805649831
  0
LINE
  8
_0-0_
  6
CONTINUOUS
 62
    7
 10
21.205522685338906
 20
131.61629805649812
 11
17.62203782433005
 21
131.61629805649812
  0
LINE
  8
_0-0_
  6
CONTINUOUS
 62
    7
 10
16.663780254834251
 20
131.41629805649831
 11
16.663780254834251
 21
123.41629805649831
  0
LINE
  8
_0-0_
  6
CONTINUOUS
 62
    7
 10
16.363780254834523
 20
123.11629805649812
 11
15.463780254834433
 21
123.11629805649812
  0
LINE
  8
_0-0_
  6
CONTINUOUS
 62
    7
 10
15.163780254834251
 20
123.41629805649831
 11
15.163780254834251
 21
132.81629805649794
  0
LINE
  8
_0-0_
  6
CONTINUOUS
 62
    7
 10
15.463780254834433
 20
133.11629805649812
 11
17.613780254834523
 21
133.11629805649812
  0
LINE
  8
_0-0_
  6
CONTINUOUS
 62
    7
 10
17.913780254834251
 20
133.41629805649831
 11
17.913780254834251
 21
135.01629805649776
  0
LINE
  8
_0-0_
  6
CONTINUOUS
 62
    7
 10
18.213780254834433
 20
135.31629805649794
 11
18.730116760845135
 21
135.31629805649794
  0
LINE
  8
_0-0_
  6
CONTINUOUS
 62
    7
 10
19.213079673989682
 20
135.68688853394673
 11
19.725752642338989
 21
137.60021009949372
  0
LINE
  8
_0-0_
  6
CONTINUOUS
 62
    7
 10
19.695782515587666
 20
137.82785581302454
 11
19.153972633699027
 21
138.76629805649776
  0
LINE
  8
_0-0_
  6
CONTINUOUS
 62
    7
 10
19.263780254834614
 20
139.17610567763353
 11
19.783395497105062
 21
139.47610567763326
  0
LINE
  8
_0-0_
  6
CONTINUOUS
 62
    7
 10
20.193203118240376
 20
139.36629805649812
 11
20.735013000129015
 21
138.42785581302445
  0
LINE
  8
_0-0_
  6
CONTINUOUS
 62
    7
 10
20.884863633885629
 20
137.28962724537035
 11
20.069247817469545
 21
134.24570757904934
  0
LINE
  8
_0-0_
  6
CONTINUOUS
 62
    7
 10
20.552210730614092
 20
133.61629805649812
 11
25.275349779054864
 21
133.61629805649812
  0
LINE
  8
_0-0_
  6
CONTINUOUS
 62
    7
 10
25.758312692199411
 20
134.24570757904934
 11
24.942696875783327
 21
137.28962724537035
  0
LINE
  8
_0-0_
  6
CONTINUOUS
 62
    7
 10
25.092547509539941
 20
138.42785581302445
 11
25.63435739142858
 21
139.36629805649812
  0
LINE
  8
_0-0_
  6
CONTINUOUS
 62
    7
 10
26.044165012563894
 20
139.47610567763326
 11
26.563780254834342
 21
139.17610567763353
  0
LINE
  8
_0-0_
  6
CONTINUOUS
 62
    7
 10
26.673587875969929
 20
138.76629805649776
 11
26.13177799408129
 21
137.82785581302454
  0
LINE
  8
_0-0_
  6
CONTINUOUS
 62
    7
 10
26.101807867329967
 20
137.60021009949372
 11
26.614480835679274
 21
135.68688853394673
  0
LINE
  8
_0-0_
  6
CONTINUOUS
 62
    7
 10
27.097443748823821
 20
135.31629805649794
 11
27.613780254834523
 21
135.31629805649794
  0
LINE
  8
_0-0_
  6
CONTINUOUS
 62
    7
 10
27.913780254834251
 20
135.01629805649776
 11
27.913780254834251
 21
133.41629805649831
  0
LINE
  8
_0-0_
  6
CONTINUOUS
 62
    7
 10
28.213780254834433
 20
133.11629805649812
 11
30.363780254834523
 21
133.11629805649812
  0
LINE
  8
_0-0_
  6
CONTINUOUS
 62
    7
 10
30.663780254834251
 20
132.81629805649794
 11
30.663780254834251
 21
123.41629805649831
  0
ARC
  8
_0-0_
  6
CONTINUOUS
 62
    7
 10
17.163780254834251
 20
131.41629805649831
 40
0.4999999999999997
 50
23.578178478201796
 51
180
  0
ARC
  8
_0-0_
  6
CONTINUOUS
 62
    7
 10
21.663780254834251
 20
131.41629805649831
 40
0.4999999999999997
 50
0.0000000000000254
 51
156.42182152179822
  0
ARC
  8
_0-0_
  6
CONTINUOUS
 62
    7
 10
19.435974894451988
 20
137.67785581302445
 40
1.5
 50
344.99999999999989
 51
29.999999999999858
  0
ARC
  8
_0-0_
  6
CONTINUOUS
 62
    7
 10
20.552210730614092
 20
134.11629805649812
 40
0.5
 50
165.00000000000003
 51
270.00000000000006
  0
ARC
  8
_0-0_
  6
CONTINUOUS
 62
    7
 10
19.933395497105153
 20
139.21629805649803
 40
0.2999999999999999
 50
29.99999999999994
 51
119.99999999999997
  0
ARC
  8
_0-0_
  6
CONTINUOUS
 62
    7
 10
19.413780254834251
 20
138.91629805649831
 40
0.2999999999999999
 50
120.00000000000001
 51
209.99999999999997
  0
ARC
  8
_0-0_
  6
CONTINUOUS
 62
    7
 10
19.435974894451988
 20
137.67785581302445
 40
0.2999999999999999
 50
345
 51
29.999999999999961
  0
ARC
  8
_0-0_
  6
CONTINUOUS
 62
    7
 10
18.213780254834433
 20
135.01629805649776
 40
0.2999999999999999
 50
90
 51
180
  0
ARC
  8
_0-0_
  6
CONTINUOUS
 62
    7
 10
15.463780254834433
 20
132.81629805649794
 40
0.2999999999999999
 50
90
 51
180
  0
ARC
  8
_0-0_
  6
CONTINUOUS
 62
    7
 10
15.463780254834433
 20
123.41629805649831
 40
0.2999999999999999
 50
180
 51
270
  0
ARC
  8
_0-0_
  6
CONTINUOUS
 62
    7
 10
16.363780254834523
 20
123.41629805649831
 40
0.2999999999999999
 50
270
 51
0
  0
ARC
  8
_0-0_
  6
CONTINUOUS
 62
    7
 10
22.463780254834433
 20
123.41629805649831
 40
0.2999999999999999
 50
180
 51
270
  0
ARC
  8
_0-0_
  6
CONTINUOUS
 62
    7
 10
17.613780254834523
 20
133.41629805649831
 40
0.2999999999999999
 50
270
 51
0
  0
ARC
  8
_0-0_
  6
CONTINUOUS
 62
    7
 10
18.730116760845135
 20
135.81629805649794
 40
0.5
 50
270
 51
345
  0
ARC
  8
_0-0_
  6
CONTINUOUS
 62
    7
 10
28.663780254834251
 20
131.41629805649831
 40
0.4999999999999997
 50
0.0000000000000254
 51
156.42182152179822
  0
ARC
  8
_0-0_
  6
CONTINUOUS
 62
    7
 10
24.163780254834251
 20
131.41629805649831
 40
0.4999999999999997
 50
23.578178478201771
 51
179.99999999999997
  0
ARC
  8
_0-0_
  6
CONTINUOUS
 62
    7
 10
26.391585615216968
 20
137.67785581302445
 40
1.5
 50
150.00000000000009
 51
195.00000000000003
  0
ARC
  8
_0-0_
  6
CONTINUOUS
 62
    7
 10
25.275349779054864
 20
134.11629805649812
 40
0.5
 50
269.99999999999994
 51
14.99999999999997
  0
ARC
  8
_0-0_
  6
CONTINUOUS
 62
    7
 10
25.894165012563803
 20
139.21629805649803
 40
0.2999999999999999
 50
60.000000000000036
 51
150.00000000000003
  0
ARC
  8
_0-0_
  6
CONTINUOUS
 62
    7
 10
26.413780254834251
 20
138.91629805649831
 40
0.2999999999999999
 50
330.00000000000011
 51
60.000000000000021
  0
ARC
  8
_0-0_
  6
CONTINUOUS
 62
    7
 10
26.391585615216968
 20
137.67785581302445
 40
0.2999999999999999
 50
150.00000000000003
 51
194.99999999999997
  0
ARC
  8
_0-0_
  6
CONTINUOUS
 62
    7
 10
27.613780254834523
 20
135.01629805649776
 40
0.2999999999999999
 50
0
 51
90
  0
ARC
  8
_0-0_
  6
CONTINUOUS
 62
    7
 10
30.363780254834523
 20
132.81629805649794
 40
0.2999999999999999
 50
0
 51
90
  0
ARC
  8
_0-0_
  6
CONTINUOUS
 62
    7
 10
30.363780254834523
 20
123.41629805649831
 40
0.2999999999999999
 50
270
 51
0
  0
ARC
  8
_0-0_
  6
CONTINUOUS
 62
    7
 10
29.463780254834433
 20
123.41629805649831
 40
0.2999999999999999
 50
180
 51
270
  0
ARC
  8
_0-0_
  6
CONTINUOUS
 62
    7
 10
23.363780254834523
 20
123.41629805649831
 40
0.2999999999999999
 50
270
 51
0
  0
ARC
  8
_0-0_
  6
CONTINUOUS
 62
    7
 10
28.213780254834433
 20
133.41629805649831
 40
0.2999999999999999
 50
180
 51
270
  0
ARC
  8
_0-0_
  6
CONTINUOUS
 62
    7
 10
27.097443748823821
 20
135.81629805649794
 40
0.5
 50
194.99999999999997
 51
270
  0
LINE
  8
_0-0_
  6
CONTINUOUS
 62
    7
 10
28.013780254834387
 20
135.51629805680381
 11
28.513780254834387
 21
136.5414499775938
  0
LINE
  8
_0-0_
  6
CONTINUOUS
 62
    7
 10
28.513780254834387
 20
136.5414499775938
 11
28.513780254834387
 21
139.28108536769827
  0
LINE
  8
_0-0_
  6
CONTINUOUS
 62
    7
 10
28.513780254834387
 20
139.28108536769827
 11
27.813780254834342
 21
140.71629805680408
  0
LINE
  8
_0-0_
  6
CONTINUOUS
 62
    7
 10
27.813780254834342
 20
140.71629805680408
 11
27.813780254834342
 21
141.81629805680399
  0
LINE
  8
_0-0_
  6
CONTINUOUS
 62
    7
 10
27.213780254834205
 20
141.81629805680399
 11
26.613780254834296
 21
141.21629805680408
  0
LINE
  8
_0-0_
  6
CONTINUOUS
 62
    7
 10
26.613780254834296
 20
141.21629805680408
 11
26.613780254834296
 21
138.9162980568039
  0
LINE
  8
_0-0_
  6
CONTINUOUS
 62
    7
 10
26.613780254834296
 20
138.9162980568039
 11
25.998716745373144
 21
138.30123454734297
  0
LINE
  8
_0-0_
  6
CONTINUOUS
 62
    7
 10
25.998716745373144
 20
138.30123454734297
 11
26.913780254834251
 21
136.71629805680408
  0
LINE
  8
_0-0_
  6
CONTINUOUS
 62
    7
 10
26.913780254834251
 20
136.71629805680408
 11
26.913780254834251
 21
135.51629805680381
  0
LINE
  8
_0-0_
  6
CONTINUOUS
 62
    7
 10
26.913780254834251
 20
135.51629805680381
 11
28.013780254834387
 21
135.51629805680381
  0
LINE
  8
_0-0_
  6
CONTINUOUS
 62
    7
 10
26.513780254834387
 20
142.51629805680381
 11
25.613780254834296
 21
141.61629805680417
  0
LINE
  8
_0-0_
  6
CONTINUOUS
 62
    7
 10
25.613780254834296
 20
141.61629805680417
 11
20.213780254834205
 21
141.61629805680417
  0
LINE
  8
_0-0_
  6
CONTINUOUS
 62
    7
 10
20.213780254834205
 20
141.61629805680417
 11
19.313780254834342
 21
142.51629805680381
  0
LINE
  8
_0-0_
  6
CONTINUOUS
 62
    7
 10
19.313780254834342
 20
143.11629805680417
 11
26.513780254834387
 21
143.11629805680417
  0
LINE
  8
_0-0_
  6
CONTINUOUS
 62
    7
 10
19.213780254834205
 20
141.21629805680408
 11
18.613780254834296
 21
141.81629805680399
  0
LINE
  8
_0-0_
  6
CONTINUOUS
 62
    7
 10
18.013780254834387
 20
141.81629805680399
 11
18.013780254834387
 21
140.71629805680408
  0
LINE
  8
_0-0_
  6
CONTINUOUS
 62
    7
 10
18.013780254834387
 20
140.71629805680408
 11
17.313780254834342
 21
139.28108536769827
  0
LINE
  8
_0-0_
  6
CONTINUOUS
 62
    7
 10
17.313780254834342
 20
139.28108536769827
 11
17.313780254834342
 21
136.5414499775938
  0
LINE
  8
_0-0_
  6
CONTINUOUS
 62
    7
 10
17.313780254834342
 20
136.5414499775938
 11
17.813780254834342
 21
135.51629805680381
  0
LINE
  8
_0-0_
  6
CONTINUOUS
 62
    7
 10
17.813780254834342
 20
135.51629805680381
 11
18.913780254834251
 21
135.51629805680381
  0
LINE
  8
_0-0_
  6
CONTINUOUS
 62
    7
 10
18.913780254834251
 20
135.51629805680381
 11
18.913780254834251
 21
136.71629805680408
  0
LINE
  8
_0-0_
  6
CONTINUOUS
 62
    7
 10
18.913780254834251
 20
136.71629805680408
 11
19.828843764295357
 21
138.30123454734297
  0
LINE
  8
_0-0_
  6
CONTINUOUS
 62
    7
 10
19.828843764295357
 20
138.30123454734297
 11
19.213780254834205
 21
138.9162980568039
  0
LINE
  8
_0-0_
  6
CONTINUOUS
 62
    7
 10
19.213780254834205
 20
138.9162980568039
 11
19.213780254834205
 21
141.21629805680408
  0
ARC
  8
_0-0_
  6
CONTINUOUS
 62
    7
 10
26.513780254834387
 20
141.81629805680399
 40
1.3000000000000007
 50
0
 51
90
  0
ARC
  8
_0-0_
  6
CONTINUOUS
 62
    7
 10
26.513780254834387
 20
141.81629805680399
 40
0.7000000000000009
 50
0
 51
90
  0
ARC
  8
_0-0_
  6
CONTINUOUS
 62
    7
 10
19.313780254834342
 20
141.81629805680399
 40
1.2999999999999998
 50
90
 51
180
  0
ARC
  8
_0-0_
  6
CONTINUOUS
 62
    7
 10
19.313780254834342
 20
141.81629805680399
 40
0.7
 50
90
 51
180
  0
LINE
  8
_0-1_
  6
CENTER2
 62
  152
 10
22.913780254834251
 20
28.116298056498124
 11
22.913780254834251
 21
18.116298056498124
  0
LINE
  8
_0-1_
  6
CENTER2
 62
  152
 10
17.913780254834251
 20
23.116298056498124
 11
27.913780254834251
 21
23.116298056498124
  0
TEXT
  8
_0-1_
 62
    7
 10
2.6121838314556953
 20
45.246329084424929
 40
5
 41
1
 50
0
  1
SG4D
  0
LINE
  8
_0-1_
  6
PHANTOM1
 62
  152
 10
42.913780254834251
 20
3.116298056498124
 11
42.913780254834251
 21
43.116298056498124
  0
LINE
  8
_0-1_
  6
PHANTOM1
 62
  152
 10
42.913780254834251
 20
43.116298056498124
 11
2.9137802548342506
 21
43.116298056498124
  0
LINE
  8
_0-1_
  6
PHANTOM1
 62
  152
 10
2.9137802548342506
 20
43.116298056498124
 11
2.9137802548342506
 21
3.116298056498124
  0
LINE
  8
_0-1_
  6
PHANTOM1
 62
  152
 10
2.9137802548342506
 20
3.116298056498124
 11
42.913780254834251
 21
3.116298056498124
  0
LINE
  8
_0-1_
  6
CENTER2
 62
  152
 10
27.913780254834251
 20
153.11629805649812
 11
17.913780254834251
 21
153.11629805649812
  0
LINE
  8
_0-1_
  6
CENTER2
 62
  152
 10
22.913780254834251
 20
158.11629805649812
 11
22.913780254834251
 21
148.11629805649812
  0
TEXT
  8
_0-1_
 62
    7
 10
3.1155853594418659
 20
123.40289116144049
 40
5
 41
1
 50
0
  1
SG4U
  0
LINE
  8
_0-1_
  6
PHANTOM1
 62
  152
 10
2.9137802548342506
 20
133.11629805649812
 11
42.913780254834251
 21
133.11629805649812
  0
LINE
  8
_0-1_
  6
PHANTOM1
 62
  152
 10
2.9137802548342506
 20
173.11629805649812
 11
2.9137802548342506
 21
133.11629805649812
  0
LINE
  8
_0-1_
  6
PHANTOM1
 62
  152
 10
42.913780254834251
 20
173.11629805649812
 11
2.9137802548342506
 21
173.11629805649812
  0
LINE
  8
_0-1_
  6
PHANTOM1
 62
  152
 10
42.913780254834251
 20
133.11629805649812
 11
42.913780254834251
 21
173.11629805649812
  0
LINE
  8
_0-1_
  6
PHANTOM1
 62
  152
 10
16.913780254834478
 20
127.11629805649812
 11
21.913780254834478
 21
127.11629805649812
  0
LINE
  8
_0-1_
  6
PHANTOM1
 62
  152
 10
16.913780254834478
 20
44.616298056498124
 11
21.913780254834478
 21
44.616298056498124
  0
LINE
  8
_0-1_
  6
PHANTOM1
 62
  152
 10
23.913780254834478
 20
127.11629805649812
 11
28.913780254834478
 21
127.11629805649812
  0
LINE
  8
_0-1_
  6
PHANTOM1
 62
  152
 10
23.913780254834478
 20
44.616298056498124
 11
28.913780254834478
 21
44.616298056498124
  0
LINE
  8
_0-1_
  6
PHANTOM1
 62
  152
 10
16.548215782816897
 20
76.735855553722502
 11
22.265834108208992
 21
73.434787074433814
  0
LINE
  8
_0-1_
  6
PHANTOM1
 62
  152
 10
16.913780254834478
 20
76.524796807397024
 11
16.913780254834478
 21
44.616298056498124
  0
LINE
  8
_0-1_
  6
PHANTOM1
 62
  152
 10
21.913780254834478
 20
73.638045461448883
 11
21.913780254834478
 21
44.616298056498124
  0
LINE
  8
_0-1_
  6
PHANTOM1
 62
  152
 10
23.548215782816897
 20
76.735855553722502
 11
29.265834108208992
 21
73.434787074433814
  0
LINE
  8
_0-1_
  6
PHANTOM1
 62
  152
 10
23.913780254834478
 20
76.524796807397024
 11
23.913780254834478
 21
44.616298056498124
  0
LINE
  8
_0-1_
  6
PHANTOM1
 62
  152
 10
28.913780254834478
 20
73.638045461448883
 11
28.913780254834478
 21
44.616298056498124
  0
LINE
  8
_0-1_
  6
PHANTOM1
 62
  152
 10
16.548215782816897
 20
103.24635165689028
 11
22.265834108208992
 21
99.945283177601596
  0
LINE
  8
_0-1_
  6
PHANTOM1
 62
  152
 10
16.913780254834478
 20
127.11629805649812
 11
16.913780254834478
 21
103.03529291056481
  0
LINE
  8
_0-1_
  6
PHANTOM1
 62
  152
 10
21.913780254834478
 20
127.11629805649812
 11
21.913780254834478
 21
100.14854156461666
  0
LINE
  8
_0-1_
  6
PHANTOM1
 62
  152
 10
23.548215782816897
 20
103.24635165689028
 11
29.265834108208992
 21
99.945283177601596
  0
LINE
  8
_0-1_
  6
PHANTOM1
 62
  152
 10
23.913780254834478
 20
127.11629805649812
 11
23.913780254834478
 21
103.03529291056481
  0
LINE
  8
_0-1_
  6
PHANTOM1
 62
  152
 10
28.913780254834478
 20
127.11629805649812
 11
28.913780254834478
 21
100.14854156461666
  0
ENDSEC
  0
EOF
