  0
SECTION
  2
HEADER
  9
$ACADVER
  1
AC1009
  9
$INSBASE
 10
0
 20
0
 30
0
  9
$EXTMIN
 10
0
 20
0
  9
$EXTMAX
 10
1189
 20
841
  9
$LIMMIN
 10
0
 20
0
  9
$LIMMAX
 10
1189
 20
841
  9
$LTSCALE
 40
1
  0
ENDSEC
  0
SECTION
  2
TABLES
  0
TABLE
  2
LTYPE
 70
     9
  0
LTYPE
  2
CONTINUOUS
 70
    64
  3
実線
 72
    65
 73
     0
 40
0.0
  0
LTYPE
  2
DASHED1
 70
    64
  3
--  --  --  --  --  --  --  --  
 72
    65
 73
     2
 40
2.5
 49
1.25
 49
-1.25
  0
LTYPE
  2
DASHED2
 70
    64
  3
----    ----    ----    ----    
 72
    65
 73
     2
 40
5.0
 49
2.5
 49
-2.5
  0
LTYPE
  2
DASHED3
 70
    64
  3
------  ------  ------  ------  
 72
    65
 73
     2
 40
5.0
 49
3.75
 49
-1.25
  0
LTYPE
  2
CENTER1
 70
    64
  3
----- - ----- - ----- - ----- - 
 72
    65
 73
     4
 40
10.0
 49
6.25
 49
-1.25
 49
1.25
 49
-1.25
  0
LTYPE
  2
CENTER2
 70
    64
  3
----------  --  ----------  --  
 72
    65
 73
     4
 40
20.0
 49
12.5
 49
-2.5
 49
2.5
 49
-2.5
  0
LTYPE
  2
PHANTOM1
 70
    64
  3
--- - - --- - - --- - - --- - - 
 72
    65
 73
     6
 40
10.0
 49
3.25
 49
-1.25
 49
1.25
 49
-1.25
 49
1.25
 49
-1.25
  0
LTYPE
  2
PHANTOM2
 70
    64
  3
--------  -  -  --------  -  -  
 72
    65
 73
     6
 40
20.0
 49
10.0
 49
-2.5
 49
1.25
 49
-2.5
 49
1.25
 49
-2.5
  0
LTYPE
  2
DOT
 70
    64
  3
-   -   -   -   -   -   -   -   
 72
    65
 73
     2
 40
2.5
 49
0.625
 49
-1.875
  0
LTYPE
  2
DUMMY
 70
    64
  3
ダミー
 72
    65
 73
     0
 40
0.0
  0
LTYPE
  2
RAND1
 70
    64
  3
ランダム線1
 72
    65
 73
     4
 40
10.0
 49
1.0
 49
-2.0
 49
3.0
 49
-4.0
  0
LTYPE
  2
RAND2
 70
    64
  3
ランダム線2
 72
    65
 73
     4
 40
14.0
 49
2.0
 49
-3.0
 49
4.0
 49
-5.0
  0
LTYPE
  2
RAND3
 70
    64
  3
ランダム線3
 72
    65
 73
     4
 40
18.0
 49
3.0
 49
-4.0
 49
5.0
 49
-6.0
  0
LTYPE
  2
RAND4
 70
    64
  3
ランダム線4
 72
    65
 73
     4
 40
22.0
 49
4.0
 49
-5.0
 49
6.0
 49
-7.0
  0
LTYPE
  2
RAND5
 70
    64
  3
ランダム線5
 72
    65
 73
     4
 40
26.0
 49
5.0
 49
-6.0
 49
7.0
 49
-8.0
  0
LTYPE
  2
LONG1
 70
    64
  3
----------  --  ----------  --  
 72
    65
 73
     4
 40
40.0
 49
32.5
 49
-2.5
 49
2.5
 49
-2.5
  0
LTYPE
  2
LONG2
 70
    64
  3
--------  -  -  --------  -  -  
 72
    65
 73
     6
 40
40.0
 49
30.0
 49
-2.5
 49
1.25
 49
-2.5
 49
1.25
 49
-2.5
  0
LTYPE
  2
LONG3
 70
    64
  3
+++++++++++++++..+++++++++++++++
 72
    65
 73
     2
 40
40.0
 49
37.5
 49
-2.5
  0
LTYPE
  2
LONG4
 70
    64
  3
+++++++++++++++..+++++++++++++++
 72
    65
 73
     2
 40
80.0
 49
75.0
 49
-5.0
  0
LTYPE
  2
LONG5
 70
    64
  3
----------  --  ----------  --  
 72
    65
 73
     4
 40
60.0
 49
37.5
 49
-7.5
 49
7.5
 49
-7.5
  0
LTYPE
  2
dashed
 70
   64
  3
-------   -------------   ------
 72
   65
 73
    2
 40
7.5
 49
6
 49
-1.5
  0
LTYPE
  2
dashed_spaced
 70
   64
  3
----        --------        ----
 72
   65
 73
    2
 40
12
 49
6
 49
-6
  0
LTYPE
  2
long_dashed_dotted
 70
   64
  3
------------- --- --------------
 72
   65
 73
    4
 40
15.25
 49
12
 49
-1.5
 49
0.25
 49
-1.5
  0
LTYPE
  2
long_dashed_double-dotted
 70
   64
  3
----------- --- --- ------------
 72
   65
 73
    6
 40
17
 49
12
 49
-1.5
 49
0.25
 49
-1.5
 49
0.25
 49
-1.5
  0
LTYPE
  2
long_dashed_triplicate-dotted
 70
   64
  3
--------- --- --- --- ----------
 72
   65
 73
    8
 40
18.75
 49
12
 49
-1.5
 49
0.25
 49
-1.5
 49
0.25
 49
-1.5
 49
0.25
 49
-1.5
  0
LTYPE
  2
dotted
 70
   64
  3
   -       -       -       -    
 72
   65
 73
    2
 40
1.75
 49
0.25
 49
-1.5
  0
LTYPE
  2
chain
 70
   64
  3
-------------- -- --------------
 72
   65
 73
    4
 40
18.5
 49
12
 49
-1.5
 49
3.5
 49
-1.5
  0
LTYPE
  2
chain_double_dash
 70
   64
  3
------------ -- -- -------------
 72
   65
 73
    6
 40
23.5
 49
12
 49
-1.5
 49
3.5
 49
-1.5
 49
3.5
 49
-1.5
  0
LTYPE
  2
dashed_dotted
 70
   64
  3
-----------     -     ----------
 72
   65
 73
    4
 40
9.25
 49
6
 49
-1.5
 49
0.25
 49
-1.5
  0
LTYPE
  2
double-dashed_dotted
 70
   64
  3
------   -----------   -   -----
 72
   65
 73
    6
 40
16.75
 49
6
 49
-1.5
 49
6
 49
-1.5
 49
0.25
 49
-1.5
  0
LTYPE
  2
dashed_double-dotted
 70
   64
  3
---------    -    -    ---------
 72
   65
 73
    6
 40
11
 49
6
 49
-1.5
 49
0.25
 49
-1.5
 49
0.25
 49
-1.5
  0
LTYPE
  2
double-dashed_double-dotted
 70
   64
  3
-----   ---------   -   -   ----
 72
   65
 73
    8
 40
18.5
 49
6
 49
-1.5
 49
6
 49
-1.5
 49
0.25
 49
-1.5
 49
0.25
 49
-1.5
  0
LTYPE
  2
dashed_triplicate-dotted
 70
   64
  3
-------    -    -    -    ------
 72
   65
 73
    8
 40
12.75
 49
6
 49
-1.5
 49
0.25
 49
-1.5
 49
0.25
 49
-1.5
 49
0.25
 49
-1.5
  0
LTYPE
  2
double-dashed_triplicate-dotted
 70
   64
  3
-----  ---------  -  -  -  -----
 72
   65
 73
   10
 40
20.25
 49
6
 49
-1.5
 49
6
 49
-1.5
 49
0.25
 49
-1.5
 49
0.25
 49
-1.5
 49
0.25
 49
-1.5
  0
LTYPE
  2
undefined
 70
   64
  3
--------------------------------
 72
   65
 73
    0
 40
0
  0
ENDTAB
  0
TABLE
  2
STYLE
  5
3
100
AcDbSymbolTable
 70
     1
  0
STYLE
  5
10
100
AcDbSymbolTableRecord
100
AcDbTextStyleTableRecord
  2
STANDARD
 70
     0
 40
0.0
 41
1.0
 50
0.0
 71
     0
 42
0.2
  3
txt
  4
bigfont.shx
  0
STYLE
  5
26
100
AcDbSymbolTableRecord
100
AcDbTextStyleTableRecord
  2
TATEGAKI
 70
    68
 40
0.0
 41
1.0
 50
0.0
 71
     0
 42
1.0
  3
txt
  4
bigfont.shx
  0
ENDTAB
  0
TABLE
  2
LAYER
 70
    3
  0
LAYER
  2
_0-0_
 70
   64
 62
    7
  6
CONTINUOUS
  0
LAYER
  2
_0-1_
 70
   64
 62
    7
  6
CONTINUOUS
  0
LAYER
  2
ADD_LINE
 70
   64
 62
    7
  6
CONTINUOUS
  0
ENDTAB
  0
ENDSEC
  0
SECTION
  2
BLOCKS
  0
ENDSEC
  0
SECTION
  2
ENTITIES
  0
LINE
  8
_0-0_
  6
CONTINUOUS
 62
    7
 10
34.043243421328498
 20
108.40402059560819
 11
34.043243421328498
 21
117.80402059560816
  0
LINE
  8
_0-0_
  6
CONTINUOUS
 62
    7
 10
33.743243421328543
 20
118.10402059560818
 11
29.793243421328498
 21
118.10402059560823
  0
LINE
  8
_0-0_
  6
CONTINUOUS
 62
    7
 10
29.793243421328498
 20
118.10402059560823
 11
29.493243421328543
 21
118.40402059560819
  0
LINE
  8
_0-0_
  6
CONTINUOUS
 62
    7
 10
29.493243421328543
 20
118.40402059560819
 11
27.543243421328498
 21
118.40402059560819
  0
LINE
  8
_0-0_
  6
CONTINUOUS
 62
    7
 10
27.043243421328498
 20
118.90402059560819
 11
27.043243421328498
 21
122.90402059560819
  0
LINE
  8
_0-0_
  6
CONTINUOUS
 62
    7
 10
27.043243421328498
 20
122.90402059560819
 11
27.401738333342564
 21
122.90402059560819
  0
LINE
  8
_0-0_
  6
CONTINUOUS
 62
    7
 10
27.401738333342564
 20
122.90402059560819
 11
29.111809997564706
 21
119.95330870440142
  0
LINE
  8
_0-0_
  6
CONTINUOUS
 62
    7
 10
29.544410907882138
 20
119.7040205956082
 11
29.775570846788924
 21
119.7040205956082
  0
LINE
  8
_0-0_
  6
CONTINUOUS
 62
    7
 10
30.208171757106356
 20
120.45473248681492
 11
28.237717211651898
 21
123.85473248681495
  0
LINE
  8
_0-0_
  6
CONTINUOUS
 62
    7
 10
27.805116301334238
 20
124.10402059560823
 11
24.781370541322531
 21
124.10402059560823
  0
LINE
  8
_0-0_
  6
CONTINUOUS
 62
    7
 10
24.348769631005098
 20
123.85473248681501
 11
22.378315085550639
 21
120.45473248681498
  0
LINE
  8
_0-0_
  6
CONTINUOUS
 62
    7
 10
22.810915995868072
 20
119.7040205956082
 11
23.042075934774857
 21
119.7040205956082
  0
LINE
  8
_0-0_
  6
CONTINUOUS
 62
    7
 10
23.47467684509229
 20
119.95330870440142
 11
25.184748509314431
 21
122.90402059560819
  0
LINE
  8
_0-0_
  6
CONTINUOUS
 62
    7
 10
25.184748509314431
 20
122.90402059560819
 11
25.543243421328498
 21
122.90402059560819
  0
LINE
  8
_0-0_
  6
CONTINUOUS
 62
    7
 10
25.543243421328498
 20
122.90402059560819
 11
25.543243421328498
 21
118.90402059560819
  0
LINE
  8
_0-0_
  6
CONTINUOUS
 62
    7
 10
25.043243421328498
 20
118.40402059560819
 11
23.093243421328452
 21
118.40402059560819
  0
LINE
  8
_0-0_
  6
CONTINUOUS
 62
    7
 10
23.093243421328452
 20
118.40402059560819
 11
22.793243421328498
 21
118.10402059560823
  0
LINE
  8
_0-0_
  6
CONTINUOUS
 62
    7
 10
22.793243421328498
 20
118.10402059560823
 11
18.843243421328452
 21
118.10402059560823
  0
LINE
  8
_0-0_
  6
CONTINUOUS
 62
    7
 10
18.543243421328498
 20
117.80402059560816
 11
18.543243421328498
 21
108.40402059560819
  0
LINE
  8
_0-0_
  6
CONTINUOUS
 62
    7
 10
18.843243421328452
 20
108.10402059560812
 11
19.743243421328543
 21
108.10402059560812
  0
LINE
  8
_0-0_
  6
CONTINUOUS
 62
    7
 10
20.043243421328498
 20
108.40402059560819
 11
20.043243421328498
 21
116.40402059560819
  0
LINE
  8
_0-0_
  6
CONTINUOUS
 62
    7
 10
21.00150099082407
 20
116.60402059560812
 11
24.584985851832926
 21
116.60402059560812
  0
LINE
  8
_0-0_
  6
CONTINUOUS
 62
    7
 10
25.543243421328498
 20
116.40402059560819
 11
25.543243421328498
 21
108.40402059560819
  0
LINE
  8
_0-0_
  6
CONTINUOUS
 62
    7
 10
25.843243421328452
 20
108.10402059560812
 11
26.743243421328543
 21
108.10402059560812
  0
LINE
  8
_0-0_
  6
CONTINUOUS
 62
    7
 10
27.043243421328498
 20
108.40402059560819
 11
27.043243421328498
 21
116.40402059560819
  0
LINE
  8
_0-0_
  6
CONTINUOUS
 62
    7
 10
28.00150099082407
 20
116.60402059560812
 11
31.584985851832926
 21
116.60402059560812
  0
LINE
  8
_0-0_
  6
CONTINUOUS
 62
    7
 10
32.543243421328498
 20
116.40402059560819
 11
32.543243421328498
 21
108.40402059560819
  0
LINE
  8
_0-0_
  6
CONTINUOUS
 62
    7
 10
32.843243421328452
 20
108.10402059560812
 11
33.743243421328543
 21
108.10402059560812
  0
ARC
  8
_0-0_
  6
CONTINUOUS
 62
    7
 10
27.543243421328498
 20
116.40402059560819
 40
0.5
 50
23.578178478201846
 51
180.00000000000003
  0
ARC
  8
_0-0_
  6
CONTINUOUS
 62
    7
 10
32.043243421328498
 20
116.40402059560819
 40
0.5
 50
0
 51
156.42182152179814
  0
ARC
  8
_0-0_
  6
CONTINUOUS
 62
    7
 10
20.543243421328498
 20
116.40402059560819
 40
0.5
 50
23.578178478201846
 51
180.00000000000003
  0
ARC
  8
_0-0_
  6
CONTINUOUS
 62
    7
 10
25.043243421328498
 20
116.40402059560819
 40
0.5
 50
0
 51
156.42182152179817
  0
ARC
  8
_0-0_
  6
CONTINUOUS
 62
    7
 10
33.743243421328543
 20
108.40402059560819
 40
0.2999999999999999
 50
270
 51
0
  0
ARC
  8
_0-0_
  6
CONTINUOUS
 62
    7
 10
32.843243421328452
 20
108.40402059560819
 40
0.2999999999999999
 50
180
 51
270
  0
ARC
  8
_0-0_
  6
CONTINUOUS
 62
    7
 10
26.743243421328543
 20
108.40402059560819
 40
0.2999999999999999
 50
270
 51
0
  0
ARC
  8
_0-0_
  6
CONTINUOUS
 62
    7
 10
25.843243421328452
 20
108.40402059560819
 40
0.2999999999999999
 50
180
 51
270
  0
ARC
  8
_0-0_
  6
CONTINUOUS
 62
    7
 10
19.743243421328543
 20
108.40402059560819
 40
0.2999999999999999
 50
270
 51
0
  0
ARC
  8
_0-0_
  6
CONTINUOUS
 62
    7
 10
18.843243421328452
 20
108.40402059560819
 40
0.2999999999999999
 50
180
 51
270
  0
ARC
  8
_0-0_
  6
CONTINUOUS
 62
    7
 10
33.743243421328543
 20
117.80402059560816
 40
0.2999999999999999
 50
0
 51
90
  0
ARC
  8
_0-0_
  6
CONTINUOUS
 62
    7
 10
18.843243421328452
 20
117.80402059560816
 40
0.2999999999999999
 50
90
 51
180
  0
ARC
  8
_0-0_
  6
CONTINUOUS
 62
    7
 10
27.543243421328498
 20
118.90402059560819
 40
0.5
 50
180
 51
270
  0
ARC
  8
_0-0_
  6
CONTINUOUS
 62
    7
 10
25.043243421328498
 20
118.90402059560819
 40
0.5
 50
270
 51
0
  0
ARC
  8
_0-0_
  6
CONTINUOUS
 62
    7
 10
23.042075934774857
 20
120.2040205956082
 40
0.5
 50
270
 51
329.90575852355511
  0
ARC
  8
_0-0_
  6
CONTINUOUS
 62
    7
 10
22.810915995868072
 20
120.2040205956082
 40
0.5
 50
149.90575852355519
 51
270
  0
ARC
  8
_0-0_
  6
CONTINUOUS
 62
    7
 10
24.781370541322531
 20
123.60402059560823
 40
0.5
 50
90
 51
149.90575852355519
  0
ARC
  8
_0-0_
  6
CONTINUOUS
 62
    7
 10
29.544410907882138
 20
120.2040205956082
 40
0.5
 50
210.09424147644486
 51
270
  0
ARC
  8
_0-0_
  6
CONTINUOUS
 62
    7
 10
29.775570846788924
 20
120.2040205956082
 40
0.5
 50
270
 51
30.094241476444815
  0
ARC
  8
_0-0_
  6
CONTINUOUS
 62
    7
 10
27.805116301334238
 20
123.60402059560823
 40
0.5
 50
30.094241476444815
 51
90
  0
LINE
  8
_0-0_
  6
CONTINUOUS
 62
    7
 10
18.843243421328452
 20
28.104020595608233
 11
22.793243421328498
 21
28.104020595608233
  0
LINE
  8
_0-0_
  6
CONTINUOUS
 62
    7
 10
28.237717211651898
 20
22.353308704401513
 11
30.208171757106356
 21
25.753308704401491
  0
LINE
  8
_0-0_
  6
CONTINUOUS
 62
    7
 10
29.775570846788924
 20
26.50402059560821
 11
29.544410907882138
 21
26.50402059560821
  0
LINE
  8
_0-0_
  6
CONTINUOUS
 62
    7
 10
29.111809997564706
 20
26.25473248681493
 11
27.401738333342564
 21
23.304020595608165
  0
LINE
  8
_0-0_
  6
CONTINUOUS
 62
    7
 10
27.401738333342564
 20
23.304020595608165
 11
27.043243421328498
 21
23.304020595608165
  0
LINE
  8
_0-0_
  6
CONTINUOUS
 62
    7
 10
27.043243421328498
 20
23.304020595608165
 11
27.043243421328498
 21
27.304020595608165
  0
LINE
  8
_0-0_
  6
CONTINUOUS
 62
    7
 10
27.543243421328498
 20
27.804020595608165
 11
29.493243421328543
 21
27.804020595608165
  0
LINE
  8
_0-0_
  6
CONTINUOUS
 62
    7
 10
29.493243421328543
 20
27.804020595608165
 11
29.793243421328498
 21
28.104020595608233
  0
LINE
  8
_0-0_
  6
CONTINUOUS
 62
    7
 10
29.793243421328498
 20
28.104020595608233
 11
33.743243421328316
 21
28.104020595608233
  0
LINE
  8
_0-0_
  6
CONTINUOUS
 62
    7
 10
34.043243421328498
 20
28.404020595608301
 11
34.043243421328498
 21
32.804020595608279
  0
LINE
  8
_0-0_
  6
CONTINUOUS
 62
    7
 10
33.743243421328316
 20
33.104020595608233
 11
32.843243421328452
 21
33.104020595608233
  0
LINE
  8
_0-0_
  6
CONTINUOUS
 62
    7
 10
32.543243421328498
 20
32.804020595608279
 11
32.543243421328498
 21
29.804020595608279
  0
LINE
  8
_0-0_
  6
CONTINUOUS
 62
    7
 10
31.584985851832926
 20
29.604020595608233
 11
28.00150099082407
 21
29.604020595608233
  0
LINE
  8
_0-0_
  6
CONTINUOUS
 62
    7
 10
27.043243421328498
 20
29.804020595608279
 11
27.043243421328498
 21
32.804020595608279
  0
LINE
  8
_0-0_
  6
CONTINUOUS
 62
    7
 10
26.743243421328316
 20
33.104020595608233
 11
25.843243421328452
 21
33.104020595608233
  0
LINE
  8
_0-0_
  6
CONTINUOUS
 62
    7
 10
25.543243421328498
 20
32.804020595608279
 11
25.543243421328498
 21
29.804020595608279
  0
LINE
  8
_0-0_
  6
CONTINUOUS
 62
    7
 10
24.584985851832926
 20
29.604020595608233
 11
21.001500990823843
 21
29.604020595608233
  0
LINE
  8
_0-0_
  6
CONTINUOUS
 62
    7
 10
20.043243421328498
 20
29.804020595608279
 11
20.043243421328498
 21
32.804020595608279
  0
LINE
  8
_0-0_
  6
CONTINUOUS
 62
    7
 10
19.743243421328543
 20
33.104020595608233
 11
18.843243421328452
 21
33.104020595608233
  0
LINE
  8
_0-0_
  6
CONTINUOUS
 62
    7
 10
18.543243421328498
 20
32.804020595608279
 11
18.543243421328498
 21
28.404020595608188
  0
LINE
  8
_0-0_
  6
CONTINUOUS
 62
    7
 10
22.793243421328498
 20
28.104020595608233
 11
23.093243421328452
 21
27.804020595608165
  0
LINE
  8
_0-0_
  6
CONTINUOUS
 62
    7
 10
23.093243421328452
 20
27.804020595608165
 11
25.043243421328498
 21
27.804020595608165
  0
LINE
  8
_0-0_
  6
CONTINUOUS
 62
    7
 10
25.543243421328498
 20
27.304020595608165
 11
25.543243421328498
 21
23.304020595608279
  0
LINE
  8
_0-0_
  6
CONTINUOUS
 62
    7
 10
25.543243421328498
 20
23.304020595608165
 11
25.184748509314431
 21
23.304020595608165
  0
LINE
  8
_0-0_
  6
CONTINUOUS
 62
    7
 10
25.184748509314431
 20
23.304020595608165
 11
23.47467684509229
 21
26.25473248681493
  0
LINE
  8
_0-0_
  6
CONTINUOUS
 62
    7
 10
23.042075934774857
 20
26.50402059560821
 11
22.810915995868072
 21
26.50402059560821
  0
LINE
  8
_0-0_
  6
CONTINUOUS
 62
    7
 10
22.378315085550639
 20
25.753308704401491
 11
24.348769631005098
 21
22.353308704401513
  0
LINE
  8
_0-0_
  6
CONTINUOUS
 62
    7
 10
24.781370541322758
 20
22.104020595608233
 11
27.805116301334238
 21
22.104020595608233
  0
ARC
  8
_0-0_
  6
CONTINUOUS
 62
    7
 10
25.043243421328498
 20
29.804020595608279
 40
0.5
 50
203.57817847820183
 51
0.0000000000000254
  0
ARC
  8
_0-0_
  6
CONTINUOUS
 62
    7
 10
20.543243421328498
 20
29.804020595608279
 40
0.5
 50
180
 51
336.42182152179811
  0
ARC
  8
_0-0_
  6
CONTINUOUS
 62
    7
 10
32.043243421328498
 20
29.804020595608279
 40
0.5
 50
203.57817847820183
 51
0.0000000000000254
  0
ARC
  8
_0-0_
  6
CONTINUOUS
 62
    7
 10
27.543243421328498
 20
29.804020595608279
 40
0.5
 50
180
 51
336.42182152179811
  0
ARC
  8
_0-0_
  6
CONTINUOUS
 62
    7
 10
18.843243421328452
 20
28.404020595608188
 40
0.2999999999999999
 50
180
 51
270
  0
ARC
  8
_0-0_
  6
CONTINUOUS
 62
    7
 10
33.743243421328316
 20
28.404020595608301
 40
0.2999999999999999
 50
270
 51
0
  0
ARC
  8
_0-0_
  6
CONTINUOUS
 62
    7
 10
18.843243421328452
 20
32.804020595608279
 40
0.2999999999999999
 50
90
 51
180
  0
ARC
  8
_0-0_
  6
CONTINUOUS
 62
    7
 10
19.743243421328543
 20
32.804020595608279
 40
0.2999999999999999
 50
0
 51
90.000000000000028
  0
ARC
  8
_0-0_
  6
CONTINUOUS
 62
    7
 10
25.843243421328452
 20
32.804020595608279
 40
0.2999999999999999
 50
90
 51
180
  0
ARC
  8
_0-0_
  6
CONTINUOUS
 62
    7
 10
26.743243421328316
 20
32.804020595608279
 40
0.2999999999999999
 50
0
 51
90.000000000000028
  0
ARC
  8
_0-0_
  6
CONTINUOUS
 62
    7
 10
32.843243421328452
 20
32.804020595608279
 40
0.2999999999999999
 50
90
 51
180
  0
ARC
  8
_0-0_
  6
CONTINUOUS
 62
    7
 10
33.743243421328316
 20
32.804020595608279
 40
0.2999999999999999
 50
0
 51
90.000000000000028
  0
ARC
  8
_0-0_
  6
CONTINUOUS
 62
    7
 10
25.043243421328498
 20
27.304020595608165
 40
0.5
 50
0
 51
90.000000000000028
  0
ARC
  8
_0-0_
  6
CONTINUOUS
 62
    7
 10
27.543243421328498
 20
27.304020595608165
 40
0.5
 50
90
 51
180
  0
ARC
  8
_0-0_
  6
CONTINUOUS
 62
    7
 10
29.544410907882138
 20
26.00402059560821
 40
0.5
 50
90
 51
149.90575852355514
  0
ARC
  8
_0-0_
  6
CONTINUOUS
 62
    7
 10
29.775570846788924
 20
26.00402059560821
 40
0.5
 50
329.90575852355516
 51
90.000000000000028
  0
ARC
  8
_0-0_
  6
CONTINUOUS
 62
    7
 10
27.805116301334238
 20
22.604020595608233
 40
0.5
 50
270
 51
329.90575852355516
  0
ARC
  8
_0-0_
  6
CONTINUOUS
 62
    7
 10
23.042075934774857
 20
26.00402059560821
 40
0.5
 50
30.094241476444864
 51
90
  0
ARC
  8
_0-0_
  6
CONTINUOUS
 62
    7
 10
22.810915995868072
 20
26.00402059560821
 40
0.5
 50
90
 51
210.09424147644481
  0
ARC
  8
_0-0_
  6
CONTINUOUS
 62
    7
 10
24.781370541322758
 20
22.604020595608233
 40
0.5
 50
210.09424147644478
 51
270
  0
LINE
  8
_0-1_
  6
PHANTOM1
 62
  152
 10
13.793243421328498
 20
28.104020595608233
 11
38.793243421328498
 21
28.104020595608233
  0
TEXT
  8
_0-1_
 62
    7
 10
6.5164415074679027
 20
107.68691462027368
 40
5
 41
1
 50
0
  1
SG2U
  0
LINE
  8
_0-1_
  6
PHANTOM1
 62
  152
 10
13.793243421328498
 20
118.10402059560823
 11
38.793243421328498
 21
118.10402059560823
  0
LINE
  8
_0-1_
  6
PHANTOM1
 62
  152
 10
38.793243421328498
 20
118.10402059560823
 11
38.793243421328498
 21
143.10402059560823
  0
LINE
  8
_0-1_
  6
PHANTOM1
 62
  152
 10
38.793243421328498
 20
143.10402059560823
 11
13.793243421328498
 21
143.10402059560823
  0
LINE
  8
_0-1_
  6
PHANTOM1
 62
  152
 10
13.793243421328498
 20
143.10402059560823
 11
13.793243421328498
 21
118.10402059560823
  0
LINE
  8
_0-1_
  6
PHANTOM1
 62
  152
 10
38.793243421328498
 20
28.104020595608233
 11
38.793243421328498
 21
3.1040205956082332
  0
LINE
  8
_0-1_
  6
PHANTOM1
 62
  152
 10
38.793243421328498
 20
3.1040205956082332
 11
13.793243421328498
 21
3.1040205956082332
  0
LINE
  8
_0-1_
  6
PHANTOM1
 62
  152
 10
13.793243421328498
 20
3.1040205956082332
 11
13.793243421328498
 21
28.104020595608233
  0
LINE
  8
_0-1_
  6
CENTER2
 62
  152
 10
26.293243421328498
 20
33.104030595608435
 11
26.293243421328498
 21
16.354050595608385
  0
TEXT
  8
_0-1_
 62
    7
 10
3.639851661944931
 20
30.012480740480726
 40
5
 41
1
 50
0
  1
SG2D
  0
LINE
  8
_0-1_
  6
PHANTOM1
 62
  152
 10
20.293243421328611
 20
112.10402059560801
 11
25.293243421328611
 21
112.10402059560801
  0
LINE
  8
_0-1_
  6
PHANTOM1
 62
  152
 10
20.293243421328611
 20
29.604020595608006
 11
25.293243421328611
 21
29.604020595608006
  0
LINE
  8
_0-1_
  6
PHANTOM1
 62
  152
 10
27.293243421328611
 20
112.10402059560801
 11
32.293243421328611
 21
112.10402059560801
  0
LINE
  8
_0-1_
  6
PHANTOM1
 62
  152
 10
27.293243421328611
 20
29.604020595608006
 11
32.293243421328611
 21
29.604020595608006
  0
LINE
  8
_0-1_
  6
PHANTOM1
 62
  152
 10
19.92767894931103
 20
61.723578092832383
 11
25.645297274703125
 21
58.422509613543696
  0
LINE
  8
_0-1_
  6
PHANTOM1
 62
  152
 10
20.293243421328611
 20
61.512519346506906
 11
20.293243421328611
 21
29.604020595608006
  0
LINE
  8
_0-1_
  6
PHANTOM1
 62
  152
 10
25.293243421328611
 20
58.625768000558764
 11
25.293243421328611
 21
29.604020595608006
  0
LINE
  8
_0-1_
  6
PHANTOM1
 62
  152
 10
26.92767894931103
 20
61.723578092832383
 11
32.645297274703125
 21
58.422509613543696
  0
LINE
  8
_0-1_
  6
PHANTOM1
 62
  152
 10
27.293243421328611
 20
61.512519346506906
 11
27.293243421328611
 21
29.604020595608006
  0
LINE
  8
_0-1_
  6
PHANTOM1
 62
  152
 10
32.293243421328611
 20
58.625768000558764
 11
32.293243421328611
 21
29.604020595608006
  0
LINE
  8
_0-1_
  6
PHANTOM1
 62
  152
 10
20.293243421328611
 20
112.10402059560801
 11
20.293243421328611
 21
88.023015449674688
  0
LINE
  8
_0-1_
  6
PHANTOM1
 62
  152
 10
25.293243421328611
 20
112.10402059560801
 11
25.293243421328611
 21
85.136264103726546
  0
LINE
  8
_0-1_
  6
PHANTOM1
 62
  152
 10
26.92767894931103
 20
88.234074196000165
 11
32.645297274703125
 21
84.933005716711477
  0
LINE
  8
_0-1_
  6
PHANTOM1
 62
  152
 10
27.293243421328611
 20
112.10402059560801
 11
27.293243421328611
 21
88.023015449674688
  0
LINE
  8
_0-1_
  6
PHANTOM1
 62
  152
 10
32.293243421328611
 20
112.10402059560801
 11
32.293243421328611
 21
85.136264103726546
  0
ENDSEC
  0
EOF
