  0
SECTION
  2
HEADER
  9
$ACADVER
  1
AC1009
  9
$INSBASE
 10
0
 20
0
 30
0
  9
$EXTMIN
 10
0
 20
0
  9
$EXTMAX
 10
1189
 20
841
  9
$LIMMIN
 10
0
 20
0
  9
$LIMMAX
 10
1189
 20
841
  9
$LTSCALE
 40
1
  0
ENDSEC
  0
SECTION
  2
TABLES
  0
TABLE
  2
LTYPE
 70
     9
  0
LTYPE
  2
CONTINUOUS
 70
    64
  3
実線
 72
    65
 73
     0
 40
0.0
  0
LTYPE
  2
DASHED1
 70
    64
  3
--  --  --  --  --  --  --  --  
 72
    65
 73
     2
 40
2.5
 49
1.25
 49
-1.25
  0
LTYPE
  2
DASHED2
 70
    64
  3
----    ----    ----    ----    
 72
    65
 73
     2
 40
5.0
 49
2.5
 49
-2.5
  0
LTYPE
  2
DASHED3
 70
    64
  3
------  ------  ------  ------  
 72
    65
 73
     2
 40
5.0
 49
3.75
 49
-1.25
  0
LTYPE
  2
CENTER1
 70
    64
  3
----- - ----- - ----- - ----- - 
 72
    65
 73
     4
 40
10.0
 49
6.25
 49
-1.25
 49
1.25
 49
-1.25
  0
LTYPE
  2
CENTER2
 70
    64
  3
----------  --  ----------  --  
 72
    65
 73
     4
 40
20.0
 49
12.5
 49
-2.5
 49
2.5
 49
-2.5
  0
LTYPE
  2
PHANTOM1
 70
    64
  3
--- - - --- - - --- - - --- - - 
 72
    65
 73
     6
 40
10.0
 49
3.25
 49
-1.25
 49
1.25
 49
-1.25
 49
1.25
 49
-1.25
  0
LTYPE
  2
PHANTOM2
 70
    64
  3
--------  -  -  --------  -  -  
 72
    65
 73
     6
 40
20.0
 49
10.0
 49
-2.5
 49
1.25
 49
-2.5
 49
1.25
 49
-2.5
  0
LTYPE
  2
DOT
 70
    64
  3
-   -   -   -   -   -   -   -   
 72
    65
 73
     2
 40
2.5
 49
0.625
 49
-1.875
  0
LTYPE
  2
DUMMY
 70
    64
  3
ダミー
 72
    65
 73
     0
 40
0.0
  0
LTYPE
  2
RAND1
 70
    64
  3
ランダム線1
 72
    65
 73
     4
 40
10.0
 49
1.0
 49
-2.0
 49
3.0
 49
-4.0
  0
LTYPE
  2
RAND2
 70
    64
  3
ランダム線2
 72
    65
 73
     4
 40
14.0
 49
2.0
 49
-3.0
 49
4.0
 49
-5.0
  0
LTYPE
  2
RAND3
 70
    64
  3
ランダム線3
 72
    65
 73
     4
 40
18.0
 49
3.0
 49
-4.0
 49
5.0
 49
-6.0
  0
LTYPE
  2
RAND4
 70
    64
  3
ランダム線4
 72
    65
 73
     4
 40
22.0
 49
4.0
 49
-5.0
 49
6.0
 49
-7.0
  0
LTYPE
  2
RAND5
 70
    64
  3
ランダム線5
 72
    65
 73
     4
 40
26.0
 49
5.0
 49
-6.0
 49
7.0
 49
-8.0
  0
LTYPE
  2
LONG1
 70
    64
  3
----------  --  ----------  --  
 72
    65
 73
     4
 40
40.0
 49
32.5
 49
-2.5
 49
2.5
 49
-2.5
  0
LTYPE
  2
LONG2
 70
    64
  3
--------  -  -  --------  -  -  
 72
    65
 73
     6
 40
40.0
 49
30.0
 49
-2.5
 49
1.25
 49
-2.5
 49
1.25
 49
-2.5
  0
LTYPE
  2
LONG3
 70
    64
  3
+++++++++++++++..+++++++++++++++
 72
    65
 73
     2
 40
40.0
 49
37.5
 49
-2.5
  0
LTYPE
  2
LONG4
 70
    64
  3
+++++++++++++++..+++++++++++++++
 72
    65
 73
     2
 40
80.0
 49
75.0
 49
-5.0
  0
LTYPE
  2
LONG5
 70
    64
  3
----------  --  ----------  --  
 72
    65
 73
     4
 40
60.0
 49
37.5
 49
-7.5
 49
7.5
 49
-7.5
  0
LTYPE
  2
dashed
 70
   64
  3
-------   -------------   ------
 72
   65
 73
    2
 40
7.5
 49
6
 49
-1.5
  0
LTYPE
  2
dashed_spaced
 70
   64
  3
----        --------        ----
 72
   65
 73
    2
 40
12
 49
6
 49
-6
  0
LTYPE
  2
long_dashed_dotted
 70
   64
  3
------------- --- --------------
 72
   65
 73
    4
 40
15.25
 49
12
 49
-1.5
 49
0.25
 49
-1.5
  0
LTYPE
  2
long_dashed_double-dotted
 70
   64
  3
----------- --- --- ------------
 72
   65
 73
    6
 40
17
 49
12
 49
-1.5
 49
0.25
 49
-1.5
 49
0.25
 49
-1.5
  0
LTYPE
  2
long_dashed_triplicate-dotted
 70
   64
  3
--------- --- --- --- ----------
 72
   65
 73
    8
 40
18.75
 49
12
 49
-1.5
 49
0.25
 49
-1.5
 49
0.25
 49
-1.5
 49
0.25
 49
-1.5
  0
LTYPE
  2
dotted
 70
   64
  3
   -       -       -       -    
 72
   65
 73
    2
 40
1.75
 49
0.25
 49
-1.5
  0
LTYPE
  2
chain
 70
   64
  3
-------------- -- --------------
 72
   65
 73
    4
 40
18.5
 49
12
 49
-1.5
 49
3.5
 49
-1.5
  0
LTYPE
  2
chain_double_dash
 70
   64
  3
------------ -- -- -------------
 72
   65
 73
    6
 40
23.5
 49
12
 49
-1.5
 49
3.5
 49
-1.5
 49
3.5
 49
-1.5
  0
LTYPE
  2
dashed_dotted
 70
   64
  3
-----------     -     ----------
 72
   65
 73
    4
 40
9.25
 49
6
 49
-1.5
 49
0.25
 49
-1.5
  0
LTYPE
  2
double-dashed_dotted
 70
   64
  3
------   -----------   -   -----
 72
   65
 73
    6
 40
16.75
 49
6
 49
-1.5
 49
6
 49
-1.5
 49
0.25
 49
-1.5
  0
LTYPE
  2
dashed_double-dotted
 70
   64
  3
---------    -    -    ---------
 72
   65
 73
    6
 40
11
 49
6
 49
-1.5
 49
0.25
 49
-1.5
 49
0.25
 49
-1.5
  0
LTYPE
  2
double-dashed_double-dotted
 70
   64
  3
-----   ---------   -   -   ----
 72
   65
 73
    8
 40
18.5
 49
6
 49
-1.5
 49
6
 49
-1.5
 49
0.25
 49
-1.5
 49
0.25
 49
-1.5
  0
LTYPE
  2
dashed_triplicate-dotted
 70
   64
  3
-------    -    -    -    ------
 72
   65
 73
    8
 40
12.75
 49
6
 49
-1.5
 49
0.25
 49
-1.5
 49
0.25
 49
-1.5
 49
0.25
 49
-1.5
  0
LTYPE
  2
double-dashed_triplicate-dotted
 70
   64
  3
-----  ---------  -  -  -  -----
 72
   65
 73
   10
 40
20.25
 49
6
 49
-1.5
 49
6
 49
-1.5
 49
0.25
 49
-1.5
 49
0.25
 49
-1.5
 49
0.25
 49
-1.5
  0
LTYPE
  2
undefined
 70
   64
  3
--------------------------------
 72
   65
 73
    0
 40
0
  0
LTYPE
  2
_
 70
   64
  3
                                
 72
   65
 73
    0
 40
0
  0
LTYPE
  2
__18
 70
   64
  3
                                
 72
   65
 73
    0
 40
0
  0
LTYPE
  2
__19
 70
   64
  3
                                
 72
   65
 73
    0
 40
0
  0
LTYPE
  2
__20
 70
   64
  3
                                
 72
   65
 73
    0
 40
0
  0
LTYPE
  2
__21
 70
   64
  3
                                
 72
   65
 73
    0
 40
0
  0
LTYPE
  2
__22
 70
   64
  3
                                
 72
   65
 73
    0
 40
0
  0
LTYPE
  2
__23
 70
   64
  3
                                
 72
   65
 73
    0
 40
0
  0
LTYPE
  2
__24
 70
   64
  3
                                
 72
   65
 73
    0
 40
0
  0
LTYPE
  2
__25
 70
   64
  3
                                
 72
   65
 73
    0
 40
0
  0
LTYPE
  2
__26
 70
   64
  3
                                
 72
   65
 73
    0
 40
0
  0
LTYPE
  2
__27
 70
   64
  3
                                
 72
   65
 73
    0
 40
0
  0
LTYPE
  2
__28
 70
   64
  3
                                
 72
   65
 73
    0
 40
0
  0
LTYPE
  2
__29
 70
   64
  3
                                
 72
   65
 73
    0
 40
0
  0
LTYPE
  2
__30
 70
   64
  3
                                
 72
   65
 73
    0
 40
0
  0
LTYPE
  2
__31
 70
   64
  3
                                
 72
   65
 73
    0
 40
0
  0
LTYPE
  2
__32
 70
   64
  3
                                
 72
   65
 73
    0
 40
0
  0
ENDTAB
  0
TABLE
  2
STYLE
  5
3
100
AcDbSymbolTable
 70
     1
  0
STYLE
  5
10
100
AcDbSymbolTableRecord
100
AcDbTextStyleTableRecord
  2
STANDARD
 70
     0
 40
0.0
 41
1.0
 50
0.0
 71
     0
 42
0.2
  3
txt
  4
bigfont.shx
  0
STYLE
  5
26
100
AcDbSymbolTableRecord
100
AcDbTextStyleTableRecord
  2
TATEGAKI
 70
    68
 40
0.0
 41
1.0
 50
0.0
 71
     0
 42
1.0
  3
txt
  4
bigfont.shx
  0
ENDTAB
  0
TABLE
  2
LAYER
 70
    4
  0
LAYER
  2
_0-0_
 70
   64
 62
    7
  6
CONTINUOUS
  0
LAYER
  2
_0-1_
 70
   64
 62
    7
  6
CONTINUOUS
  0
LAYER
  2
_0-f_
 70
   64
 62
    7
  6
CONTINUOUS
  0
LAYER
  2
ADD_LINE
 70
   64
 62
    7
  6
CONTINUOUS
  0
ENDTAB
  0
ENDSEC
  0
SECTION
  2
BLOCKS
  0
ENDSEC
  0
SECTION
  2
ENTITIES
  0
LINE
  8
_0-0_
  6
CONTINUOUS
 62
    7
 10
29.939951075386944
 20
40.627990660534067
 11
29.507781186293187
 21
46.129256775794488
  0
LINE
  8
_0-0_
  6
CONTINUOUS
 62
    7
 10
29.507781186293187
 20
46.129256775794488
 11
28.64064792984982
 21
47.244142391221772
  0
LINE
  8
_0-0_
  6
CONTINUOUS
 62
    7
 10
28.64064792984982
 20
47.244142391221772
 11
21.378737574470506
 21
47.244142391221772
  0
LINE
  8
_0-0_
  6
CONTINUOUS
 62
    7
 10
21.378737574470506
 20
47.244142391221772
 11
20.511604318027366
 21
46.129256775794488
  0
LINE
  8
_0-0_
  6
CONTINUOUS
 62
    7
 10
20.511604318027366
 20
46.129256775794488
 11
20.07943442893361
 21
40.627990660534067
  0
LINE
  8
_0-0_
  6
CONTINUOUS
 62
    7
 10
19.012457093857392
 20
39.814627662518376
 11
19.509692752160163
 21
46.144142391221862
  0
LINE
  8
_0-0_
  6
CONTINUOUS
 62
    7
 10
19.509692752160163
 20
46.144142391221862
 11
20.209692752160208
 21
47.044142391221499
  0
LINE
  8
_0-0_
  6
CONTINUOUS
 62
    7
 10
20.209692752160208
 20
47.044142391221499
 11
20.209692752160208
 21
47.94414239122159
  0
LINE
  8
_0-0_
  6
CONTINUOUS
 62
    7
 10
20.509692752160163
 20
48.244142391221772
 11
29.509692752160163
 21
48.244142391221772
  0
LINE
  8
_0-0_
  6
CONTINUOUS
 62
    7
 10
29.809692752160117
 20
47.94414239122159
 11
29.809692752160117
 21
47.044142391221499
  0
LINE
  8
_0-0_
  6
CONTINUOUS
 62
    7
 10
29.809692752160117
 20
47.044142391221499
 11
30.509692752160163
 21
46.144142391221862
  0
LINE
  8
_0-0_
  6
CONTINUOUS
 62
    7
 10
30.509692752160163
 20
46.144142391221862
 11
31.006928410463161
 21
39.814627662518376
  0
ARC
  8
_0-0_
  6
CONTINUOUS
 62
    7
 10
19.909692752160254
 20
39.744142391221828
 40
0.9000000000000054
 50
175.50816844393268
 51
79.128798235490024
  0
ARC
  8
_0-0_
  6
CONTINUOUS
 62
    7
 10
30.109692752160299
 20
39.744142391221828
 40
0.9000000000000054
 50
100.87120176450992
 51
4.4918315560672681
  0
ARC
  8
_0-0_
  6
CONTINUOUS
 62
    7
 10
20.509692752160163
 20
47.94414239122159
 40
0.2999999999999998
 50
90
 51
180
  0
ARC
  8
_0-0_
  6
CONTINUOUS
 62
    7
 10
29.509692752160163
 20
47.94414239122159
 40
0.2999999999999998
 50
0
 51
90.000000000000028
  0
LINE
  8
_0-1_
  6
CENTER2
 62
  152
 10
25.009692752160163
 20
23.844142391221681
 11
25.009692752160163
 21
33.844142391221737
  0
LINE
  8
_0-1_
  6
CENTER2
 62
  152
 10
20.009692752160163
 20
28.844142391221681
 11
30.009692752160163
 21
28.844142391221681
  0
LINE
  8
_0-1_
  6
PHANTOM1
 62
  152
 10
33.009692752160163
 20
17.637035610035014
 11
33.009692752160163
 21
12.94414239122159
  0
ARC
  8
_0-1_
  6
PHANTOM1
 62
  152
 10
36.21679953334683
 20
21.344142391221681
 40
0.5
 50
225
 51
270
  0
LINE
  8
_0-1_
  6
PHANTOM1
 62
  152
 10
36.21679953334683
 20
20.844142391221681
 11
40.909692752160254
 21
20.844142391221681
  0
LINE
  8
_0-1_
  6
PHANTOM1
 62
  152
 10
30.609692752160072
 20
8.8441423912216806
 11
43.509692752160163
 21
8.8441423912216806
  0
LINE
  8
_0-1_
  6
PHANTOM1
 62
  152
 10
6.5096927521601629
 20
8.8441423912216806
 11
19.409692752160254
 21
8.8441423912216806
  0
LINE
  8
_0-1_
  6
PHANTOM1
 62
  152
 10
5.0096927521601629
 20
23.244142391221772
 11
5.0096927521601629
 21
10.344142391221681
  0
LINE
  8
_0-1_
  6
PHANTOM1
 62
  152
 10
5.0096927521601629
 20
47.344142391221681
 11
5.0096927521601629
 21
34.44414239122159
  0
LINE
  8
_0-1_
  6
PHANTOM1
 62
  152
 10
30.609692752160072
 20
48.844142391221681
 11
43.509692752160163
 21
48.844142391221681
  0
LINE
  8
_0-1_
  6
PHANTOM1
 62
  152
 10
6.5096927521601629
 20
48.844142391221681
 11
19.409692752160254
 21
48.844142391221681
  0
LINE
  8
_0-1_
  6
PHANTOM1
 62
  152
 10
31.802585970973496
 20
18.844142391221681
 11
18.21679953334683
 21
18.844142391221681
  0
ARC
  8
_0-1_
  6
PHANTOM1
 62
  152
 10
18.21679953334683
 20
18.344142391221681
 40
0.5
 50
90
 51
135
  0
LINE
  8
_0-1_
  6
PHANTOM1
 62
  152
 10
17.863246142753496
 20
18.697695781815014
 11
17.156139361566829
 21
17.990589000628347
  0
ARC
  8
_0-1_
  6
PHANTOM1
 62
  152
 10
17.509692752160163
 20
17.637035610035014
 40
0.5
 50
135.00000000000006
 51
180.00000000000006
  0
LINE
  8
_0-1_
  6
PHANTOM1
 62
  152
 10
17.009692752160163
 20
17.637035610035014
 11
17.009692752160163
 21
12.94414239122159
  0
ARC
  8
_0-1_
  6
PHANTOM1
 62
  152
 10
17.509692752160163
 20
12.94414239122159
 40
0.5
 50
180
 51
270
  0
LINE
  8
_0-1_
  6
PHANTOM1
 62
  152
 10
17.509692752160163
 20
12.44414239122159
 11
19.00067575778553
 21
12.44414239122159
  0
ARC
  8
_0-1_
  6
PHANTOM1
 62
  152
 10
19.00067575778553
 20
11.94414239122159
 40
0.5
 50
26.565051177068501
 51
90.000000000000043
  0
LINE
  8
_0-1_
  6
PHANTOM1
 62
  152
 10
19.447889353285291
 20
12.167749188971698
 11
19.856906347660015
 21
11.349715200221794
  0
ARC
  8
_0-1_
  6
PHANTOM1
 62
  152
 10
19.409692752160254
 20
11.126108402471687
 40
0.5
 50
359.99999999999994
 51
26.565051177077926
  0
LINE
  8
_0-1_
  6
PHANTOM1
 62
  152
 10
19.909692752160254
 20
11.126108402471687
 11
19.909692752160254
 21
9.3441423912216806
  0
ARC
  8
_0-1_
  6
PHANTOM1
 62
  152
 10
19.409692752160254
 20
9.3441423912216806
 40
0.5
 50
270
 51
0
  0
ARC
  8
_0-1_
  6
PHANTOM1
 62
  152
 10
31.802585970973496
 20
18.344142391221681
 40
0.5
 50
45
 51
90
  0
LINE
  8
_0-1_
  6
PHANTOM1
 62
  152
 10
32.156139361566829
 20
18.697695781815014
 11
32.863246142753496
 21
17.990589000628347
  0
ARC
  8
_0-1_
  6
PHANTOM1
 62
  152
 10
32.509692752160163
 20
17.637035610035014
 40
0.5
 50
0
 51
45
  0
ARC
  8
_0-1_
  6
PHANTOM1
 62
  152
 10
32.509692752160163
 20
12.94414239122159
 40
0.5
 50
270
 51
0
  0
LINE
  8
_0-1_
  6
PHANTOM1
 62
  152
 10
32.509692752160163
 20
12.44414239122159
 11
31.018709746534796
 21
12.44414239122159
  0
ARC
  8
_0-1_
  6
PHANTOM1
 62
  152
 10
31.018709746534796
 20
11.94414239122159
 40
0.5
 50
90
 51
153.43494882293152
  0
LINE
  8
_0-1_
  6
PHANTOM1
 62
  152
 10
30.571496151035035
 20
12.167749188971698
 11
30.162479156660311
 21
11.349715200221794
  0
ARC
  8
_0-1_
  6
PHANTOM1
 62
  152
 10
30.609692752160072
 20
11.126108402471687
 40
0.5
 50
153.43494882292211
 51
180.00000000000011
  0
LINE
  8
_0-1_
  6
PHANTOM1
 62
  152
 10
30.109692752160072
 20
11.126108402471687
 11
30.109692752160072
 21
9.3441423912216806
  0
ARC
  8
_0-1_
  6
PHANTOM1
 62
  152
 10
30.609692752160072
 20
9.3441423912216806
 40
0.5
 50
180
 51
270
  0
ARC
  8
_0-1_
  6
PHANTOM1
 62
  152
 10
14.509692752160163
 20
35.637035610035014
 40
0.5
 50
0
 51
45
  0
LINE
  8
_0-1_
  6
PHANTOM1
 62
  152
 10
14.863246142753496
 20
35.990589000628347
 11
14.156139361566829
 21
36.697695781815014
  0
ARC
  8
_0-1_
  6
PHANTOM1
 62
  152
 10
13.802585970973496
 20
36.344142391221681
 40
0.5
 50
45
 51
90
  0
LINE
  8
_0-1_
  6
PHANTOM1
 62
  152
 10
13.802585970973496
 20
36.844142391221681
 11
9.1096927521600719
 21
36.844142391221681
  0
ARC
  8
_0-1_
  6
PHANTOM1
 62
  152
 10
9.1096927521600719
 20
36.344142391221681
 40
0.5
 50
90
 51
180
  0
LINE
  8
_0-1_
  6
PHANTOM1
 62
  152
 10
8.6096927521600719
 20
36.344142391221681
 11
8.6096927521600719
 21
34.853159385596314
  0
ARC
  8
_0-1_
  6
PHANTOM1
 62
  152
 10
8.1096927521600719
 20
34.853159385596314
 40
0.5
 50
296.56505117706848
 51
0
  0
LINE
  8
_0-1_
  6
PHANTOM1
 62
  152
 10
8.3332995499101798
 20
34.405945790096553
 11
7.5152655611602768
 21
33.996928795721828
  0
ARC
  8
_0-1_
  6
PHANTOM1
 62
  152
 10
7.2916587634101688
 20
34.44414239122159
 40
0.5
 50
269.99999999999994
 51
296.56505117707792
  0
LINE
  8
_0-1_
  6
PHANTOM1
 62
  152
 10
7.2916587634101688
 20
33.94414239122159
 11
5.5096927521601629
 21
33.94414239122159
  0
ARC
  8
_0-1_
  6
PHANTOM1
 62
  152
 10
5.5096927521601629
 20
34.44414239122159
 40
0.5
 50
180
 51
270
  0
ARC
  8
_0-1_
  6
PHANTOM1
 62
  152
 10
14.509692752160163
 20
22.051249172408347
 40
0.5
 50
315
 51
0
  0
LINE
  8
_0-1_
  6
PHANTOM1
 62
  152
 10
14.863246142753496
 20
21.697695781815014
 11
14.156139361566829
 21
20.990589000628347
  0
ARC
  8
_0-1_
  6
PHANTOM1
 62
  152
 10
13.802585970973496
 20
21.344142391221681
 40
0.5
 50
270
 51
315
  0
LINE
  8
_0-1_
  6
PHANTOM1
 62
  152
 10
13.802585970973496
 20
20.844142391221681
 11
9.1096927521600719
 21
20.844142391221681
  0
ARC
  8
_0-1_
  6
PHANTOM1
 62
  152
 10
9.1096927521600719
 20
21.344142391221681
 40
0.5
 50
180
 51
270
  0
LINE
  8
_0-1_
  6
PHANTOM1
 62
  152
 10
8.6096927521600719
 20
21.344142391221681
 11
8.6096927521600719
 21
22.835125396847047
  0
ARC
  8
_0-1_
  6
PHANTOM1
 62
  152
 10
8.1096927521600719
 20
22.835125396847047
 40
0.5
 50
0
 51
63.43494882293151
  0
LINE
  8
_0-1_
  6
PHANTOM1
 62
  152
 10
8.3332995499101798
 20
23.282338992346808
 11
7.5152655611602768
 21
23.691355986721533
  0
ARC
  8
_0-1_
  6
PHANTOM1
 62
  152
 10
7.2916587634101688
 20
23.244142391221772
 40
0.5
 50
63.43494882292206
 51
90.000000000000057
  0
LINE
  8
_0-1_
  6
PHANTOM1
 62
  152
 10
7.2916587634101688
 20
23.744142391221772
 11
5.5096927521601629
 21
23.744142391221772
  0
ARC
  8
_0-1_
  6
PHANTOM1
 62
  152
 10
5.5096927521601629
 20
23.244142391221772
 40
0.5
 50
90
 51
180
  0
LINE
  8
_0-1_
  6
PHANTOM1
 62
  152
 10
18.21679953334683
 20
38.844142391221681
 11
31.802585970973496
 21
38.844142391221681
  0
ARC
  8
_0-1_
  6
PHANTOM1
 62
  152
 10
31.802585970973496
 20
39.344142391221681
 40
0.5
 50
270
 51
315
  0
LINE
  8
_0-1_
  6
PHANTOM1
 62
  152
 10
32.156139361566829
 20
38.990589000628347
 11
32.863246142753496
 21
39.697695781815014
  0
ARC
  8
_0-1_
  6
PHANTOM1
 62
  152
 10
32.509692752160163
 20
40.051249172408347
 40
0.5
 50
315
 51
0
  0
LINE
  8
_0-1_
  6
PHANTOM1
 62
  152
 10
33.009692752160163
 20
40.051249172408347
 11
33.009692752160163
 21
44.744142391221772
  0
ARC
  8
_0-1_
  6
PHANTOM1
 62
  152
 10
32.509692752160163
 20
44.744142391221772
 40
0.5
 50
0
 51
90
  0
LINE
  8
_0-1_
  6
PHANTOM1
 62
  152
 10
32.509692752160163
 20
45.244142391221772
 11
31.018709746534796
 21
45.244142391221772
  0
ARC
  8
_0-1_
  6
PHANTOM1
 62
  152
 10
31.018709746534796
 20
45.744142391221772
 40
0.5
 50
206.56505117706848
 51
270
  0
LINE
  8
_0-1_
  6
PHANTOM1
 62
  152
 10
30.571496151035035
 20
45.520535593471664
 11
30.162479156660311
 21
46.338569582221567
  0
ARC
  8
_0-1_
  6
PHANTOM1
 62
  152
 10
30.609692752160072
 20
46.562176379971675
 40
0.5
 50
179.99999999999994
 51
206.56505117707795
  0
LINE
  8
_0-1_
  6
PHANTOM1
 62
  152
 10
30.109692752160072
 20
46.562176379971675
 11
30.109692752160072
 21
48.344142391221681
  0
ARC
  8
_0-1_
  6
PHANTOM1
 62
  152
 10
30.609692752160072
 20
48.344142391221681
 40
0.5
 50
90
 51
180
  0
ARC
  8
_0-1_
  6
PHANTOM1
 62
  152
 10
18.21679953334683
 20
39.344142391221681
 40
0.5
 50
225
 51
270
  0
LINE
  8
_0-1_
  6
PHANTOM1
 62
  152
 10
17.863246142753496
 20
38.990589000628347
 11
17.156139361566829
 21
39.697695781815014
  0
ARC
  8
_0-1_
  6
PHANTOM1
 62
  152
 10
17.509692752160163
 20
40.051249172408347
 40
0.5
 50
180
 51
225
  0
LINE
  8
_0-1_
  6
PHANTOM1
 62
  152
 10
17.009692752160163
 20
40.051249172408347
 11
17.009692752160163
 21
44.744142391221772
  0
ARC
  8
_0-1_
  6
PHANTOM1
 62
  152
 10
17.509692752160163
 20
44.744142391221772
 40
0.5
 50
90
 51
180
  0
LINE
  8
_0-1_
  6
PHANTOM1
 62
  152
 10
17.509692752160163
 20
45.244142391221772
 11
19.00067575778553
 21
45.244142391221772
  0
ARC
  8
_0-1_
  6
PHANTOM1
 62
  152
 10
19.00067575778553
 20
45.744142391221772
 40
0.5
 50
270
 51
333.43494882293152
  0
LINE
  8
_0-1_
  6
PHANTOM1
 62
  152
 10
19.447889353285291
 20
45.520535593471664
 11
19.856906347660015
 21
46.338569582221567
  0
ARC
  8
_0-1_
  6
PHANTOM1
 62
  152
 10
19.409692752160254
 20
46.562176379971675
 40
0.5
 50
333.43494882292214
 51
0.0000000000000858
  0
LINE
  8
_0-1_
  6
PHANTOM1
 62
  152
 10
19.909692752160254
 20
46.562176379971675
 11
19.909692752160254
 21
48.344142391221681
  0
ARC
  8
_0-1_
  6
PHANTOM1
 62
  152
 10
19.409692752160254
 20
48.344142391221681
 40
0.5
 50
0
 51
90
  0
ARC
  8
_0-1_
  6
PHANTOM1
 62
  152
 10
35.509692752160163
 20
22.051249172408347
 40
0.5
 50
180
 51
225
  0
LINE
  8
_0-1_
  6
PHANTOM1
 62
  152
 10
35.156139361566829
 20
21.697695781815014
 11
35.863246142753496
 21
20.990589000628347
  0
ARC
  8
_0-1_
  6
PHANTOM1
 62
  152
 10
40.909692752160254
 20
21.344142391221681
 40
0.5
 50
270
 51
0
  0
LINE
  8
_0-1_
  6
PHANTOM1
 62
  152
 10
41.409692752160254
 20
21.344142391221681
 11
41.409692752160254
 21
22.835125396847047
  0
ARC
  8
_0-1_
  6
PHANTOM1
 62
  152
 10
41.909692752160254
 20
22.835125396847047
 40
0.5
 50
116.56505117706847
 51
180
  0
LINE
  8
_0-1_
  6
PHANTOM1
 62
  152
 10
41.686085954410146
 20
23.282338992346808
 11
42.504119943160049
 21
23.691355986721533
  0
ARC
  8
_0-1_
  6
PHANTOM1
 62
  152
 10
42.727726740910157
 20
23.244142391221772
 40
0.5
 50
89.999999999999929
 51
116.56505117707795
  0
LINE
  8
_0-1_
  6
PHANTOM1
 62
  152
 10
42.727726740910157
 20
23.744142391221772
 11
44.509692752160163
 21
23.744142391221772
  0
ARC
  8
_0-1_
  6
PHANTOM1
 62
  152
 10
44.509692752160163
 20
23.244142391221772
 40
0.5
 50
0
 51
90
  0
LINE
  8
_0-1_
  6
PHANTOM1
 62
  152
 10
45.009692752160163
 20
23.244142391221772
 11
45.009692752160163
 21
10.344142391221681
  0
ARC
  8
_0-1_
  6
PHANTOM1
 62
  152
 10
35.509692752160163
 20
35.637035610035014
 40
0.5
 50
135.00000000000006
 51
180.00000000000006
  0
LINE
  8
_0-1_
  6
PHANTOM1
 62
  152
 10
35.156139361566829
 20
35.990589000628347
 11
35.863246142753496
 21
36.697695781815014
  0
ARC
  8
_0-1_
  6
PHANTOM1
 62
  152
 10
36.21679953334683
 20
36.344142391221681
 40
0.5
 50
90
 51
135
  0
LINE
  8
_0-1_
  6
PHANTOM1
 62
  152
 10
36.21679953334683
 20
36.844142391221681
 11
40.909692752160254
 21
36.844142391221681
  0
ARC
  8
_0-1_
  6
PHANTOM1
 62
  152
 10
40.909692752160254
 20
36.344142391221681
 40
0.5
 50
0
 51
90
  0
LINE
  8
_0-1_
  6
PHANTOM1
 62
  152
 10
41.409692752160254
 20
36.344142391221681
 11
41.409692752160254
 21
34.853159385596314
  0
ARC
  8
_0-1_
  6
PHANTOM1
 62
  152
 10
41.909692752160254
 20
34.853159385596314
 40
0.5
 50
180
 51
243.43494882293152
  0
LINE
  8
_0-1_
  6
PHANTOM1
 62
  152
 10
41.686085954410146
 20
34.405945790096553
 11
42.504119943160049
 21
33.996928795721828
  0
ARC
  8
_0-1_
  6
PHANTOM1
 62
  152
 10
42.727726740910157
 20
34.44414239122159
 40
0.5
 50
243.43494882292205
 51
270.00000000000006
  0
LINE
  8
_0-1_
  6
PHANTOM1
 62
  152
 10
42.727726740910157
 20
33.94414239122159
 11
44.509692752160163
 21
33.94414239122159
  0
ARC
  8
_0-1_
  6
PHANTOM1
 62
  152
 10
44.509692752160163
 20
34.44414239122159
 40
0.5
 50
270
 51
0
  0
LINE
  8
_0-1_
  6
PHANTOM1
 62
  152
 10
45.009692752160163
 20
34.44414239122159
 11
45.009692752160163
 21
47.344142391221681
  0
ARC
  8
_0-1_
  6
PHANTOM1
 62
  152
 10
6.5096927521601629
 20
47.344142391221681
 40
1.5
 50
90
 51
180
  0
ARC
  8
_0-1_
  6
PHANTOM1
 62
  152
 10
6.5096927521601629
 20
10.344142391221681
 40
1.5
 50
180
 51
270
  0
ARC
  8
_0-1_
  6
PHANTOM1
 62
  152
 10
43.509692752160163
 20
10.344142391221681
 40
1.5
 50
270
 51
0
  0
ARC
  8
_0-1_
  6
PHANTOM1
 62
  152
 10
43.509692752160163
 20
47.344142391221681
 40
1.5
 50
0
 51
90
  0
LINE
  8
_0-1_
  6
PHANTOM1
 62
  152
 10
15.009692752160163
 20
22.051249172408347
 11
15.009692752160163
 21
35.637035610035014
  0
LINE
  8
_0-1_
  6
PHANTOM1
 62
  152
 10
35.009692752160163
 20
35.637035610035014
 11
35.009692752160163
 21
22.051249172408347
  0
TEXT
  8
_0-f_
 62
    7
 10
3.1380392610989247
 20
2.2008800977666283
 40
4.2999999999999998
 41
0.744186046511628
 50
0
  1
SC4S,G,B
  0
ENDSEC
  0
EOF
