  0
SECTION
  2
HEADER
  9
$ACADVER
  1
AC1009
  9
$INSBASE
 10
0
 20
0
 30
0
  9
$EXTMIN
 10
0
 20
0
  9
$EXTMAX
 10
1189
 20
841
  9
$LIMMIN
 10
0
 20
0
  9
$LIMMAX
 10
1189
 20
841
  9
$LTSCALE
 40
1
  0
ENDSEC
  0
SECTION
  2
TABLES
  0
TABLE
  2
LTYPE
 70
     9
  0
LTYPE
  2
CONTINUOUS
 70
    64
  3
実線
 72
    65
 73
     0
 40
0.0
  0
LTYPE
  2
DASHED1
 70
    64
  3
--  --  --  --  --  --  --  --  
 72
    65
 73
     2
 40
2.5
 49
1.25
 49
-1.25
  0
LTYPE
  2
DASHED2
 70
    64
  3
----    ----    ----    ----    
 72
    65
 73
     2
 40
5.0
 49
2.5
 49
-2.5
  0
LTYPE
  2
DASHED3
 70
    64
  3
------  ------  ------  ------  
 72
    65
 73
     2
 40
5.0
 49
3.75
 49
-1.25
  0
LTYPE
  2
CENTER1
 70
    64
  3
----- - ----- - ----- - ----- - 
 72
    65
 73
     4
 40
10.0
 49
6.25
 49
-1.25
 49
1.25
 49
-1.25
  0
LTYPE
  2
CENTER2
 70
    64
  3
----------  --  ----------  --  
 72
    65
 73
     4
 40
20.0
 49
12.5
 49
-2.5
 49
2.5
 49
-2.5
  0
LTYPE
  2
PHANTOM1
 70
    64
  3
--- - - --- - - --- - - --- - - 
 72
    65
 73
     6
 40
10.0
 49
3.25
 49
-1.25
 49
1.25
 49
-1.25
 49
1.25
 49
-1.25
  0
LTYPE
  2
PHANTOM2
 70
    64
  3
--------  -  -  --------  -  -  
 72
    65
 73
     6
 40
20.0
 49
10.0
 49
-2.5
 49
1.25
 49
-2.5
 49
1.25
 49
-2.5
  0
LTYPE
  2
DOT
 70
    64
  3
-   -   -   -   -   -   -   -   
 72
    65
 73
     2
 40
2.5
 49
0.625
 49
-1.875
  0
LTYPE
  2
DUMMY
 70
    64
  3
ダミー
 72
    65
 73
     0
 40
0.0
  0
LTYPE
  2
RAND1
 70
    64
  3
ランダム線1
 72
    65
 73
     4
 40
10.0
 49
1.0
 49
-2.0
 49
3.0
 49
-4.0
  0
LTYPE
  2
RAND2
 70
    64
  3
ランダム線2
 72
    65
 73
     4
 40
14.0
 49
2.0
 49
-3.0
 49
4.0
 49
-5.0
  0
LTYPE
  2
RAND3
 70
    64
  3
ランダム線3
 72
    65
 73
     4
 40
18.0
 49
3.0
 49
-4.0
 49
5.0
 49
-6.0
  0
LTYPE
  2
RAND4
 70
    64
  3
ランダム線4
 72
    65
 73
     4
 40
22.0
 49
4.0
 49
-5.0
 49
6.0
 49
-7.0
  0
LTYPE
  2
RAND5
 70
    64
  3
ランダム線5
 72
    65
 73
     4
 40
26.0
 49
5.0
 49
-6.0
 49
7.0
 49
-8.0
  0
LTYPE
  2
LONG1
 70
    64
  3
----------  --  ----------  --  
 72
    65
 73
     4
 40
40.0
 49
32.5
 49
-2.5
 49
2.5
 49
-2.5
  0
LTYPE
  2
LONG2
 70
    64
  3
--------  -  -  --------  -  -  
 72
    65
 73
     6
 40
40.0
 49
30.0
 49
-2.5
 49
1.25
 49
-2.5
 49
1.25
 49
-2.5
  0
LTYPE
  2
LONG3
 70
    64
  3
+++++++++++++++..+++++++++++++++
 72
    65
 73
     2
 40
40.0
 49
37.5
 49
-2.5
  0
LTYPE
  2
LONG4
 70
    64
  3
+++++++++++++++..+++++++++++++++
 72
    65
 73
     2
 40
80.0
 49
75.0
 49
-5.0
  0
LTYPE
  2
LONG5
 70
    64
  3
----------  --  ----------  --  
 72
    65
 73
     4
 40
60.0
 49
37.5
 49
-7.5
 49
7.5
 49
-7.5
  0
LTYPE
  2
dashed
 70
   64
  3
-------   -------------   ------
 72
   65
 73
    2
 40
7.5
 49
6
 49
-1.5
  0
LTYPE
  2
dashed_spaced
 70
   64
  3
----        --------        ----
 72
   65
 73
    2
 40
12
 49
6
 49
-6
  0
LTYPE
  2
long_dashed_dotted
 70
   64
  3
------------- --- --------------
 72
   65
 73
    4
 40
15.25
 49
12
 49
-1.5
 49
0.25
 49
-1.5
  0
LTYPE
  2
long_dashed_double-dotted
 70
   64
  3
----------- --- --- ------------
 72
   65
 73
    6
 40
17
 49
12
 49
-1.5
 49
0.25
 49
-1.5
 49
0.25
 49
-1.5
  0
LTYPE
  2
long_dashed_triplicate-dotted
 70
   64
  3
--------- --- --- --- ----------
 72
   65
 73
    8
 40
18.75
 49
12
 49
-1.5
 49
0.25
 49
-1.5
 49
0.25
 49
-1.5
 49
0.25
 49
-1.5
  0
LTYPE
  2
dotted
 70
   64
  3
   -       -       -       -    
 72
   65
 73
    2
 40
1.75
 49
0.25
 49
-1.5
  0
LTYPE
  2
chain
 70
   64
  3
-------------- -- --------------
 72
   65
 73
    4
 40
18.5
 49
12
 49
-1.5
 49
3.5
 49
-1.5
  0
LTYPE
  2
chain_double_dash
 70
   64
  3
------------ -- -- -------------
 72
   65
 73
    6
 40
23.5
 49
12
 49
-1.5
 49
3.5
 49
-1.5
 49
3.5
 49
-1.5
  0
LTYPE
  2
dashed_dotted
 70
   64
  3
-----------     -     ----------
 72
   65
 73
    4
 40
9.25
 49
6
 49
-1.5
 49
0.25
 49
-1.5
  0
LTYPE
  2
double-dashed_dotted
 70
   64
  3
------   -----------   -   -----
 72
   65
 73
    6
 40
16.75
 49
6
 49
-1.5
 49
6
 49
-1.5
 49
0.25
 49
-1.5
  0
LTYPE
  2
dashed_double-dotted
 70
   64
  3
---------    -    -    ---------
 72
   65
 73
    6
 40
11
 49
6
 49
-1.5
 49
0.25
 49
-1.5
 49
0.25
 49
-1.5
  0
LTYPE
  2
double-dashed_double-dotted
 70
   64
  3
-----   ---------   -   -   ----
 72
   65
 73
    8
 40
18.5
 49
6
 49
-1.5
 49
6
 49
-1.5
 49
0.25
 49
-1.5
 49
0.25
 49
-1.5
  0
LTYPE
  2
dashed_triplicate-dotted
 70
   64
  3
-------    -    -    -    ------
 72
   65
 73
    8
 40
12.75
 49
6
 49
-1.5
 49
0.25
 49
-1.5
 49
0.25
 49
-1.5
 49
0.25
 49
-1.5
  0
LTYPE
  2
double-dashed_triplicate-dotted
 70
   64
  3
-----  ---------  -  -  -  -----
 72
   65
 73
   10
 40
20.25
 49
6
 49
-1.5
 49
6
 49
-1.5
 49
0.25
 49
-1.5
 49
0.25
 49
-1.5
 49
0.25
 49
-1.5
  0
LTYPE
  2
undefined
 70
   64
  3
--------------------------------
 72
   65
 73
    0
 40
0
  0
LTYPE
  2
_
 70
   64
  3
                                
 72
   65
 73
    0
 40
0
  0
LTYPE
  2
__18
 70
   64
  3
                                
 72
   65
 73
    0
 40
0
  0
LTYPE
  2
__19
 70
   64
  3
                                
 72
   65
 73
    0
 40
0
  0
LTYPE
  2
__20
 70
   64
  3
                                
 72
   65
 73
    0
 40
0
  0
LTYPE
  2
__21
 70
   64
  3
                                
 72
   65
 73
    0
 40
0
  0
LTYPE
  2
__22
 70
   64
  3
                                
 72
   65
 73
    0
 40
0
  0
LTYPE
  2
__23
 70
   64
  3
                                
 72
   65
 73
    0
 40
0
  0
LTYPE
  2
__24
 70
   64
  3
                                
 72
   65
 73
    0
 40
0
  0
LTYPE
  2
__25
 70
   64
  3
                                
 72
   65
 73
    0
 40
0
  0
LTYPE
  2
__26
 70
   64
  3
                                
 72
   65
 73
    0
 40
0
  0
LTYPE
  2
__27
 70
   64
  3
                                
 72
   65
 73
    0
 40
0
  0
LTYPE
  2
__28
 70
   64
  3
                                
 72
   65
 73
    0
 40
0
  0
LTYPE
  2
__29
 70
   64
  3
                                
 72
   65
 73
    0
 40
0
  0
LTYPE
  2
__30
 70
   64
  3
                                
 72
   65
 73
    0
 40
0
  0
LTYPE
  2
__31
 70
   64
  3
                                
 72
   65
 73
    0
 40
0
  0
LTYPE
  2
__32
 70
   64
  3
                                
 72
   65
 73
    0
 40
0
  0
ENDTAB
  0
TABLE
  2
STYLE
  5
3
100
AcDbSymbolTable
 70
     1
  0
STYLE
  5
10
100
AcDbSymbolTableRecord
100
AcDbTextStyleTableRecord
  2
STANDARD
 70
     0
 40
0.0
 41
1.0
 50
0.0
 71
     0
 42
0.2
  3
txt
  4
bigfont.shx
  0
STYLE
  5
26
100
AcDbSymbolTableRecord
100
AcDbTextStyleTableRecord
  2
TATEGAKI
 70
    68
 40
0.0
 41
1.0
 50
0.0
 71
     0
 42
1.0
  3
txt
  4
bigfont.shx
  0
ENDTAB
  0
TABLE
  2
LAYER
 70
    4
  0
LAYER
  2
_0-0_
 70
   64
 62
    7
  6
CONTINUOUS
  0
LAYER
  2
_0-1_
 70
   64
 62
    7
  6
CONTINUOUS
  0
LAYER
  2
_0-f_
 70
   64
 62
    7
  6
CONTINUOUS
  0
LAYER
  2
ADD_LINE
 70
   64
 62
    7
  6
CONTINUOUS
  0
ENDTAB
  0
ENDSEC
  0
SECTION
  2
BLOCKS
  0
ENDSEC
  0
SECTION
  2
ENTITIES
  0
LINE
  8
_0-0_
  6
CONTINUOUS
 62
    7
 10
18.597460918289357
 20
26.850098747410584
 11
18.597460918289357
 21
31.150098747410311
  0
LINE
  8
_0-0_
  6
CONTINUOUS
 62
    7
 10
18.597460918289357
 20
31.150098747410311
 11
18.29746091828963
 21
31.650098747410539
  0
LINE
  8
_0-0_
  6
CONTINUOUS
 62
    7
 10
18.29746091828963
 20
31.650098747410539
 11
18.29746091828963
 21
31.850098747410584
  0
LINE
  8
_0-0_
  6
CONTINUOUS
 62
    7
 10
17.997460918289903
 20
32.150098747410539
 11
11.997460918289448
 21
32.150098747410539
  0
LINE
  8
_0-0_
  6
CONTINUOUS
 62
    7
 10
11.697460918289721
 20
31.850098747410584
 11
11.697460918289721
 21
31.650098747410539
  0
LINE
  8
_0-0_
  6
CONTINUOUS
 62
    7
 10
11.697460918289721
 20
31.650098747410539
 11
11.397460918289539
 21
31.150098747410311
  0
LINE
  8
_0-0_
  6
CONTINUOUS
 62
    7
 10
11.397460918289539
 20
31.150098747410311
 11
11.397460918289539
 21
26.850098747410584
  0
LINE
  8
_0-0_
  6
CONTINUOUS
 62
    7
 10
12.197460918289721
 20
27.415784171083942
 11
12.197460918289721
 21
30.928518747410408
  0
LINE
  8
_0-0_
  6
CONTINUOUS
 62
    7
 10
12.197460918289721
 20
30.928518747410408
 11
12.450410918289776
 21
31.350098747410584
  0
LINE
  8
_0-0_
  6
CONTINUOUS
 62
    7
 10
12.450410918289776
 20
31.350098747410584
 11
17.544500918289827
 21
31.350098747410584
  0
LINE
  8
_0-0_
  6
CONTINUOUS
 62
    7
 10
17.544500918289827
 20
31.350098747410584
 11
17.79746091828963
 21
30.928518747410408
  0
LINE
  8
_0-0_
  6
CONTINUOUS
 62
    7
 10
17.79746091828963
 20
30.928518747410408
 11
17.79746091828963
 21
27.415784174574583
  0
ARC
  8
_0-0_
  6
CONTINUOUS
 62
    7
 10
11.997460918289448
 20
26.850098747410584
 40
0.5999999999999996
 50
180
 51
70.528779000000043
  0
ARC
  8
_0-0_
  6
CONTINUOUS
 62
    7
 10
17.997460918289903
 20
26.850098747410584
 40
0.5999999999999996
 50
109.47122000000003
 51
0.0000000000001705
  0
ARC
  8
_0-0_
  6
CONTINUOUS
 62
    7
 10
11.997460918289448
 20
31.850098747410584
 40
0.2999999999999998
 50
90
 51
180
  0
ARC
  8
_0-0_
  6
CONTINUOUS
 62
    7
 10
17.997460918289903
 20
31.850098747410584
 40
0.2999999999999998
 50
0
 51
90
  0
LINE
  8
_0-1_
  6
CENTER2
 62
  152
 10
14.997460918289448
 20
24.950078747410316
 11
14.997460918289448
 21
14.950078747410316
  0
LINE
  8
_0-1_
  6
CENTER2
 62
  152
 10
9.9974909182895999
 20
19.950098747410266
 11
19.997440918289499
 21
19.950098747410266
  0
LINE
  8
_0-1_
  6
PHANTOM1
 62
  152
 10
2.4974609182894483
 20
8.4500987474102658
 11
2.4974609182894483
 21
16.050098747410175
  0
LINE
  8
_0-1_
  6
PHANTOM1
 62
  152
 10
2.7974609182891754
 20
16.350098747410357
 11
3.9974609182894483
 21
16.350098747410357
  0
LINE
  8
_0-1_
  6
PHANTOM1
 62
  152
 10
4.2974609182891754
 20
16.050098747410402
 11
4.2974609182891754
 21
14.25009874741022
  0
LINE
  8
_0-1_
  6
PHANTOM1
 62
  152
 10
4.5974609182893573
 20
13.950098747410266
 11
7.3731968495775391
 21
13.950098747410266
  0
LINE
  8
_0-1_
  6
PHANTOM1
 62
  152
 10
7.5853288839333572
 20
14.037966713054402
 11
8.6095929526453574
 21
15.062230781766402
  0
LINE
  8
_0-1_
  6
PHANTOM1
 62
  152
 10
8.6974609182892664
 20
15.27436281612222
 11
8.6974609182892664
 21
24.625834678698311
  0
LINE
  8
_0-1_
  6
PHANTOM1
 62
  152
 10
8.6095929526453574
 20
24.837966713054357
 11
7.5853288839333572
 21
25.862230781766129
  0
LINE
  8
_0-1_
  6
PHANTOM1
 62
  152
 10
7.3731968495775391
 20
25.950098747410266
 11
4.5974609182893573
 21
25.950098747410266
  0
LINE
  8
_0-1_
  6
PHANTOM1
 62
  152
 10
4.2974609182891754
 20
25.650098747410311
 11
4.2974609182891754
 21
23.850098747410357
  0
LINE
  8
_0-1_
  6
PHANTOM1
 62
  152
 10
3.9974609182894483
 20
23.550098747410175
 11
2.7974609182891754
 21
23.550098747410175
  0
LINE
  8
_0-1_
  6
PHANTOM1
 62
  152
 10
2.4974609182894483
 20
23.850098747410357
 11
2.4974609182894483
 21
31.450098747410266
  0
LINE
  8
_0-1_
  6
PHANTOM1
 62
  152
 10
3.4974609182894483
 20
32.450098747410266
 11
11.097460918289357
 21
32.450098747410266
  0
LINE
  8
_0-1_
  6
PHANTOM1
 62
  152
 10
11.397460918289084
 20
32.150098747410084
 11
11.397460918289084
 21
30.950098747410266
  0
LINE
  8
_0-1_
  6
PHANTOM1
 62
  152
 10
11.097460918289357
 20
30.650098747410539
 11
9.2974609182891754
 21
30.650098747410539
  0
LINE
  8
_0-1_
  6
PHANTOM1
 62
  152
 10
8.9974609182894483
 20
30.350098747410357
 11
8.9974609182894483
 21
27.574362816122175
  0
LINE
  8
_0-1_
  6
PHANTOM1
 62
  152
 10
9.0853288839333572
 20
27.362230781766357
 11
10.109592952645357
 21
26.337966713054357
  0
LINE
  8
_0-1_
  6
PHANTOM1
 62
  152
 10
19.885328883933539
 20
26.337966713054357
 11
20.909592952645085
 21
27.362230781766357
  0
LINE
  8
_0-1_
  6
PHANTOM1
 62
  152
 10
20.997460918289448
 20
27.574362816122175
 11
20.997460918289448
 21
30.350098747410357
  0
LINE
  8
_0-1_
  6
PHANTOM1
 62
  152
 10
20.697460918289266
 20
30.650098747410539
 11
18.897460918289539
 21
30.650098747410539
  0
LINE
  8
_0-1_
  6
PHANTOM1
 62
  152
 10
18.597460918289357
 20
30.950098747410266
 11
18.597460918289357
 21
32.150098747410084
  0
LINE
  8
_0-1_
  6
PHANTOM1
 62
  152
 10
18.897460918289084
 20
32.450098747410266
 11
26.497460918289448
 21
32.450098747410266
  0
LINE
  8
_0-1_
  6
PHANTOM1
 62
  152
 10
27.497460918289448
 20
31.450098747410266
 11
27.497460918289448
 21
23.850098747410357
  0
LINE
  8
_0-1_
  6
PHANTOM1
 62
  152
 10
27.197460918289266
 20
23.550098747410175
 11
25.997460918289448
 21
23.550098747410175
  0
LINE
  8
_0-1_
  6
PHANTOM1
 62
  152
 10
25.697460918289721
 20
23.850098747410129
 11
25.697460918289721
 21
25.650098747410311
  0
LINE
  8
_0-1_
  6
PHANTOM1
 62
  152
 10
25.397460918289539
 20
25.950098747410266
 11
22.621724987001357
 21
25.950098747410266
  0
LINE
  8
_0-1_
  6
PHANTOM1
 62
  152
 10
22.409592952645539
 20
25.862230781766129
 11
21.385328883933539
 21
24.837966713054129
  0
LINE
  8
_0-1_
  6
PHANTOM1
 62
  152
 10
21.29746091828963
 20
24.625834678698311
 11
21.29746091828963
 21
15.27436281612222
  0
LINE
  8
_0-1_
  6
PHANTOM1
 62
  152
 10
21.385328883933539
 20
15.062230781766175
 11
22.409592952645539
 21
14.037966713054402
  0
LINE
  8
_0-1_
  6
PHANTOM1
 62
  152
 10
22.621724987001357
 20
13.950098747410266
 11
25.397460918289539
 21
13.950098747410266
  0
LINE
  8
_0-1_
  6
PHANTOM1
 62
  152
 10
25.697460918289721
 20
14.25009874741022
 11
25.697460918289721
 21
16.050098747410175
  0
LINE
  8
_0-1_
  6
PHANTOM1
 62
  152
 10
25.997460918289448
 20
16.350098747410357
 11
27.197460918289266
 21
16.350098747410357
  0
LINE
  8
_0-1_
  6
PHANTOM1
 62
  152
 10
27.497460918289448
 20
16.050098747410175
 11
27.497460918289448
 21
8.4500987474102658
  0
LINE
  8
_0-1_
  6
PHANTOM1
 62
  152
 10
26.497460918289448
 20
7.4500987474102658
 11
18.897460918289084
 21
7.4500987474102658
  0
LINE
  8
_0-1_
  6
PHANTOM1
 62
  152
 10
18.597460918289357
 20
7.7500987474102203
 11
18.597460918289357
 21
8.9500987474102658
  0
LINE
  8
_0-1_
  6
PHANTOM1
 62
  152
 10
18.897460918289084
 20
9.2500987474099929
 11
20.697460918289266
 21
9.2500987474099929
  0
LINE
  8
_0-1_
  6
PHANTOM1
 62
  152
 10
20.997460918289448
 20
9.5500987474101748
 11
20.997460918289448
 21
12.325834678698357
  0
LINE
  8
_0-1_
  6
PHANTOM1
 62
  152
 10
20.909592952645085
 20
12.537966713054175
 11
19.885328883933084
 21
13.562230781766175
  0
LINE
  8
_0-1_
  6
PHANTOM1
 62
  152
 10
10.109592952645357
 20
13.562230781766175
 11
9.0853288839333572
 21
12.537966713054175
  0
LINE
  8
_0-1_
  6
PHANTOM1
 62
  152
 10
8.9974609182894483
 20
12.325834678698357
 11
8.9974609182894483
 21
9.5500987474101748
  0
LINE
  8
_0-1_
  6
PHANTOM1
 62
  152
 10
9.2974609182891754
 20
9.2500987474099929
 11
11.097460918289357
 21
9.2500987474099929
  0
LINE
  8
_0-1_
  6
PHANTOM1
 62
  152
 10
11.397460918289084
 20
8.9500987474102658
 11
11.397460918289084
 21
7.7500987474102203
  0
LINE
  8
_0-1_
  6
PHANTOM1
 62
  152
 10
11.097460918289357
 20
7.4500987474102658
 11
3.4974609182894483
 21
7.4500987474102658
  0
ARC
  8
_0-1_
  6
PHANTOM1
 62
  152
 10
3.4974609182894483
 20
31.450098747410266
 40
1
 50
90
 51
180
  0
ARC
  8
_0-1_
  6
PHANTOM1
 62
  152
 10
26.497460918289448
 20
31.450098747410266
 40
1
 50
0
 51
90.000000000000028
  0
ARC
  8
_0-1_
  6
PHANTOM1
 62
  152
 10
26.497460918289448
 20
8.4500987474102658
 40
1
 50
270
 51
0
  0
ARC
  8
_0-1_
  6
PHANTOM1
 62
  152
 10
3.4974609182894483
 20
8.4500987474102658
 40
1
 50
180
 51
270
  0
ARC
  8
_0-1_
  6
PHANTOM1
 62
  152
 10
11.097460918289357
 20
32.150098747410084
 40
0.2999999999999998
 50
0
 51
90.000000000000028
  0
ARC
  8
_0-1_
  6
PHANTOM1
 62
  152
 10
18.897460918289084
 20
32.150098747410084
 40
0.2999999999999998
 50
90
 51
180
  0
ARC
  8
_0-1_
  6
PHANTOM1
 62
  152
 10
2.7974609182891754
 20
23.850098747410357
 40
0.2999999999999998
 50
180
 51
270
  0
ARC
  8
_0-1_
  6
PHANTOM1
 62
  152
 10
2.7974609182891754
 20
16.050098747410175
 40
0.2999999999999998
 50
90
 51
180
  0
ARC
  8
_0-1_
  6
PHANTOM1
 62
  152
 10
27.197460918289266
 20
23.850098747410357
 40
0.2999999999999998
 50
270
 51
0
  0
ARC
  8
_0-1_
  6
PHANTOM1
 62
  152
 10
27.197460918289266
 20
16.050098747410175
 40
0.2999999999999998
 50
0
 51
90.000000000000028
  0
ARC
  8
_0-1_
  6
PHANTOM1
 62
  152
 10
18.897460918289084
 20
7.7500987474102203
 40
0.2999999999999998
 50
180
 51
270
  0
ARC
  8
_0-1_
  6
PHANTOM1
 62
  152
 10
11.097460918289357
 20
7.7500987474102203
 40
0.2999999999999998
 50
270
 51
0
  0
ARC
  8
_0-1_
  6
PHANTOM1
 62
  152
 10
18.897460918289084
 20
8.9500987474102658
 40
0.2999999999999998
 50
90
 51
180
  0
ARC
  8
_0-1_
  6
PHANTOM1
 62
  152
 10
20.697460918289266
 20
9.5500987474101748
 40
0.2999999999999998
 50
270
 51
0
  0
ARC
  8
_0-1_
  6
PHANTOM1
 62
  152
 10
20.697460918289266
 20
12.325834678698357
 40
0.2999999999999998
 50
0
 51
45
  0
ARC
  8
_0-1_
  6
PHANTOM1
 62
  152
 10
19.673196849577266
 20
13.350098747409902
 40
0.2999999999999998
 50
45.000000000000384
 51
90
  0
ARC
  8
_0-1_
  6
PHANTOM1
 62
  152
 10
9.2974609182891754
 20
12.325834678698357
 40
0.2999999999999998
 50
134.99999999999963
 51
180.00000000000011
  0
ARC
  8
_0-1_
  6
PHANTOM1
 62
  152
 10
9.2974609182891754
 20
9.5500987474101748
 40
0.2999999999999998
 50
180
 51
270
  0
ARC
  8
_0-1_
  6
PHANTOM1
 62
  152
 10
11.097460918289357
 20
8.9500987474102658
 40
0.2999999999999998
 50
0
 51
90
  0
ARC
  8
_0-1_
  6
PHANTOM1
 62
  152
 10
10.321724987001176
 20
13.350098747409902
 40
0.2999999999999998
 50
90
 51
135
  0
ARC
  8
_0-1_
  6
PHANTOM1
 62
  152
 10
25.997460918289448
 20
23.850098747410129
 40
0.2999999999999998
 50
180
 51
270
  0
ARC
  8
_0-1_
  6
PHANTOM1
 62
  152
 10
25.397460918289539
 20
25.650098747410311
 40
0.2999999999999998
 50
0
 51
90
  0
ARC
  8
_0-1_
  6
PHANTOM1
 62
  152
 10
22.621724987001357
 20
25.650098747410311
 40
0.2999999999999998
 50
90
 51
135
  0
ARC
  8
_0-1_
  6
PHANTOM1
 62
  152
 10
21.597460918289812
 20
24.625834678698311
 40
0.2999999999999998
 50
135.00000000000037
 51
180
  0
ARC
  8
_0-1_
  6
PHANTOM1
 62
  152
 10
22.621724987001357
 20
14.25009874741022
 40
0.2999999999999998
 50
224.99999999999963
 51
270
  0
ARC
  8
_0-1_
  6
PHANTOM1
 62
  152
 10
25.397460918289539
 20
14.25009874741022
 40
0.2999999999999998
 50
270
 51
0
  0
ARC
  8
_0-1_
  6
PHANTOM1
 62
  152
 10
25.997460918289448
 20
16.050098747410175
 40
0.2999999999999998
 50
90
 51
180
  0
ARC
  8
_0-1_
  6
PHANTOM1
 62
  152
 10
21.597460918289812
 20
15.27436281612222
 40
0.2999999999999998
 50
180
 51
225
  0
ARC
  8
_0-1_
  6
PHANTOM1
 62
  152
 10
11.097460918289357
 20
30.950098747410266
 40
0.2999999999999998
 50
270
 51
0
  0
ARC
  8
_0-1_
  6
PHANTOM1
 62
  152
 10
9.2974609182891754
 20
30.350098747410357
 40
0.2999999999999998
 50
90
 51
180
  0
ARC
  8
_0-1_
  6
PHANTOM1
 62
  152
 10
9.2974609182891754
 20
27.574362816122175
 40
0.2999999999999998
 50
180
 51
225
  0
ARC
  8
_0-1_
  6
PHANTOM1
 62
  152
 10
10.321724987001176
 20
26.55009874741063
 40
0.2999999999999998
 50
225.00000000000037
 51
270
  0
ARC
  8
_0-1_
  6
PHANTOM1
 62
  152
 10
20.697460918289266
 20
27.574362816122175
 40
0.2999999999999998
 50
314.99999999999966
 51
0
  0
ARC
  8
_0-1_
  6
PHANTOM1
 62
  152
 10
20.697460918289266
 20
30.350098747410357
 40
0.2999999999999998
 50
0
 51
90
  0
ARC
  8
_0-1_
  6
PHANTOM1
 62
  152
 10
18.897460918289539
 20
30.950098747410266
 40
0.2999999999999998
 50
180
 51
270
  0
ARC
  8
_0-1_
  6
PHANTOM1
 62
  152
 10
19.673196849577266
 20
26.55009874741063
 40
0.2999999999999998
 50
270
 51
315
  0
ARC
  8
_0-1_
  6
PHANTOM1
 62
  152
 10
3.9974609182894483
 20
16.050098747410402
 40
0.2999999999999998
 50
0
 51
90
  0
ARC
  8
_0-1_
  6
PHANTOM1
 62
  152
 10
4.5974609182893573
 20
14.25009874741022
 40
0.2999999999999998
 50
180
 51
270
  0
ARC
  8
_0-1_
  6
PHANTOM1
 62
  152
 10
7.3731968495775391
 20
14.25009874741022
 40
0.2999999999999998
 50
270
 51
315
  0
ARC
  8
_0-1_
  6
PHANTOM1
 62
  152
 10
8.3974609182890845
 20
15.27436281612222
 40
0.2999999999999998
 50
315.0000000000004
 51
0.0000000000000063
  0
ARC
  8
_0-1_
  6
PHANTOM1
 62
  152
 10
7.3731968495775391
 20
25.650098747410311
 40
0.2999999999999998
 50
44.999999999999652
 51
90.000000000000028
  0
ARC
  8
_0-1_
  6
PHANTOM1
 62
  152
 10
4.5974609182893573
 20
25.650098747410311
 40
0.2999999999999998
 50
90
 51
180
  0
ARC
  8
_0-1_
  6
PHANTOM1
 62
  152
 10
3.9974609182894483
 20
23.850098747410357
 40
0.2999999999999998
 50
270
 51
0
  0
ARC
  8
_0-1_
  6
PHANTOM1
 62
  152
 10
8.3974609182890845
 20
24.625834678698311
 40
0.2999999999999998
 50
0
 51
45
  0
LINE
  8
_0-1_
  6
PHANTOM1
 62
  152
 10
10.321724987001176
 20
26.250098747410448
 11
19.673196849577266
 21
26.250098747410448
  0
LINE
  8
_0-1_
  6
PHANTOM1
 62
  152
 10
19.673196849577266
 20
13.650098747410084
 11
10.321724987001176
 21
13.650098747410084
  0
TEXT
  8
_0-f_
 62
    7
 10
1.0165548065363055
 20
1.7087152346598486
 40
4.2999999999999998
 41
0.744186046511628
 50
0
  1
SC2S,G,B
  0
ENDSEC
  0
EOF
