  0
SECTION
  2
HEADER
  9
$ACADVER
  1
AC1009
  9
$INSBASE
 10
0
 20
0
 30
0
  9
$EXTMIN
 10
0
 20
0
  9
$EXTMAX
 10
1189
 20
841
  9
$LIMMIN
 10
0
 20
0
  9
$LIMMAX
 10
1189
 20
841
  9
$LTSCALE
 40
1
  0
ENDSEC
  0
SECTION
  2
TABLES
  0
TABLE
  2
LTYPE
 70
     9
  0
LTYPE
  2
CONTINUOUS
 70
    64
  3
実線
 72
    65
 73
     0
 40
0.0
  0
LTYPE
  2
DASHED1
 70
    64
  3
--  --  --  --  --  --  --  --  
 72
    65
 73
     2
 40
2.5
 49
1.25
 49
-1.25
  0
LTYPE
  2
DASHED2
 70
    64
  3
----    ----    ----    ----    
 72
    65
 73
     2
 40
5.0
 49
2.5
 49
-2.5
  0
LTYPE
  2
DASHED3
 70
    64
  3
------  ------  ------  ------  
 72
    65
 73
     2
 40
5.0
 49
3.75
 49
-1.25
  0
LTYPE
  2
CENTER1
 70
    64
  3
----- - ----- - ----- - ----- - 
 72
    65
 73
     4
 40
10.0
 49
6.25
 49
-1.25
 49
1.25
 49
-1.25
  0
LTYPE
  2
CENTER2
 70
    64
  3
----------  --  ----------  --  
 72
    65
 73
     4
 40
20.0
 49
12.5
 49
-2.5
 49
2.5
 49
-2.5
  0
LTYPE
  2
PHANTOM1
 70
    64
  3
--- - - --- - - --- - - --- - - 
 72
    65
 73
     6
 40
10.0
 49
3.25
 49
-1.25
 49
1.25
 49
-1.25
 49
1.25
 49
-1.25
  0
LTYPE
  2
PHANTOM2
 70
    64
  3
--------  -  -  --------  -  -  
 72
    65
 73
     6
 40
20.0
 49
10.0
 49
-2.5
 49
1.25
 49
-2.5
 49
1.25
 49
-2.5
  0
LTYPE
  2
DOT
 70
    64
  3
-   -   -   -   -   -   -   -   
 72
    65
 73
     2
 40
2.5
 49
0.625
 49
-1.875
  0
LTYPE
  2
DUMMY
 70
    64
  3
ダミー
 72
    65
 73
     0
 40
0.0
  0
LTYPE
  2
RAND1
 70
    64
  3
ランダム線1
 72
    65
 73
     4
 40
10.0
 49
1.0
 49
-2.0
 49
3.0
 49
-4.0
  0
LTYPE
  2
RAND2
 70
    64
  3
ランダム線2
 72
    65
 73
     4
 40
14.0
 49
2.0
 49
-3.0
 49
4.0
 49
-5.0
  0
LTYPE
  2
RAND3
 70
    64
  3
ランダム線3
 72
    65
 73
     4
 40
18.0
 49
3.0
 49
-4.0
 49
5.0
 49
-6.0
  0
LTYPE
  2
RAND4
 70
    64
  3
ランダム線4
 72
    65
 73
     4
 40
22.0
 49
4.0
 49
-5.0
 49
6.0
 49
-7.0
  0
LTYPE
  2
RAND5
 70
    64
  3
ランダム線5
 72
    65
 73
     4
 40
26.0
 49
5.0
 49
-6.0
 49
7.0
 49
-8.0
  0
LTYPE
  2
LONG1
 70
    64
  3
----------  --  ----------  --  
 72
    65
 73
     4
 40
40.0
 49
32.5
 49
-2.5
 49
2.5
 49
-2.5
  0
LTYPE
  2
LONG2
 70
    64
  3
--------  -  -  --------  -  -  
 72
    65
 73
     6
 40
40.0
 49
30.0
 49
-2.5
 49
1.25
 49
-2.5
 49
1.25
 49
-2.5
  0
LTYPE
  2
LONG3
 70
    64
  3
+++++++++++++++..+++++++++++++++
 72
    65
 73
     2
 40
40.0
 49
37.5
 49
-2.5
  0
LTYPE
  2
LONG4
 70
    64
  3
+++++++++++++++..+++++++++++++++
 72
    65
 73
     2
 40
80.0
 49
75.0
 49
-5.0
  0
LTYPE
  2
LONG5
 70
    64
  3
----------  --  ----------  --  
 72
    65
 73
     4
 40
60.0
 49
37.5
 49
-7.5
 49
7.5
 49
-7.5
  0
LTYPE
  2
dashed
 70
   64
  3
-------   -------------   ------
 72
   65
 73
    2
 40
7.5
 49
6
 49
-1.5
  0
LTYPE
  2
dashed_spaced
 70
   64
  3
----        --------        ----
 72
   65
 73
    2
 40
12
 49
6
 49
-6
  0
LTYPE
  2
long_dashed_dotted
 70
   64
  3
------------- --- --------------
 72
   65
 73
    4
 40
15.25
 49
12
 49
-1.5
 49
0.25
 49
-1.5
  0
LTYPE
  2
long_dashed_double-dotted
 70
   64
  3
----------- --- --- ------------
 72
   65
 73
    6
 40
17
 49
12
 49
-1.5
 49
0.25
 49
-1.5
 49
0.25
 49
-1.5
  0
LTYPE
  2
long_dashed_triplicate-dotted
 70
   64
  3
--------- --- --- --- ----------
 72
   65
 73
    8
 40
18.75
 49
12
 49
-1.5
 49
0.25
 49
-1.5
 49
0.25
 49
-1.5
 49
0.25
 49
-1.5
  0
LTYPE
  2
dotted
 70
   64
  3
   -       -       -       -    
 72
   65
 73
    2
 40
1.75
 49
0.25
 49
-1.5
  0
LTYPE
  2
chain
 70
   64
  3
-------------- -- --------------
 72
   65
 73
    4
 40
18.5
 49
12
 49
-1.5
 49
3.5
 49
-1.5
  0
LTYPE
  2
chain_double_dash
 70
   64
  3
------------ -- -- -------------
 72
   65
 73
    6
 40
23.5
 49
12
 49
-1.5
 49
3.5
 49
-1.5
 49
3.5
 49
-1.5
  0
LTYPE
  2
dashed_dotted
 70
   64
  3
-----------     -     ----------
 72
   65
 73
    4
 40
9.25
 49
6
 49
-1.5
 49
0.25
 49
-1.5
  0
LTYPE
  2
double-dashed_dotted
 70
   64
  3
------   -----------   -   -----
 72
   65
 73
    6
 40
16.75
 49
6
 49
-1.5
 49
6
 49
-1.5
 49
0.25
 49
-1.5
  0
LTYPE
  2
dashed_double-dotted
 70
   64
  3
---------    -    -    ---------
 72
   65
 73
    6
 40
11
 49
6
 49
-1.5
 49
0.25
 49
-1.5
 49
0.25
 49
-1.5
  0
LTYPE
  2
double-dashed_double-dotted
 70
   64
  3
-----   ---------   -   -   ----
 72
   65
 73
    8
 40
18.5
 49
6
 49
-1.5
 49
6
 49
-1.5
 49
0.25
 49
-1.5
 49
0.25
 49
-1.5
  0
LTYPE
  2
dashed_triplicate-dotted
 70
   64
  3
-------    -    -    -    ------
 72
   65
 73
    8
 40
12.75
 49
6
 49
-1.5
 49
0.25
 49
-1.5
 49
0.25
 49
-1.5
 49
0.25
 49
-1.5
  0
LTYPE
  2
double-dashed_triplicate-dotted
 70
   64
  3
-----  ---------  -  -  -  -----
 72
   65
 73
   10
 40
20.25
 49
6
 49
-1.5
 49
6
 49
-1.5
 49
0.25
 49
-1.5
 49
0.25
 49
-1.5
 49
0.25
 49
-1.5
  0
LTYPE
  2
undefined
 70
   64
  3
--------------------------------
 72
   65
 73
    0
 40
0
  0
ENDTAB
  0
TABLE
  2
STYLE
  5
3
100
AcDbSymbolTable
 70
     1
  0
STYLE
  5
10
100
AcDbSymbolTableRecord
100
AcDbTextStyleTableRecord
  2
STANDARD
 70
     0
 40
0.0
 41
1.0
 50
0.0
 71
     0
 42
0.2
  3
txt
  4
bigfont.shx
  0
STYLE
  5
26
100
AcDbSymbolTableRecord
100
AcDbTextStyleTableRecord
  2
TATEGAKI
 70
    68
 40
0.0
 41
1.0
 50
0.0
 71
     0
 42
1.0
  3
txt
  4
bigfont.shx
  0
ENDTAB
  0
TABLE
  2
LAYER
 70
    4
  0
LAYER
  2
_0-0_
 70
   64
 62
    7
  6
CONTINUOUS
  0
LAYER
  2
_0-1_
 70
   64
 62
    7
  6
CONTINUOUS
  0
LAYER
  2
_0-f_
 70
   64
 62
    7
  6
CONTINUOUS
  0
LAYER
  2
ADD_LINE
 70
   64
 62
    7
  6
CONTINUOUS
  0
ENDTAB
  0
ENDSEC
  0
SECTION
  2
BLOCKS
  0
ENDSEC
  0
SECTION
  2
ENTITIES
  0
TEXT
  8
_0-f_
 62
    7
 10
1.2094170296784341
 20
0.4866034763696234
 40
4.2999999999999998
 41
0.744186046511628
 50
0
  1
SA40
  0
LINE
  8
_0-0_
  6
CONTINUOUS
 62
    7
 10
174.27917252567164
 20
159.220400451675
 11
176.56115304101155
 21
156.93841993633555
  0
LINE
  8
_0-0_
  6
CONTINUOUS
 62
    7
 10
177.43983269745155
 20
142.5597402798951
 11
179.73983269745173
 21
133.97602342248592
  0
LINE
  8
_0-0_
  6
CONTINUOUS
 62
    7
 10
179.73983269745173
 20
133.97602342248592
 11
179.73983269745173
 21
62.059740279895038
  0
LINE
  8
_0-0_
  6
CONTINUOUS
 62
    7
 10
179.43983269745155
 20
62.059740279895038
 11
183.93983269745155
 21
62.059740279895038
  0
LINE
  8
_0-0_
  6
CONTINUOUS
 62
    7
 10
182.93983269745155
 20
62.059740279895038
 11
182.93983269745155
 21
130.5597402798951
  0
LINE
  8
_0-0_
  6
CONTINUOUS
 62
    7
 10
185.93983269745155
 20
133.5597402798951
 11
188.95177139566937
 21
133.5597402798951
  0
LINE
  8
_0-0_
  6
CONTINUOUS
 62
    7
 10
190.8674239661114
 20
134.98504450876226
 11
193.35548526789358
 21
143.27858218136953
  0
LINE
  8
_0-0_
  6
CONTINUOUS
 62
    7
 10
193.43983269745155
 20
143.85327795250214
 11
193.43983269745155
 21
155.23131315514934
  0
LINE
  8
_0-0_
  6
CONTINUOUS
 62
    7
 10
194.02561913507822
 20
156.64552671752244
 11
196.35404625982397
 21
158.9739538422682
  0
LINE
  8
_0-0_
  6
CONTINUOUS
 62
    7
 10
196.9398326974511
 20
160.38816740464131
 11
196.9398326974511
 21
167.55974027989507
  0
LINE
  8
_0-0_
  6
CONTINUOUS
 62
    7
 10
194.9398326974511
 20
169.55974027989507
 11
191.93983269745155
 21
169.55974027989507
  0
LINE
  8
_0-0_
  6
CONTINUOUS
 62
    7
 10
191.93983269745155
 20
169.55974027989507
 11
189.93983269745155
 21
167.55974027989529
  0
LINE
  8
_0-0_
  6
CONTINUOUS
 62
    7
 10
189.93983269745155
 20
167.55974027989529
 11
189.93983269745155
 21
166.1597402798952
  0
LINE
  8
_0-0_
  6
CONTINUOUS
 62
    7
 10
190.43983269745155
 20
165.6597402798952
 11
191.83983269745119
 21
165.6597402798952
  0
LINE
  8
_0-0_
  6
CONTINUOUS
 62
    7
 10
192.83983269745119
 20
164.6597402798952
 11
192.83983269745119
 21
162.64345713730336
  0
LINE
  8
_0-0_
  6
CONTINUOUS
 62
    7
 10
192.33983269745119
 20
161.77743173351882
 11
186.93983269745155
 21
158.65974027989523
  0
LINE
  8
_0-0_
  6
CONTINUOUS
 62
    7
 10
186.93983269745155
 20
158.65974027989523
 11
186.93983269745155
 21
136.5597402798951
  0
LINE
  8
_0-0_
  6
CONTINUOUS
 62
    7
 10
186.93983269745155
 20
136.5597402798951
 11
185.93983269745155
 21
136.5597402798951
  0
LINE
  8
_0-0_
  6
CENTER1
 62
    7
 10
193.43983269745155
 20
149.5597402798951
 11
177.43983269745155
 21
149.5597402798951
  0
LINE
  8
_0-0_
  6
CONTINUOUS
 62
    7
 10
177.43983269745155
 20
154.81709959277555
 11
177.43983269745155
 21
64.059740279895038
  0
LINE
  8
_0-0_
  6
CONTINUOUS
 62
    7
 10
185.93983269745155
 20
64.059740279895038
 11
185.93983269745155
 21
157.83486914929858
  0
LINE
  8
_0-0_
  6
CONTINUOUS
 62
    7
 10
186.08983269745119
 20
158.09467677043381
 11
186.93983269745155
 21
158.58542449924494
  0
LINE
  8
_0-0_
  6
CONTINUOUS
 62
    7
 10
189.83983269745164
 20
160.33405606054509
 11
189.83983269745164
 21
162.0597402798951
  0
LINE
  8
_0-0_
  6
CONTINUOUS
 62
    7
 10
189.83983269745164
 20
162.0597402798951
 11
177.43983269745155
 21
162.0597402798951
  0
LINE
  8
_0-0_
  6
CONTINUOUS
 62
    7
 10
177.43983269745155
 20
162.0597402798951
 11
177.43983269745155
 21
166.05974027989507
  0
LINE
  8
_0-0_
  6
CONTINUOUS
 62
    7
 10
177.43983269745155
 20
166.05974027989507
 11
175.83983269745164
 21
166.05974027989507
  0
LINE
  8
_0-0_
  6
CONTINUOUS
 62
    7
 10
173.83983269745164
 20
164.0597402798951
 11
173.83983269745164
 21
160.28106062345455
  0
ARC
  8
_0-0_
  6
CONTINUOUS
 62
    7
 10
185.93983269745155
 20
130.5597402798951
 40
3
 50
90
 51
180
  0
ARC
  8
_0-0_
  6
CONTINUOUS
 62
    7
 10
175.83983269745164
 20
164.0597402798951
 40
2
 50
90
 51
180
  0
ARC
  8
_0-0_
  6
CONTINUOUS
 62
    7
 10
174.43983269745155
 20
154.81709959277555
 40
3
 50
0
 51
44.999999999999616
  0
ARC
  8
_0-0_
  6
CONTINUOUS
 62
    7
 10
175.33983269745164
 20
160.28106062345455
 40
1.5
 50
180
 51
225.00000000000449
  0
ARC
  8
_0-0_
  6
CONTINUOUS
 62
    7
 10
186.23983269745128
 20
157.83486914929858
 40
0.2999999999999999
 50
120.00000000000104
 51
180
  0
ARC
  8
_0-0_
  6
CONTINUOUS
 62
    7
 10
191.83983269745119
 20
164.6597402798952
 40
1
 50
0.000000000000007
 51
90.000000000000043
  0
ARC
  8
_0-0_
  6
CONTINUOUS
 62
    7
 10
190.43983269745155
 20
166.1597402798952
 40
0.5
 50
180
 51
270
  0
ARC
  8
_0-0_
  6
CONTINUOUS
 62
    7
 10
188.95177139566937
 20
135.5597402798951
 40
2
 50
270
 51
343.30075576600638
  0
ARC
  8
_0-0_
  6
CONTINUOUS
 62
    7
 10
191.43983269745155
 20
143.85327795250214
 40
2
 50
343.30075576600643
 51
0.0000000000000159
  0
ARC
  8
_0-0_
  6
CONTINUOUS
 62
    7
 10
191.83983269745119
 20
162.64345713730336
 40
1
 50
299.99999999999955
 51
0.0000000000000127
  0
ARC
  8
_0-0_
  6
CONTINUOUS
 62
    7
 10
194.9398326974511
 20
167.55974027989507
 40
2
 50
0
 51
90.000000000000028
  0
ARC
  8
_0-0_
  6
CONTINUOUS
 62
    7
 10
195.43983269745155
 20
155.23131315514934
 40
2
 50
135
 51
180
  0
ARC
  8
_0-0_
  6
CONTINUOUS
 62
    7
 10
194.9398326974511
 20
160.38816740464131
 40
2
 50
315
 51
0
  0
ARC
  8
_0-0_
  6
CONTINUOUS
 62
    7
 10
179.43983269745155
 20
64.059740279895038
 40
2
 50
180
 51
270
  0
ARC
  8
_0-0_
  6
CONTINUOUS
 62
    7
 10
183.93983269745155
 20
64.059740279895038
 40
2
 50
270
 51
0
  0
LINE
  8
_0-0_
  6
CONTINUOUS
 62
    7
 10
143.47324110078341
 20
163.0597402798951
 11
143.47324110078341
 21
151.04502165413373
  0
LINE
  8
_0-0_
  6
CONTINUOUS
 62
    7
 10
78.473241100783412
 20
148.11636460692091
 11
78.473241100783412
 21
151.00311595286917
  0
LINE
  8
_0-0_
  6
CONTINUOUS
 62
    7
 10
78.473241100783412
 20
151.00311595286917
 11
75.973241100783412
 21
152.44649162584324
  0
LINE
  8
_0-0_
  6
CONTINUOUS
 62
    7
 10
75.973241100783412
 20
152.44649162584324
 11
73.473241100783412
 21
151.00311595286917
  0
LINE
  8
_0-0_
  6
CONTINUOUS
 62
    7
 10
73.473241100783412
 20
151.00311595286917
 11
73.473241100783412
 21
148.11636460692091
  0
LINE
  8
_0-0_
  6
CONTINUOUS
 62
    7
 10
73.473241100783412
 20
148.11636460692091
 11
75.973241100783412
 21
146.67298893394684
  0
LINE
  8
_0-0_
  6
CONTINUOUS
 62
    7
 10
75.973241100783412
 20
146.67298893394684
 11
78.473241100783412
 21
148.11636460692091
  0
LINE
  8
_0-0_
  6
CONTINUOUS
 62
    7
 10
53.473241100783412
 20
128.11636460692091
 11
55.973241100783412
 21
126.67298893394684
  0
LINE
  8
_0-0_
  6
CONTINUOUS
 62
    7
 10
55.973241100783412
 20
126.67298893394684
 11
58.473241100783412
 21
128.11636460692091
  0
LINE
  8
_0-0_
  6
CONTINUOUS
 62
    7
 10
58.473241100783412
 20
128.11636460692091
 11
58.473241100783412
 21
131.00311595286905
  0
LINE
  8
_0-0_
  6
CONTINUOUS
 62
    7
 10
58.473241100783412
 20
131.00311595286905
 11
55.973241100783412
 21
132.44649162584312
  0
LINE
  8
_0-0_
  6
CONTINUOUS
 62
    7
 10
55.973241100783412
 20
132.44649162584312
 11
53.473241100783412
 21
131.00311595286905
  0
LINE
  8
_0-0_
  6
CONTINUOUS
 62
    7
 10
53.473241100783412
 20
131.00311595286905
 11
53.473241100783412
 21
128.11636460692091
  0
LINE
  8
_0-0_
  6
CONTINUOUS
 62
    7
 10
140.47324110078341
 20
166.05974027989507
 11
49.958521100783287
 21
166.05974027989507
  0
LINE
  8
_0-0_
  6
CONTINUOUS
 62
    7
 10
45.715881100783349
 20
164.30238027989503
 11
41.230601100783474
 21
159.81710027989516
  0
LINE
  8
_0-0_
  6
CONTINUOUS
 62
    7
 10
42.473241100783412
 20
62.059740279895038
 11
54.487961100783536
 21
62.059740279895038
  0
LINE
  8
_0-0_
  6
CONTINUOUS
 62
    7
 10
58.730601100783474
 20
63.817100279894646
 11
141.71588178790296
 21
146.8023809670143
  0
LINE
  8
_0-0_
  6
CONTINUOUS
 62
    7
 10
123.47324110078341
 20
148.11636460692091
 11
123.47324110078341
 21
151.00311595286917
  0
LINE
  8
_0-0_
  6
CONTINUOUS
 62
    7
 10
123.47324110078341
 20
151.00311595286917
 11
125.97324110078341
 21
152.44649162584324
  0
LINE
  8
_0-0_
  6
CONTINUOUS
 62
    7
 10
125.97324110078341
 20
152.44649162584324
 11
128.47324110078341
 21
151.00311595286917
  0
LINE
  8
_0-0_
  6
CONTINUOUS
 62
    7
 10
128.47324110078341
 20
151.00311595286917
 11
128.47324110078341
 21
148.11636460692091
  0
LINE
  8
_0-0_
  6
CONTINUOUS
 62
    7
 10
128.47324110078341
 20
148.11636460692091
 11
125.97324110078387
 21
146.67298893394684
  0
LINE
  8
_0-0_
  6
CONTINUOUS
 62
    7
 10
125.97324110078341
 20
146.67298893394684
 11
123.47324110078341
 21
148.11636460692091
  0
LINE
  8
_0-1_
  6
CONTINUOUS
 62
    7
 10
105.5294811007833
 20
121.94640027989516
 11
108.35791110078333
 21
119.11797027989468
  0
LINE
  8
_0-1_
  6
CONTINUOUS
 62
    7
 10
108.35791110078333
 20
117.70376027989522
 11
87.829231100783431
 21
97.175080279895326
  0
LINE
  8
_0-1_
  6
CONTINUOUS
 62
    7
 10
86.415011100783317
 20
97.175080279895326
 11
83.586591100783494
 21
100.00350027989515
  0
LINE
  8
_0-1_
  6
CONTINUOUS
 62
    7
 10
83.586591100783494
 20
101.41772027989526
 11
104.11527110078339
 21
121.94640027989516
  0
LINE
  8
_0-1_
  6
CONTINUOUS
 62
    7
 10
104.66273110078362
 20
120.64770027989533
 11
105.09166110078365
 21
120.21877027989484
  0
LINE
  8
_0-1_
  6
CONTINUOUS
 62
    7
 10
105.09166110078365
 20
120.21877027989484
 11
104.01934110078344
 21
119.14645027989508
  0
LINE
  8
_0-1_
  6
CONTINUOUS
 62
    7
 10
104.01934110078344
 20
119.14645027989508
 11
104.57730110078353
 21
118.58849027989498
  0
LINE
  8
_0-1_
  6
CONTINUOUS
 62
    7
 10
104.57730110078353
 20
118.58849027989498
 11
105.53472110078371
 21
119.54592027989537
  0
LINE
  8
_0-1_
  6
CONTINUOUS
 62
    7
 10
105.53472110078371
 20
119.54592027989537
 11
105.93736110078351
 21
119.14328027989512
  0
LINE
  8
_0-1_
  6
CONTINUOUS
 62
    7
 10
105.93736110078351
 20
119.14328027989512
 11
104.97994110078332
 21
118.18585027989474
  0
LINE
  8
_0-1_
  6
CONTINUOUS
 62
    7
 10
104.97994110078332
 20
118.18585027989474
 11
105.56748110078331
 21
117.5983102798952
  0
LINE
  8
_0-1_
  6
CONTINUOUS
 62
    7
 10
105.56748110078331
 20
117.5983102798952
 11
106.63980110078353
 21
118.67062027989522
  0
LINE
  8
_0-1_
  6
CONTINUOUS
 62
    7
 10
106.63980110078353
 20
118.67062027989522
 11
107.06873110078357
 21
118.24169027989473
  0
LINE
  8
_0-1_
  6
CONTINUOUS
 62
    7
 10
107.06873110078357
 20
118.24169027989473
 11
105.39643110078339
 21
116.569390279895
  0
LINE
  8
_0-1_
  6
CONTINUOUS
 62
    7
 10
105.39643110078339
 20
116.569390279895
 11
102.99042110078369
 21
118.97539027989495
  0
LINE
  8
_0-1_
  6
CONTINUOUS
 62
    7
 10
102.99042110078369
 20
118.97539027989495
 11
104.66273110078362
 21
120.64770027989533
  0
LINE
  8
_0-1_
  6
CONTINUOUS
 62
    7
 10
102.65852110078356
 20
118.64349027989527
 11
102.02291110078329
 21
118.00788027989501
  0
LINE
  8
_0-1_
  6
CONTINUOUS
 62
    7
 10
102.02291110078329
 20
118.00788027989501
 11
103.26565110078343
 21
116.18533027989514
  0
LINE
  8
_0-1_
  6
CONTINUOUS
 62
    7
 10
103.26565110078343
 20
116.18533027989514
 11
101.44310110078357
 21
117.42807027989528
  0
LINE
  8
_0-1_
  6
CONTINUOUS
 62
    7
 10
101.44310110078357
 20
117.42807027989528
 11
100.8074911007833
 21
116.79246027989501
  0
LINE
  8
_0-1_
  6
CONTINUOUS
 62
    7
 10
100.8074911007833
 20
116.79246027989501
 11
103.21350110078345
 21
114.38646027989506
  0
LINE
  8
_0-1_
  6
CONTINUOUS
 62
    7
 10
103.21350110078345
 20
114.38646027989506
 11
103.67306110078368
 21
114.84602027989484
  0
LINE
  8
_0-1_
  6
CONTINUOUS
 62
    7
 10
103.67306110078368
 20
114.84602027989484
 11
102.53885110078352
 21
115.98024027989476
  0
LINE
  8
_0-1_
  6
CONTINUOUS
 62
    7
 10
102.53885110078352
 20
115.98024027989476
 11
103.99390110078355
 21
115.16686027989516
  0
LINE
  8
_0-1_
  6
CONTINUOUS
 62
    7
 10
103.99390110078355
 20
115.16686027989516
 11
104.28412110078341
 21
115.45708027989502
  0
LINE
  8
_0-1_
  6
CONTINUOUS
 62
    7
 10
104.28412110078341
 20
115.45708027989502
 11
103.47074110078336
 21
116.91213027989505
  0
LINE
  8
_0-1_
  6
CONTINUOUS
 62
    7
 10
103.47074110078336
 20
116.91213027989505
 11
104.60495110078352
 21
115.77792027989534
  0
LINE
  8
_0-1_
  6
CONTINUOUS
 62
    7
 10
104.60495110078352
 20
115.77792027989534
 11
105.06452110078351
 21
116.23748027989467
  0
LINE
  8
_0-1_
  6
CONTINUOUS
 62
    7
 10
105.06452110078351
 20
116.23748027989467
 11
102.65852110078356
 21
118.64349027989527
  0
LINE
  8
_0-1_
  6
CONTINUOUS
 62
    7
 10
103.05574110078339
 20
114.22871027989476
 11
99.940491100783561
 21
115.92546027989528
  0
LINE
  8
_0-1_
  6
CONTINUOUS
 62
    7
 10
99.940491100783561
 20
115.92546027989528
 11
99.38996110078358
 21
115.3749302798953
  0
LINE
  8
_0-1_
  6
CONTINUOUS
 62
    7
 10
99.38996110078358
 20
115.3749302798953
 11
101.08591110078339
 21
112.25887027989501
  0
LINE
  8
_0-1_
  6
CONTINUOUS
 62
    7
 10
101.08591110078339
 20
112.25887027989501
 11
101.70291110078358
 21
112.87588027989494
  0
LINE
  8
_0-1_
  6
CONTINUOUS
 62
    7
 10
101.70291110078358
 20
112.87588027989494
 11
101.39484110078354
 21
113.39200027989472
  0
LINE
  8
_0-1_
  6
CONTINUOUS
 62
    7
 10
101.39484110078354
 20
113.39200027989472
 11
101.91872110078373
 21
113.91588027989536
  0
LINE
  8
_0-1_
  6
CONTINUOUS
 62
    7
 10
101.91872110078373
 20
113.91588027989536
 11
102.43640110078366
 21
113.60936027989527
  0
LINE
  8
_0-1_
  6
CONTINUOUS
 62
    7
 10
102.43640110078366
 20
113.60936027989527
 11
103.05574110078339
 21
114.22871027989476
  0
LINE
  8
_0-1_
  6
CONTINUOUS
 62
    7
 10
101.42648110078369
 20
114.23264027989507
 11
101.07911110078373
 21
113.88527027989511
  0
LINE
  8
_0-1_
  6
CONTINUOUS
 62
    7
 10
101.07911110078373
 20
113.88527027989511
 11
100.63354110078342
 21
114.68730027989494
  0
LINE
  8
_0-1_
  6
CONTINUOUS
 62
    7
 10
100.64329110078359
 20
114.67755027989477
 11
101.42648110078369
 21
114.23264027989507
  0
LINE
  8
_0-1_
  6
CONTINUOUS
 62
    7
 10
100.85320110078362
 20
112.02617027989498
 11
100.17713110078364
 21
111.35009027989526
  0
LINE
  8
_0-1_
  6
CONTINUOUS
 62
    7
 10
100.17713110078364
 20
111.35009027989526
 11
98.467691100783554
 21
111.95667027989538
  0
LINE
  8
_0-1_
  6
CONTINUOUS
 62
    7
 10
98.467691100783554
 20
111.95667027989538
 11
99.625701100783658
 21
110.79866027989527
  0
LINE
  8
_0-1_
  6
CONTINUOUS
 62
    7
 10
99.625701100783658
 20
110.79866027989527
 11
99.027841100783348
 21
110.20080027989496
  0
LINE
  8
_0-1_
  6
CONTINUOUS
 62
    7
 10
99.027841100783348
 20
110.20080027989496
 11
96.621841100783399
 21
112.60681027989466
  0
LINE
  8
_0-1_
  6
CONTINUOUS
 62
    7
 10
96.621841100783399
 20
112.60681027989466
 11
97.219691100783507
 21
113.20466027989477
  0
LINE
  8
_0-1_
  6
CONTINUOUS
 62
    7
 10
97.219691100783507
 20
113.20466027989477
 11
97.4348811007834
 21
113.39671027989533
  0
LINE
  8
_0-1_
  6
CONTINUOUS
 62
    7
 10
97.4348811007834
 20
113.39671027989533
 11
97.97893110078337
 21
113.78216027989509
  0
LINE
  8
_0-1_
  6
CONTINUOUS
 62
    7
 10
97.97893110078337
 20
113.78216027989509
 11
98.123231100783755
 21
113.84384027989535
  0
LINE
  8
_0-1_
  6
CONTINUOUS
 62
    7
 10
98.123231100783755
 20
113.84384027989535
 11
98.273351100783543
 21
113.88056027989495
  0
LINE
  8
_0-1_
  6
CONTINUOUS
 62
    7
 10
98.273351100783543
 20
113.88056027989495
 11
98.424721100783586
 21
113.89120027989537
  0
LINE
  8
_0-1_
  6
CONTINUOUS
 62
    7
 10
98.424721100783586
 20
113.89120027989537
 11
98.572761100783623
 21
113.87543027989494
  0
LINE
  8
_0-1_
  6
CONTINUOUS
 62
    7
 10
98.572761100783623
 20
113.87543027989494
 11
98.712971100783648
 21
113.83374027989493
  0
LINE
  8
_0-1_
  6
CONTINUOUS
 62
    7
 10
98.712971100783648
 20
113.83374027989493
 11
98.774321100783595
 21
113.80584027989488
  0
LINE
  8
_0-1_
  6
CONTINUOUS
 62
    7
 10
98.774321100783595
 20
113.80584027989488
 11
99.001661100783508
 21
113.64857027989518
  0
LINE
  8
_0-1_
  6
CONTINUOUS
 62
    7
 10
99.001661100783508
 20
113.64857027989518
 11
99.193721100783364
 21
113.45096027989501
  0
LINE
  8
_0-1_
  6
CONTINUOUS
 62
    7
 10
99.193721100783364
 20
113.45096027989501
 11
99.325361100783425
 21
113.25480027989505
  0
LINE
  8
_0-1_
  6
CONTINUOUS
 62
    7
 10
99.325361100783425
 20
113.25480027989505
 11
99.378731100783511
 21
113.11971027989529
  0
LINE
  8
_0-1_
  6
CONTINUOUS
 62
    7
 10
99.378731100783511
 20
113.11971027989529
 11
99.406661100783708
 21
112.97477027989515
  0
LINE
  8
_0-1_
  6
CONTINUOUS
 62
    7
 10
99.406661100783708
 20
112.97477027989515
 11
99.40832110078361
 21
112.82438027989537
  0
LINE
  8
_0-1_
  6
CONTINUOUS
 62
    7
 10
99.40832110078361
 20
112.82438027989537
 11
99.38364110078362
 21
112.67310027989532
  0
LINE
  8
_0-1_
  6
CONTINUOUS
 62
    7
 10
99.38364110078362
 20
112.67310027989532
 11
99.33338110078364
 21
112.52554027989498
  0
LINE
  8
_0-1_
  6
CONTINUOUS
 62
    7
 10
99.33338110078364
 20
112.52554027989498
 11
99.29699110078343
 21
112.45059027989527
  0
LINE
  8
_0-1_
  6
CONTINUOUS
 62
    7
 10
99.29699110078343
 20
112.45059027989527
 11
100.85320110078362
 21
112.02617027989498
  0
LINE
  8
_0-1_
  6
CONTINUOUS
 62
    7
 10
98.309421100783652
 20
112.11494027989482
 11
97.655711100783606
 21
112.76864027989512
  0
LINE
  8
_0-1_
  6
CONTINUOUS
 62
    7
 10
97.655711100783606
 20
112.76864027989512
 11
97.872431100783501
 21
112.95314027989497
  0
LINE
  8
_0-1_
  6
CONTINUOUS
 62
    7
 10
97.872431100783501
 20
112.95314027989497
 11
98.051061100783386
 21
113.05141027989538
  0
LINE
  8
_0-1_
  6
CONTINUOUS
 62
    7
 10
98.051061100783386
 20
113.05141027989538
 11
98.104071100783472
 21
113.06425027989479
  0
LINE
  8
_0-1_
  6
CONTINUOUS
 62
    7
 10
98.104071100783472
 20
113.06425027989479
 11
98.161681100783312
 21
113.0664602798949
  0
LINE
  8
_0-1_
  6
CONTINUOUS
 62
    7
 10
98.161681100783312
 20
113.0664602798949
 11
98.222121100783511
 21
113.05797027989473
  0
LINE
  8
_0-1_
  6
CONTINUOUS
 62
    7
 10
98.222121100783511
 20
113.05797027989473
 11
98.283571100783661
 21
113.039040279895
  0
LINE
  8
_0-1_
  6
CONTINUOUS
 62
    7
 10
98.283571100783661
 20
113.039040279895
 11
98.344161100783708
 21
113.01025027989471
  0
LINE
  8
_0-1_
  6
CONTINUOUS
 62
    7
 10
98.344161100783708
 20
113.01025027989471
 11
98.402041100783549
 21
112.97247027989505
  0
LINE
  8
_0-1_
  6
CONTINUOUS
 62
    7
 10
98.402041100783549
 20
112.97247027989505
 11
98.455461100783737
 21
112.92685027989472
  0
LINE
  8
_0-1_
  6
CONTINUOUS
 62
    7
 10
98.455461100783737
 20
112.92685027989472
 11
98.502791100783611
 21
112.87477027989524
  0
LINE
  8
_0-1_
  6
CONTINUOUS
 62
    7
 10
98.502791100783611
 20
112.87477027989524
 11
98.542601100783372
 21
112.8178202798951
  0
LINE
  8
_0-1_
  6
CONTINUOUS
 62
    7
 10
98.542601100783372
 20
112.8178202798951
 11
98.573681100783574
 21
112.75772027989495
  0
LINE
  8
_0-1_
  6
CONTINUOUS
 62
    7
 10
98.573681100783574
 20
112.75772027989495
 11
98.595081100783659
 21
112.6963102798947
  0
LINE
  8
_0-1_
  6
CONTINUOUS
 62
    7
 10
98.595081100783659
 20
112.6963102798947
 11
98.606151100783677
 21
112.63545027989511
  0
LINE
  8
_0-1_
  6
CONTINUOUS
 62
    7
 10
98.606151100783677
 20
112.63545027989511
 11
98.606551100783577
 21
112.57699027989491
  0
LINE
  8
_0-1_
  6
CONTINUOUS
 62
    7
 10
98.606551100783577
 20
112.57699027989491
 11
98.596281100783358
 21
112.52270027989533
  0
LINE
  8
_0-1_
  6
CONTINUOUS
 62
    7
 10
98.596281100783358
 20
112.52270027989533
 11
98.592191100783452
 21
112.51029027989506
  0
LINE
  8
_0-1_
  6
CONTINUOUS
 62
    7
 10
98.592191100783452
 20
112.51029027989506
 11
98.444521100783618
 21
112.26261027989511
  0
LINE
  8
_0-1_
  6
CONTINUOUS
 62
    7
 10
98.444521100783618
 20
112.26261027989511
 11
98.309421100783652
 21
112.11494027989482
  0
LINE
  8
_0-1_
  6
CONTINUOUS
 62
    7
 10
96.652971100783702
 20
111.78009027989509
 11
96.224041100783666
 21
112.20901027989493
  0
LINE
  8
_0-1_
  6
CONTINUOUS
 62
    7
 10
96.224041100783666
 20
112.20901027989493
 11
94.539551100783569
 21
110.52452027989483
  0
LINE
  8
_0-1_
  6
CONTINUOUS
 62
    7
 10
94.539551100783569
 20
110.52452027989483
 11
96.945551100783518
 21
108.11852027989534
  0
LINE
  8
_0-1_
  6
CONTINUOUS
 62
    7
 10
96.945551100783518
 20
108.11852027989534
 11
97.54554110078368
 21
108.71850027989484
  0
LINE
  8
_0-1_
  6
CONTINUOUS
 62
    7
 10
97.54554110078368
 20
108.71850027989484
 11
96.529061100783451
 21
109.73498027989507
  0
LINE
  8
_0-1_
  6
CONTINUOUS
 62
    7
 10
96.529061100783451
 20
109.73498027989507
 11
97.506551100783668
 21
110.71247027989529
  0
LINE
  8
_0-1_
  6
CONTINUOUS
 62
    7
 10
97.506551100783668
 20
110.71247027989529
 11
97.103911100783421
 21
111.11511027989508
  0
LINE
  8
_0-1_
  6
CONTINUOUS
 62
    7
 10
97.103911100783421
 20
111.11511027989508
 11
96.126421100783659
 21
110.13762027989532
  0
LINE
  8
_0-1_
  6
CONTINUOUS
 62
    7
 10
96.126421100783659
 20
110.13762027989532
 11
95.568461100783566
 21
110.69558027989495
  0
LINE
  8
_0-1_
  6
CONTINUOUS
 62
    7
 10
95.568461100783566
 20
110.69558027989495
 11
96.652971100783702
 21
111.78009027989509
  0
LINE
  8
_0-1_
  6
CONTINUOUS
 62
    7
 10
92.468051100783555
 20
105.28194027989474
 11
91.842281100783453
 21
104.65617027989509
  0
LINE
  8
_0-1_
  6
CONTINUOUS
 62
    7
 10
90.972311100783713
 20
105.52017027989467
 11
91.585251100783694
 21
106.13311027989511
  0
LINE
  8
_0-1_
  6
CONTINUOUS
 62
    7
 10
91.123641100783402
 20
102.29660027989502
 11
89.438701100783305
 21
100.61167027989512
  0
LINE
  8
_0-1_
  6
CONTINUOUS
 62
    7
 10
89.438701100783305
 20
100.61167027989512
 11
87.032701100783356
 21
103.01767027989507
  0
LINE
  8
_0-1_
  6
CONTINUOUS
 62
    7
 10
87.032701100783356
 20
103.01767027989507
 11
88.717631100783706
 21
104.70260027989497
  0
LINE
  8
_0-1_
  6
CONTINUOUS
 62
    7
 10
88.717631100783706
 20
104.70260027989497
 11
89.146561100783742
 21
104.27367027989493
  0
LINE
  8
_0-1_
  6
CONTINUOUS
 62
    7
 10
89.146561100783742
 20
104.27367027989493
 11
88.059491100783703
 21
103.18660027989489
  0
LINE
  8
_0-1_
  6
CONTINUOUS
 62
    7
 10
88.059491100783703
 20
103.18660027989489
 11
88.617451100783796
 21
102.62864027989525
  0
LINE
  8
_0-1_
  6
CONTINUOUS
 62
    7
 10
88.617451100783796
 20
102.62864027989525
 11
89.600861100783618
 21
103.61205027989507
  0
LINE
  8
_0-1_
  6
CONTINUOUS
 62
    7
 10
89.600861100783618
 20
103.61205027989507
 11
90.00350110078341
 21
103.20941027989528
  0
LINE
  8
_0-1_
  6
CONTINUOUS
 62
    7
 10
90.00350110078341
 20
103.20941027989528
 11
89.020081100783386
 21
102.226000279895
  0
LINE
  8
_0-1_
  6
CONTINUOUS
 62
    7
 10
89.020081100783386
 20
102.226000279895
 11
89.607631100783578
 21
101.63845027989527
  0
LINE
  8
_0-1_
  6
CONTINUOUS
 62
    7
 10
89.607631100783578
 20
101.63845027989527
 11
90.694711100783366
 21
102.72553027989505
  0
LINE
  8
_0-1_
  6
CONTINUOUS
 62
    7
 10
90.694711100783366
 20
102.72553027989505
 11
91.123641100783402
 21
102.29660027989502
  0
LINE
  8
_0-1_
  6
CONTINUOUS
 62
    7
 10
88.975791100783567
 20
100.14875027989518
 11
87.291291100783724
 21
98.464250279895339
  0
LINE
  8
_0-1_
  6
CONTINUOUS
 62
    7
 10
87.291291100783724
 20
98.464250279895339
 11
84.88529110078332
 21
100.87026027989504
  0
LINE
  8
_0-1_
  6
CONTINUOUS
 62
    7
 10
84.88529110078332
 20
100.87026027989504
 11
85.485271100783734
 21
101.47024027989499
  0
LINE
  8
_0-1_
  6
CONTINUOUS
 62
    7
 10
85.485271100783734
 20
101.47024027989499
 11
87.462351100783394
 21
99.493170279895082
  0
LINE
  8
_0-1_
  6
CONTINUOUS
 62
    7
 10
87.462351100783394
 20
99.493170279895082
 11
88.546861100783531
 21
100.57768027989476
  0
LINE
  8
_0-1_
  6
CONTINUOUS
 62
    7
 10
88.546861100783531
 20
100.57768027989476
 11
88.975791100783567
 21
100.14875027989518
  0
LINE
  8
_0-0_
  6
CONTINUOUS
 62
    7
 10
55.973241100783412
 20
76.672988933946897
 11
53.473241100783412
 21
78.116364606920968
  0
LINE
  8
_0-0_
  6
CONTINUOUS
 62
    7
 10
53.473241100783412
 20
78.116364606920968
 11
53.473241100783412
 21
81.003115952869109
  0
LINE
  8
_0-0_
  6
CONTINUOUS
 62
    7
 10
53.473241100783412
 20
81.003115952869109
 11
55.973241100783412
 21
82.44649162584318
  0
LINE
  8
_0-0_
  6
CONTINUOUS
 62
    7
 10
55.973241100783412
 20
82.44649162584318
 11
58.473241100783412
 21
81.003115952869109
  0
LINE
  8
_0-0_
  6
CONTINUOUS
 62
    7
 10
58.473241100783412
 20
81.003115952869109
 11
58.473241100783412
 21
78.116364606920968
  0
LINE
  8
_0-0_
  6
CONTINUOUS
 62
    7
 10
58.473241100783412
 20
78.116364606920968
 11
55.973241100783412
 21
76.672988933946897
  0
LINE
  8
_0-0_
  6
CONTINUOUS
 62
    7
 10
39.473241100783412
 20
65.059740279895038
 11
39.473241100783412
 21
155.57446027989522
  0
ARC
  8
_0-0_
  6
CONTINUOUS
 62
    7
 10
54.487961100783536
 20
68.059740279895038
 40
6.0000000000000009
 50
270
 51
315
  0
ARC
  8
_0-0_
  6
CONTINUOUS
 62
    7
 10
140.47324110078341
 20
163.0597402798951
 40
3.0000000000000004
 50
0
 51
90
  0
CIRCLE
  8
_0-0_
  6
CONTINUOUS
 62
    7
 10
53.473241100783412
 20
152.0597402798951
 40
2.25
  0
CIRCLE
  8
_0-0_
  6
CONTINUOUS
 62
    7
 10
53.473241100783412
 20
152.0597402798951
 40
3.75
  0
ARC
  8
_0-0_
  6
CONTINUOUS
 62
    7
 10
42.473241100783412
 20
65.059740279895038
 40
3.0000000000000004
 50
180
 51
270
  0
ARC
  8
_0-0_
  6
CONTINUOUS
 62
    7
 10
45.473241100783412
 20
155.57446027989522
 40
6.0000000000000009
 50
135
 51
180
  0
ARC
  8
_0-0_
  6
CONTINUOUS
 62
    7
 10
49.958521100783287
 20
160.0597402798951
 40
6.0000000000000009
 50
90
 51
135
  0
CIRCLE
  8
_0-0_
  6
CONTINUOUS
 62
    7
 10
75.973241100783412
 20
149.55974027989498
 40
5.5
  0
CIRCLE
  8
_0-0_
  6
CONTINUOUS
 62
    7
 10
125.97324110078341
 20
149.55974027989498
 40
5.5
  0
CIRCLE
  8
_0-0_
  6
CONTINUOUS
 62
    7
 10
55.973241100783412
 20
129.55974027989498
 40
5.5
  0
CIRCLE
  8
_0-0_
  6
CONTINUOUS
 62
    7
 10
55.973241100783412
 20
79.559740279895038
 40
5.5
  0
CIRCLE
  8
_0-0_
  6
CONTINUOUS
 62
    7
 10
75.973241100783412
 20
149.55974027989498
 40
5
  0
CIRCLE
  8
_0-0_
  6
CONTINUOUS
 62
    7
 10
55.973241100783412
 20
129.55974027989498
 40
5
  0
CIRCLE
  8
_0-0_
  6
CONTINUOUS
 62
    7
 10
125.97324110078341
 20
149.55974027989498
 40
5
  0
CIRCLE
  8
_0-0_
  6
CONTINUOUS
 62
    7
 10
55.973241100783412
 20
79.559740279895038
 40
5
  0
ARC
  8
_0-1_
  6
CONTINUOUS
 62
    7
 10
104.82237110078347
 20
121.23929027989533
 40
1
 50
45
 51
135
  0
ARC
  8
_0-1_
  6
CONTINUOUS
 62
    7
 10
107.6508011007835
 20
118.41086027989485
 40
1
 50
315.00000000000006
 51
45.00000000000005
  0
ARC
  8
_0-1_
  6
CONTINUOUS
 62
    7
 10
87.122121100783602
 20
97.882180279894953
 40
1
 50
225
 51
315
  0
ARC
  8
_0-1_
  6
CONTINUOUS
 62
    7
 10
84.293691100783576
 20
100.71061027989498
 40
1
 50
135
 51
225
  0
ARC
  8
_0-1_
  6
CONTINUOUS
 62
    7
 10
93.187461100783707
 20
106.76643027989502
 40
3.9983105000000001
 50
209.21600000000007
 51
240.78399000000007
  0
ARC
  8
_0-1_
  6
CONTINUOUS
 62
    7
 10
98.181011100783394
 20
111.75998027989516
 40
10.154564000000001
 50
221.78918999999996
 51
228.21079999999995
  0
ARC
  8
_0-1_
  6
CONTINUOUS
 62
    7
 10
91.652151100783499
 20
104.13474027989531
 40
0.9536316
 50
244.11812000000009
 51
298.77089000000007
  0
ARC
  8
_0-1_
  6
CONTINUOUS
 62
    7
 10
91.171831100783379
 20
104.8788802798951
 40
1.8381716000000001
 50
300.73070000000001
 51
329.26928999999996
  0
ARC
  8
_0-1_
  6
CONTINUOUS
 62
    7
 10
91.915971100783622
 20
104.39856027989498
 40
0.9536316
 50
331.22910000000013
 51
25.881879000000119
  0
ARC
  8
_0-1_
  6
CONTINUOUS
 62
    7
 10
89.28428110078346
 20
102.86325027989523
 40
3.9983105000000001
 50
29.216002
 51
37.223757999999997
  0
ARC
  8
_0-1_
  6
CONTINUOUS
 62
    7
 10
90.76983110078379
 20
103.54562027989476
 40
1.5438455000000002
 50
29.644741
 51
46.000075000000002
  0
ARC
  8
_0-1_
  6
CONTINUOUS
 62
    7
 10
92.505091100783716
 20
105.28088027989514
 40
1.5438455000000002
 50
224.28077000000002
 51
240.35525000000004
  0
ARC
  8
_0-1_
  6
CONTINUOUS
 62
    7
 10
90.608141100783428
 20
105.44257027989505
 40
0.2764383
 50
63.780934000000009
 51
206.21906000000001
  0
ARC
  8
_0-1_
  6
CONTINUOUS
 62
    7
 10
91.701911100783377
 20
106.08406027989503
 40
1.5438455000000002
 50
209.64474000000001
 51
225.71922000000001
  0
ARC
  8
_0-1_
  6
CONTINUOUS
 62
    7
 10
89.966651100783452
 20
104.3488002798951
 40
1.5438455000000002
 50
49.352809999999991
 51
60.355257999999985
  0
ARC
  8
_0-1_
  6
CONTINUOUS
 62
    7
 10
90.819591100783668
 20
105.49494027989493
 40
0.9536316
 50
64.118120000000005
 51
118.77088999999999
  0
ARC
  8
_0-1_
  6
CONTINUOUS
 62
    7
 10
89.28428110078346
 20
102.86325027989523
 40
3.9983105000000001
 50
54.866322000000004
 51
60.783996999999999
  0
ARC
  8
_0-1_
  6
CONTINUOUS
 62
    7
 10
91.299921100783536
 20
104.75079027989494
 40
1.8381716000000001
 50
120.73069999999998
 51
149.26928999999998
  0
ARC
  8
_0-1_
  6
CONTINUOUS
 62
    7
 10
90.555771100783545
 20
105.23111027989506
 40
0.9536316
 50
151.22909999999999
 51
205.88186999999999
  0
ARC
  8
_0-1_
  6
CONTINUOUS
 62
    7
 10
95.296161100783479
 20
108.87513027989479
 40
3.9983105000000001
 50
209.21600000000007
 51
240.78399000000007
  0
ARC
  8
_0-1_
  6
CONTINUOUS
 62
    7
 10
100.28972110078337
 20
113.86868027989493
 40
10.154564000000001
 50
221.78918999999996
 51
228.21079999999995
  0
ARC
  8
_0-1_
  6
CONTINUOUS
 62
    7
 10
86.399431100783545
 20
99.978400279894856
 40
10.154564000000001
 50
41.789189999999991
 51
48.21080899999999
  0
ARC
  8
_0-1_
  6
CONTINUOUS
 62
    7
 10
93.280531100783605
 20
106.98758027989487
 40
1.8381716000000001
 50
300.73070000000001
 51
329.26928999999996
  0
ARC
  8
_0-1_
  6
CONTINUOUS
 62
    7
 10
94.024671100783394
 20
106.50726027989521
 40
0.9536316
 50
331.22910000000013
 51
25.881879000000119
  0
ARC
  8
_0-1_
  6
CONTINUOUS
 62
    7
 10
93.760851100783725
 20
106.24344027989508
 40
0.9536316
 50
244.11812000000009
 51
298.77089000000007
  0
ARC
  8
_0-1_
  6
CONTINUOUS
 62
    7
 10
91.392981100783686
 20
104.971950279895
 40
3.9983105000000001
 50
29.216002
 51
60.783996999999999
  0
ARC
  8
_0-1_
  6
CONTINUOUS
 62
    7
 10
92.878531100783562
 20
105.65432027989499
 40
1.5438455000000002
 50
29.644741
 51
45.719224000000004
  0
ARC
  8
_0-1_
  6
CONTINUOUS
 62
    7
 10
94.613791100783487
 20
107.38958027989491
 40
1.5438455000000002
 50
224.28077000000002
 51
240.35525000000004
  0
ARC
  8
_0-1_
  6
CONTINUOUS
 62
    7
 10
93.810611100783603
 20
108.19276027989525
 40
1.5438455000000002
 50
209.64474000000001
 51
225.71922000000001
  0
ARC
  8
_0-1_
  6
CONTINUOUS
 62
    7
 10
92.716841100783654
 20
107.55127027989482
 40
0.2764383
 50
63.780934000000009
 51
206.21906000000001
  0
ARC
  8
_0-1_
  6
CONTINUOUS
 62
    7
 10
92.075351100783678
 20
106.45750027989487
 40
1.5438455000000002
 50
44.280774999999998
 51
60.355257999999999
  0
ARC
  8
_0-1_
  6
CONTINUOUS
 62
    7
 10
93.408621100783307
 20
106.85949027989517
 40
1.8381716000000001
 50
120.73069999999998
 51
149.26928999999998
  0
ARC
  8
_0-1_
  6
CONTINUOUS
 62
    7
 10
92.664471100783317
 20
107.33982027989504
 40
0.9536316
 50
151.22909999999999
 51
205.88186999999999
  0
ARC
  8
_0-1_
  6
CONTINUOUS
 62
    7
 10
92.928301100783642
 20
107.60364027989471
 40
0.9536316
 50
64.118120000000005
 51
118.77088999999999
  0
ARC
  8
_0-1_
  6
CONTINUOUS
 62
    7
 10
93.972311100783713
 20
106.29580027989522
 40
0.2764383
 50
243.78093000000001
 51
26.21906499999999
  0
ARC
  8
_0-1_
  6
CONTINUOUS
 62
    7
 10
91.863611100783487
 20
104.18710027989499
 40
0.2764383
 50
243.78093000000001
 51
26.21906499999999
  0
ARC
  8
_0-0_
  6
CONTINUOUS
 62
    7
 10
137.47324110078341
 20
151.04502165413373
 40
6
 50
315.00000000000017
 51
0
  0
LINE
  8
_0-0_
  6
CONTINUOUS
 62
    7
 10
234.66155541702301
 20
151.04502165437589
 11
234.66155541702301
 21
167.55974027989507
  0
LINE
  8
_0-0_
  6
CONTINUOUS
 62
    7
 10
236.66155541702301
 20
169.55974027989507
 11
317.66155541702301
 21
169.55974027989507
  0
LINE
  8
_0-0_
  6
CONTINUOUS
 62
    7
 10
319.66155541702301
 20
167.55974027989507
 11
319.66155541702301
 21
151.04502165437589
  0
LINE
  8
_0-0_
  6
CONTINUOUS
 62
    7
 10
320.45314208991977
 20
152.94249577733535
 11
323.77879991958343
 21
156.26815360699857
  0
LINE
  8
_0-0_
  6
CONTINUOUS
 62
    7
 10
325.54431091446304
 20
147.85132695279196
 11
328.86996874412625
 21
151.17698478245529
  0
LINE
  8
_0-0_
  6
CONTINUOUS
 62
    7
 10
328.66155541702346
 20
147.05974027989498
 11
328.66155541702346
 21
62.059740279895038
  0
LINE
  8
_0-0_
  6
CONTINUOUS
 62
    7
 10
332.16155541702301
 20
62.059740279895038
 11
332.16155541702301
 21
147.05974027989498
  0
LINE
  8
_0-0_
  6
CONTINUOUS
 62
    7
 10
334.66155541702301
 20
147.05974027989498
 11
334.66155541702301
 21
161.0597402798951
  0
LINE
  8
_0-0_
  6
CONTINUOUS
 62
    7
 10
333.66155541702301
 20
162.0597402798951
 11
319.66155541702301
 21
162.0597402798951
  0
LINE
  8
_0-0_
  6
CONTINUOUS
 62
    7
 10
319.66155541702301
 20
159.5597402798951
 11
234.66155541702301
 21
159.5597402798951
  0
LINE
  8
_0-0_
  6
CONTINUOUS
 62
    7
 10
234.66155541702301
 20
156.05974027989555
 11
319.66155541702301
 21
156.05974027989555
  0
LINE
  8
_0-0_
  6
CONTINUOUS
 62
    7
 10
328.17627541702313
 20
166.05974027989507
 11
319.66155541702301
 21
166.05974027989507
  0
LINE
  8
_0-0_
  6
CONTINUOUS
 62
    7
 10
332.41891541702307
 20
164.30238027989503
 11
336.90419541702295
 21
159.81710027989516
  0
LINE
  8
_0-0_
  6
CONTINUOUS
 62
    7
 10
338.66155541702301
 20
155.57446027989522
 11
338.66155541702301
 21
147.05974027989498
  0
LINE
  8
_0-0_
  6
CONTINUOUS
 62
    7
 10
340.16155541702301
 20
147.05974027989498
 11
323.64683679150357
 21
147.05974027989498
  0
LINE
  8
_0-0_
  6
CONTINUOUS
 62
    7
 10
317.90419610414256
 20
146.80238096725645
 11
306.41891472966154
 21
135.31709959277566
  0
LINE
  8
_0-0_
  6
CONTINUOUS
 62
    7
 10
307.91891472990346
 20
133.81709959253351
 11
319.40419610438448
 21
145.3023809670143
  0
LINE
  8
_0-0_
  6
CONTINUOUS
 62
    7
 10
314.66155541678108
 20
143.55974027989498
 11
239.66155541726539
 21
143.55974027989498
  0
LINE
  8
_0-0_
  6
CONTINUOUS
 62
    7
 10
236.41891472990392
 20
146.80238096725645
 11
319.40419610438448
 21
63.817099592775719
  0
LINE
  8
_0-0_
  6
CONTINUOUS
 62
    7
 10
323.64683679150357
 20
62.059740279895038
 11
340.16155541702301
 21
62.059740279895038
  0
LINE
  8
_0-0_
  6
CONTINUOUS
 62
    7
 10
342.16155541702301
 20
64.059740279895038
 11
342.16155541702301
 21
145.05974027989498
  0
LINE
  8
_0-0_
  6
CONTINUOUS
 62
    7
 10
316.16155541702301
 20
142.0597402796526
 11
316.16155541702301
 21
67.059740280137191
  0
LINE
  8
_0-0_
  6
CONTINUOUS
 62
    7
 10
325.16155541702301
 20
89.043769808795048
 11
321.16155541702301
 21
89.043769808795048
  0
LINE
  8
_0-0_
  6
CONTINUOUS
 62
    7
 10
321.45352073576896
 20
90.57497844636913
 11
321.45352073576896
 21
92.939972213369117
  0
LINE
  8
_0-0_
  6
CONTINUOUS
 62
    7
 10
321.45352073576896
 20
92.939972213369117
 11
324.85612280676878
 21
92.939972213369117
  0
LINE
  8
_0-0_
  6
CONTINUOUS
 62
    7
 10
324.85612280676878
 20
92.939972213369117
 11
324.85612280676878
 21
90.57497844636913
  0
LINE
  8
_0-0_
  6
CONTINUOUS
 62
    7
 10
324.85612280676878
 20
90.57497844636913
 11
324.24952624546904
 21
90.57497844636913
  0
LINE
  8
_0-0_
  6
CONTINUOUS
 62
    7
 10
324.24952624546904
 20
90.57497844636913
 11
324.24952624546904
 21
92.091462999368957
  0
LINE
  8
_0-0_
  6
CONTINUOUS
 62
    7
 10
324.24952624546904
 20
92.091462999368957
 11
323.46045238895204
 21
92.091462999368957
  0
LINE
  8
_0-0_
  6
CONTINUOUS
 62
    7
 10
323.46045238895204
 20
92.091462999368957
 11
323.46045238895204
 21
90.73745893456902
  0
LINE
  8
_0-0_
  6
CONTINUOUS
 62
    7
 10
323.46045238895204
 20
90.73745893456902
 11
322.89103392565175
 21
90.73745893456902
  0
LINE
  8
_0-0_
  6
CONTINUOUS
 62
    7
 10
322.89103392565175
 20
90.73745893456902
 11
322.89103392565175
 21
92.091462999368957
  0
LINE
  8
_0-0_
  6
CONTINUOUS
 62
    7
 10
322.89103392565175
 20
92.091462999368957
 11
322.0601172970687
 21
92.091462999368957
  0
LINE
  8
_0-0_
  6
CONTINUOUS
 62
    7
 10
322.0601172970687
 20
92.091462999368957
 11
322.0601172970687
 21
90.57497844636913
  0
LINE
  8
_0-0_
  6
CONTINUOUS
 62
    7
 10
322.0601172970687
 20
90.57497844636913
 11
321.45352073576896
 21
90.57497844636913
  0
LINE
  8
_0-0_
  6
CONTINUOUS
 62
    7
 10
320.16155541702301
 20
90.043769808795048
 11
320.16155541702301
 21
119.0757107509948
  0
LINE
  8
_0-0_
  6
CONTINUOUS
 62
    7
 10
321.45352073576896
 20
118.54450211299485
 11
324.85612280676878
 21
118.54450211299485
  0
LINE
  8
_0-0_
  6
CONTINUOUS
 62
    7
 10
324.85612280676878
 20
118.54450211299485
 11
324.85612280676878
 21
117.69599289899492
  0
LINE
  8
_0-0_
  6
CONTINUOUS
 62
    7
 10
324.85612280676878
 20
117.69599289899492
 11
322.0601172970687
 21
117.69599289899492
  0
LINE
  8
_0-0_
  6
CONTINUOUS
 62
    7
 10
322.0601172970687
 20
117.69599289899492
 11
322.0601172970687
 21
116.16226415247132
  0
LINE
  8
_0-0_
  6
CONTINUOUS
 62
    7
 10
322.0601172970687
 20
116.16226415247132
 11
321.45352073576896
 21
116.16226415247132
  0
LINE
  8
_0-0_
  6
CONTINUOUS
 62
    7
 10
321.45352073576896
 20
116.16226415247132
 11
321.45352073576896
 21
118.54450211299485
  0
LINE
  8
_0-0_
  6
CONTINUOUS
 62
    7
 10
321.16155541702301
 20
120.0757107509948
 11
325.16155541702301
 21
120.0757107509948
  0
LINE
  8
_0-0_
  6
CONTINUOUS
 62
    7
 10
326.16155541702301
 20
119.0757107509948
 11
326.16155541702301
 21
90.043769808795048
  0
LINE
  8
_0-0_
  6
CONTINUOUS
 62
    7
 10
324.85612280676878
 20
93.409360289175027
 11
321.45352073576896
 21
93.409360289175027
  0
LINE
  8
_0-0_
  6
CONTINUOUS
 62
    7
 10
321.45352073576896
 20
93.409360289175027
 11
321.45352073576896
 21
94.059282240274968
  0
LINE
  8
_0-0_
  6
CONTINUOUS
 62
    7
 10
321.45352073576896
 20
94.059282240274968
 11
323.05753904047606
 21
94.059282240274968
  0
LINE
  8
_0-0_
  6
CONTINUOUS
 62
    7
 10
323.05753904047606
 20
94.059282240274968
 11
321.45352073576896
 21
94.513014098376004
  0
LINE
  8
_0-0_
  6
CONTINUOUS
 62
    7
 10
321.45352073576896
 20
94.513014098376004
 11
321.45352073576896
 21
94.923447671968177
  0
LINE
  8
_0-0_
  6
CONTINUOUS
 62
    7
 10
321.45352073576896
 20
94.923447671968177
 11
323.05753904047606
 21
95.377179530069441
  0
LINE
  8
_0-0_
  6
CONTINUOUS
 62
    7
 10
323.05753904047606
 20
95.377179530069441
 11
321.45352073576896
 21
95.377179530069441
  0
LINE
  8
_0-0_
  6
CONTINUOUS
 62
    7
 10
321.45352073576896
 20
95.377179530069441
 11
321.45352073576896
 21
96.027101481169382
  0
LINE
  8
_0-0_
  6
CONTINUOUS
 62
    7
 10
321.45352073576896
 20
96.027101481169382
 11
324.85612280676878
 21
96.027101481169382
  0
LINE
  8
_0-0_
  6
CONTINUOUS
 62
    7
 10
324.85612280676878
 20
96.027101481169382
 11
324.85612280676878
 21
95.128216354300037
  0
LINE
  8
_0-0_
  6
CONTINUOUS
 62
    7
 10
324.85612280676878
 20
95.128216354300037
 11
322.68863741276164
 21
94.718230885172204
  0
LINE
  8
_0-0_
  6
CONTINUOUS
 62
    7
 10
322.68863741276164
 20
94.718230885172204
 11
324.85612280676878
 21
94.308245416044372
  0
LINE
  8
_0-0_
  6
CONTINUOUS
 62
    7
 10
324.85612280676878
 20
94.308245416044372
 11
324.85612280676878
 21
93.409360289175027
  0
LINE
  8
_0-0_
  6
CONTINUOUS
 62
    7
 10
324.85612280676878
 20
97.253234222879598
 11
321.45352073576896
 21
96.250199598775168
  0
LINE
  8
_0-0_
  6
CONTINUOUS
 62
    7
 10
321.45352073576896
 20
96.250199598775168
 11
321.45352073576896
 21
97.126081618301612
  0
LINE
  8
_0-0_
  6
CONTINUOUS
 62
    7
 10
321.45352073576896
 20
97.126081618301612
 11
322.03631549980355
 21
97.27539267355013
  0
LINE
  8
_0-0_
  6
CONTINUOUS
 62
    7
 10
322.03631549980355
 20
97.27539267355013
 11
322.03631549980355
 21
98.01627346293111
  0
LINE
  8
_0-0_
  6
CONTINUOUS
 62
    7
 10
322.03631549980355
 20
98.01627346293111
 11
321.45352073576896
 21
98.163386704337825
  0
LINE
  8
_0-0_
  6
CONTINUOUS
 62
    7
 10
321.45352073576896
 20
98.163386704337825
 11
321.45352073576896
 21
99.035965559622298
  0
LINE
  8
_0-0_
  6
CONTINUOUS
 62
    7
 10
321.45352073576896
 20
99.035965559622298
 11
324.85612280676878
 21
98.031800617225315
  0
LINE
  8
_0-0_
  6
CONTINUOUS
 62
    7
 10
324.85612280676878
 20
98.031800617225315
 11
324.85612280676878
 21
97.253234222879598
  0
LINE
  8
_0-0_
  6
CONTINUOUS
 62
    7
 10
323.49054795413576
 20
97.638680229608724
 11
322.60835954582035
 21
97.890734060555985
  0
LINE
  8
_0-0_
  6
CONTINUOUS
 62
    7
 10
322.60835954582035
 20
97.890734060555985
 11
322.60835954582035
 21
97.399479068746302
  0
LINE
  8
_0-0_
  6
CONTINUOUS
 62
    7
 10
322.60835954582035
 20
97.399479068746302
 11
323.47676376025584
 21
97.638680229608724
  0
LINE
  8
_0-0_
  6
CONTINUOUS
 62
    7
 10
322.85404665862779
 20
100.16535928056436
 11
321.45352073576896
 21
99.365058753216488
  0
LINE
  8
_0-0_
  6
CONTINUOUS
 62
    7
 10
321.45352073576896
 20
99.365058753216488
 11
321.45352073576896
 21
100.32117142049213
  0
LINE
  8
_0-0_
  6
CONTINUOUS
 62
    7
 10
321.45352073576896
 20
100.32117142049213
 11
323.09119314313421
 21
101.10101542399929
  0
LINE
  8
_0-0_
  6
CONTINUOUS
 62
    7
 10
323.09119314313421
 20
101.10101542399929
 11
321.45352073576896
 21
101.10101542399929
  0
LINE
  8
_0-0_
  6
CONTINUOUS
 62
    7
 10
321.45352073576896
 20
101.10101542399929
 11
321.45352073576896
 21
101.94651556639946
  0
LINE
  8
_0-0_
  6
CONTINUOUS
 62
    7
 10
321.45352073576896
 20
101.94651556639946
 11
324.85612280676878
 21
101.94651556639946
  0
LINE
  8
_0-0_
  6
CONTINUOUS
 62
    7
 10
324.85612280676878
 20
101.94651556639946
 11
324.85612280676878
 21
101.10101542399906
  0
LINE
  8
_0-0_
  6
CONTINUOUS
 62
    7
 10
324.23949790625511
 20
101.10101542399929
 11
323.31502348166669
 21
101.10101542399929
  0
LINE
  8
_0-0_
  6
CONTINUOUS
 62
    7
 10
323.46045238895204
 20
102.66042389877924
 11
323.46045238895204
 21
104.04280554488849
  0
LINE
  8
_0-0_
  6
CONTINUOUS
 62
    7
 10
323.46045238895204
 20
104.04280554488849
 11
324.24952624546904
 21
104.04280554488849
  0
LINE
  8
_0-0_
  6
CONTINUOUS
 62
    7
 10
324.24952624546904
 20
104.04280554488849
 11
324.24952624546904
 21
102.5090767983649
  0
LINE
  8
_0-0_
  6
CONTINUOUS
 62
    7
 10
324.24952624546904
 20
102.5090767983649
 11
324.85612280676878
 21
102.5090767983649
  0
LINE
  8
_0-0_
  6
CONTINUOUS
 62
    7
 10
324.85612280676878
 20
102.5090767983649
 11
324.85612280676878
 21
104.89131475888843
  0
LINE
  8
_0-0_
  6
CONTINUOUS
 62
    7
 10
324.85612280676878
 20
104.89131475888843
 11
321.45352073576896
 21
104.89131475888843
  0
LINE
  8
_0-0_
  6
CONTINUOUS
 62
    7
 10
321.45352073576896
 20
104.89131475888843
 11
321.45352073576896
 21
104.04280554488849
  0
LINE
  8
_0-0_
  6
CONTINUOUS
 62
    7
 10
321.45352073576896
 20
104.04280554488849
 11
322.89103392565175
 21
104.04280554488849
  0
LINE
  8
_0-0_
  6
CONTINUOUS
 62
    7
 10
322.89103392565175
 20
104.04280554488849
 11
322.89103392565175
 21
102.66042389877924
  0
LINE
  8
_0-0_
  6
CONTINUOUS
 62
    7
 10
322.89103392565175
 20
102.66042389877924
 11
323.46045238895204
 21
102.66042389877924
  0
LINE
  8
_0-0_
  6
CONTINUOUS
 62
    7
 10
323.83993246256887
 20
110.08550785190067
 11
323.83993246256887
 21
110.95234226212909
  0
LINE
  8
_0-0_
  6
CONTINUOUS
 62
    7
 10
322.61383142916884
 20
110.94812436700198
 11
322.61383142916884
 21
110.06314202456491
  0
LINE
  8
_0-0_
  6
CONTINUOUS
 62
    7
 10
322.89103392565175
 20
113.27134737481146
 11
323.46045238895204
 21
113.27134737481146
  0
LINE
  8
_0-0_
  6
CONTINUOUS
 62
    7
 10
323.46045238895204
 20
113.27134737481146
 11
323.46045238895204
 21
114.66210349977422
  0
LINE
  8
_0-0_
  6
CONTINUOUS
 62
    7
 10
323.46045238895204
 20
114.66210349977422
 11
324.24952624551679
 21
114.66210349977422
  0
LINE
  8
_0-0_
  6
CONTINUOUS
 62
    7
 10
324.24952624551679
 20
114.66210349977422
 11
324.24952624551679
 21
113.12474565626684
  0
LINE
  8
_0-0_
  6
CONTINUOUS
 62
    7
 10
324.24952624551679
 20
113.12474565626684
 11
324.85612280676878
 21
113.12474565626684
  0
LINE
  8
_0-0_
  6
CONTINUOUS
 62
    7
 10
324.85612280676878
 20
113.12474565626684
 11
324.85612280676878
 21
115.50760364217416
  0
LINE
  8
_0-0_
  6
CONTINUOUS
 62
    7
 10
324.85612280676878
 20
115.50760364217416
 11
321.45352073576896
 21
115.50760364217416
  0
LINE
  8
_0-0_
  6
CONTINUOUS
 62
    7
 10
321.45352073576896
 20
115.50760364217416
 11
321.45352073576896
 21
113.12474565626684
  0
LINE
  8
_0-0_
  6
CONTINUOUS
 62
    7
 10
321.45352073576896
 20
113.12474565626684
 11
322.0601172970687
 21
113.12474565626684
  0
LINE
  8
_0-0_
  6
CONTINUOUS
 62
    7
 10
322.0601172970687
 20
113.12474565626684
 11
322.0601172970687
 21
114.66210349977422
  0
LINE
  8
_0-0_
  6
CONTINUOUS
 62
    7
 10
322.0601172970687
 20
114.66210349977422
 11
322.89103392565175
 21
114.66210349977422
  0
LINE
  8
_0-0_
  6
CONTINUOUS
 62
    7
 10
322.89103392565175
 20
114.66210349977422
 11
322.89103392565175
 21
113.27134737481146
  0
LINE
  8
_0-0_
  6
CENTER1
 62
    7
 10
322.16155541702301
 20
126.55974027989498
 11
322.16155541702301
 21
132.55974027989498
  0
LINE
  8
_0-0_
  6
CENTER1
 62
    7
 10
319.16155541702301
 20
129.55974027989498
 11
325.16155541702301
 21
129.55974027989498
  0
LINE
  8
_0-0_
  6
CONTINUOUS
 62
    7
 10
306.16155541702301
 20
130.55974027989498
 11
306.16155541702301
 21
79.54502165437583
  0
LINE
  8
_0-0_
  6
CONTINUOUS
 62
    7
 10
301.04023541702281
 20
92.68106027989478
 11
265.28287541702321
 21
128.43842027989479
  0
LINE
  8
_0-0_
  6
CONTINUOUS
 62
    7
 10
252.14683679150403
 20
133.55974027989498
 11
303.16155541702301
 21
133.55974027989498
  0
LINE
  8
_0-0_
  6
CONTINUOUS
 62
    7
 10
292.677525888123
 20
148.55974027989498
 11
292.677525888123
 21
152.55974027989532
  0
LINE
  8
_0-0_
  6
CONTINUOUS
 62
    7
 10
291.14631725054915
 20
152.25430766964109
 11
288.78132348354893
 21
152.25430766964109
  0
LINE
  8
_0-0_
  6
CONTINUOUS
 62
    7
 10
288.78132348354893
 20
152.25430766964109
 11
288.78132348354893
 21
148.85170559864093
  0
LINE
  8
_0-0_
  6
CONTINUOUS
 62
    7
 10
288.78132348354893
 20
148.85170559864093
 11
291.14631725054915
 21
148.85170559864093
  0
LINE
  8
_0-0_
  6
CONTINUOUS
 62
    7
 10
291.14631725054915
 20
148.85170559864093
 11
291.14631725054915
 21
149.4583021599409
  0
LINE
  8
_0-0_
  6
CONTINUOUS
 62
    7
 10
291.14631725054915
 20
149.4583021599409
 11
289.62983269754932
 21
149.4583021599409
  0
LINE
  8
_0-0_
  6
CONTINUOUS
 62
    7
 10
289.62983269754932
 20
149.4583021599409
 11
289.62983269754932
 21
150.28921878852407
  0
LINE
  8
_0-0_
  6
CONTINUOUS
 62
    7
 10
289.62983269754932
 20
150.28921878852407
 11
290.98383676234926
 21
150.28921878852407
  0
LINE
  8
_0-0_
  6
CONTINUOUS
 62
    7
 10
290.98383676234926
 20
150.28921878852407
 11
290.98383676234926
 21
150.85863725182435
  0
LINE
  8
_0-0_
  6
CONTINUOUS
 62
    7
 10
290.98383676234926
 20
150.85863725182435
 11
289.62983269754932
 21
150.85863725182435
  0
LINE
  8
_0-0_
  6
CONTINUOUS
 62
    7
 10
289.62983269754932
 20
150.85863725182435
 11
289.62983269754932
 21
151.64771110834113
  0
LINE
  8
_0-0_
  6
CONTINUOUS
 62
    7
 10
289.62983269754932
 20
151.64771110834113
 11
291.14631725054915
 21
151.64771110834113
  0
LINE
  8
_0-0_
  6
CONTINUOUS
 62
    7
 10
291.14631725054915
 20
151.64771110834113
 11
291.14631725054915
 21
152.25430766964109
  0
LINE
  8
_0-0_
  6
CONTINUOUS
 62
    7
 10
291.677525888123
 20
153.55974027989532
 11
262.64558494592347
 21
153.55974027989532
  0
LINE
  8
_0-0_
  6
CONTINUOUS
 62
    7
 10
263.17679358392343
 20
152.25430766964109
 11
263.17679358392343
 21
148.85170559864093
  0
LINE
  8
_0-0_
  6
CONTINUOUS
 62
    7
 10
263.17679358392343
 20
148.85170559864093
 11
265.55903154444695
 21
148.85170559864093
  0
LINE
  8
_0-0_
  6
CONTINUOUS
 62
    7
 10
265.55903154444695
 20
148.85170559864093
 11
265.55903154444695
 21
149.4583021599409
  0
LINE
  8
_0-0_
  6
CONTINUOUS
 62
    7
 10
265.55903154444695
 20
149.4583021599409
 11
264.02530279792336
 21
149.4583021599409
  0
LINE
  8
_0-0_
  6
CONTINUOUS
 62
    7
 10
264.02530279792336
 20
149.4583021599409
 11
264.02530279792336
 21
152.25430766964109
  0
LINE
  8
_0-0_
  6
CONTINUOUS
 62
    7
 10
264.02530279792336
 20
152.25430766964109
 11
263.17679358392343
 21
152.25430766964109
  0
LINE
  8
_0-0_
  6
CONTINUOUS
 62
    7
 10
261.64558494592347
 20
152.55974027989532
 11
261.64558494592347
 21
148.55974027989498
  0
LINE
  8
_0-0_
  6
CONTINUOUS
 62
    7
 10
262.64558494592347
 20
147.55974027989498
 11
291.677525888123
 21
147.55974027989498
  0
LINE
  8
_0-0_
  6
CONTINUOUS
 62
    7
 10
288.31193540774302
 20
148.85170559864093
 11
287.66201345664331
 21
148.85170559864093
  0
LINE
  8
_0-0_
  6
CONTINUOUS
 62
    7
 10
287.66201345664331
 20
148.85170559864093
 11
287.66201345664331
 21
150.45572390334814
  0
LINE
  8
_0-0_
  6
CONTINUOUS
 62
    7
 10
287.66201345664331
 20
150.45572390334814
 11
287.20828159854227
 21
148.85170559864093
  0
LINE
  8
_0-0_
  6
CONTINUOUS
 62
    7
 10
287.20828159854227
 20
148.85170559864093
 11
286.79784802494987
 21
148.85170559864093
  0
LINE
  8
_0-0_
  6
CONTINUOUS
 62
    7
 10
286.79784802494987
 20
148.85170559864093
 11
286.34411616684883
 21
150.45572390334814
  0
LINE
  8
_0-0_
  6
CONTINUOUS
 62
    7
 10
286.34411616684883
 20
150.45572390334814
 11
286.34411616684883
 21
148.85170559864093
  0
LINE
  8
_0-0_
  6
CONTINUOUS
 62
    7
 10
286.34411616684883
 20
148.85170559864093
 11
285.69419421574867
 21
148.85170559864093
  0
LINE
  8
_0-0_
  6
CONTINUOUS
 62
    7
 10
285.69419421574867
 20
148.85170559864093
 11
285.69419421574867
 21
152.25430766964109
  0
LINE
  8
_0-0_
  6
CONTINUOUS
 62
    7
 10
285.69419421574867
 20
152.25430766964109
 11
286.59307934261824
 21
152.25430766964109
  0
LINE
  8
_0-0_
  6
CONTINUOUS
 62
    7
 10
286.59307934261824
 20
152.25430766964109
 11
287.00306481174584
 21
150.08682227563395
  0
LINE
  8
_0-0_
  6
CONTINUOUS
 62
    7
 10
287.00306481174584
 20
150.08682227563395
 11
287.4130502808739
 21
152.25430766964109
  0
LINE
  8
_0-0_
  6
CONTINUOUS
 62
    7
 10
287.4130502808739
 20
152.25430766964109
 11
288.31193540774302
 21
152.25430766964109
  0
LINE
  8
_0-0_
  6
CONTINUOUS
 62
    7
 10
288.31193540774302
 20
152.25430766964109
 11
288.31193540774302
 21
148.85170559864093
  0
LINE
  8
_0-0_
  6
CONTINUOUS
 62
    7
 10
285.47109609814288
 20
148.85170559864093
 11
284.59521407861666
 21
148.85170559864093
  0
LINE
  8
_0-0_
  6
CONTINUOUS
 62
    7
 10
284.59521407861666
 20
148.85170559864093
 11
284.44590302336792
 21
149.43450036267575
  0
LINE
  8
_0-0_
  6
CONTINUOUS
 62
    7
 10
284.44590302336792
 20
149.43450036267575
 11
283.70502223398717
 21
149.43450036267575
  0
LINE
  8
_0-0_
  6
CONTINUOUS
 62
    7
 10
283.70502223398717
 20
149.43450036267575
 11
283.55790899258045
 21
148.85170559864093
  0
LINE
  8
_0-0_
  6
CONTINUOUS
 62
    7
 10
283.55790899258045
 20
148.85170559864093
 11
282.68533013729575
 21
148.85170559864093
  0
LINE
  8
_0-0_
  6
CONTINUOUS
 62
    7
 10
282.68533013729575
 20
148.85170559864093
 11
283.68949507969273
 21
152.25430766964109
  0
LINE
  8
_0-0_
  6
CONTINUOUS
 62
    7
 10
283.68949507969273
 20
152.25430766964109
 11
284.46806147403868
 21
152.25430766964109
  0
LINE
  8
_0-0_
  6
CONTINUOUS
 62
    7
 10
284.46806147403868
 20
152.25430766964109
 11
285.47109609814288
 21
148.85170559864093
  0
LINE
  8
_0-0_
  6
CONTINUOUS
 62
    7
 10
284.32181662817175
 20
150.00654440869266
 11
283.83056163636229
 21
150.00654440869266
  0
LINE
  8
_0-0_
  6
CONTINUOUS
 62
    7
 10
283.83056163636229
 20
150.00654440869266
 11
284.08261546730955
 21
150.88873281700808
  0
LINE
  8
_0-0_
  6
CONTINUOUS
 62
    7
 10
284.08261546730955
 20
150.87494862312815
 11
284.32181662817175
 21
150.00654440869266
  0
LINE
  8
_0-0_
  6
CONTINUOUS
 62
    7
 10
281.55593641635369
 20
150.25223152149988
 11
282.35623694370179
 21
148.85170559864093
  0
LINE
  8
_0-0_
  6
CONTINUOUS
 62
    7
 10
282.35623694370179
 20
148.85170559864093
 11
281.40012427642614
 21
148.85170559864093
  0
LINE
  8
_0-0_
  6
CONTINUOUS
 62
    7
 10
281.40012427642614
 20
148.85170559864093
 11
280.62028027291899
 21
150.48937800600629
  0
LINE
  8
_0-0_
  6
CONTINUOUS
 62
    7
 10
280.62028027291899
 20
150.48937800600629
 11
280.62028027291899
 21
148.85170559864093
  0
LINE
  8
_0-0_
  6
CONTINUOUS
 62
    7
 10
280.62028027291899
 20
148.85170559864093
 11
279.77478013051859
 21
148.85170559864093
  0
LINE
  8
_0-0_
  6
CONTINUOUS
 62
    7
 10
279.77478013051859
 20
148.85170559864093
 11
279.77478013051859
 21
152.25430766964109
  0
LINE
  8
_0-0_
  6
CONTINUOUS
 62
    7
 10
279.77478013051859
 20
152.25430766964109
 11
280.62028027291899
 21
152.25430766964109
  0
LINE
  8
_0-0_
  6
CONTINUOUS
 62
    7
 10
280.62028027291899
 20
151.6376827691272
 11
280.62028027291899
 21
150.713208344539
  0
LINE
  8
_0-0_
  6
CONTINUOUS
 62
    7
 10
279.06087179813903
 20
150.85863725182435
 11
277.67849015202955
 21
150.85863725182435
  0
LINE
  8
_0-0_
  6
CONTINUOUS
 62
    7
 10
277.67849015202955
 20
150.85863725182435
 11
277.67849015202955
 21
151.64771110834113
  0
LINE
  8
_0-0_
  6
CONTINUOUS
 62
    7
 10
277.67849015202955
 20
151.64771110834113
 11
279.21221889855315
 21
151.64771110834113
  0
LINE
  8
_0-0_
  6
CONTINUOUS
 62
    7
 10
279.21221889855315
 20
151.64771110834113
 11
279.21221889855315
 21
152.25430766964109
  0
LINE
  8
_0-0_
  6
CONTINUOUS
 62
    7
 10
279.21221889855315
 20
152.25430766964109
 11
276.82998093802962
 21
152.25430766964109
  0
LINE
  8
_0-0_
  6
CONTINUOUS
 62
    7
 10
276.82998093802962
 20
152.25430766964109
 11
276.82998093802962
 21
148.85170559864093
  0
LINE
  8
_0-0_
  6
CONTINUOUS
 62
    7
 10
276.82998093802962
 20
148.85170559864093
 11
277.67849015202955
 21
148.85170559864093
  0
LINE
  8
_0-0_
  6
CONTINUOUS
 62
    7
 10
277.67849015202955
 20
148.85170559864093
 11
277.67849015202955
 21
150.28921878852407
  0
LINE
  8
_0-0_
  6
CONTINUOUS
 62
    7
 10
277.67849015202955
 20
150.28921878852407
 11
279.06087179813903
 21
150.28921878852407
  0
LINE
  8
_0-0_
  6
CONTINUOUS
 62
    7
 10
279.06087179813903
 20
150.28921878852407
 11
279.06087179813903
 21
150.85863725182435
  0
LINE
  8
_0-0_
  6
CONTINUOUS
 62
    7
 10
271.6357878450176
 20
151.23811732544118
 11
270.76895343478918
 21
151.23811732544118
  0
LINE
  8
_0-0_
  6
CONTINUOUS
 62
    7
 10
270.77317132991629
 20
150.01201629204115
 11
271.65815367235336
 21
150.01201629204115
  0
LINE
  8
_0-0_
  6
CONTINUOUS
 62
    7
 10
268.44994832210659
 20
150.28921878852407
 11
268.44994832210659
 21
150.85863725182435
  0
LINE
  8
_0-0_
  6
CONTINUOUS
 62
    7
 10
268.44994832210659
 20
150.85863725182435
 11
267.05919219714406
 21
150.85863725182435
  0
LINE
  8
_0-0_
  6
CONTINUOUS
 62
    7
 10
267.05919219714406
 20
150.85863725182435
 11
267.05919219714406
 21
151.6477111083891
  0
LINE
  8
_0-0_
  6
CONTINUOUS
 62
    7
 10
267.05919219714406
 20
151.6477111083891
 11
268.59655004065144
 21
151.6477111083891
  0
LINE
  8
_0-0_
  6
CONTINUOUS
 62
    7
 10
268.59655004065144
 20
151.6477111083891
 11
268.59655004065144
 21
152.25430766964109
  0
LINE
  8
_0-0_
  6
CONTINUOUS
 62
    7
 10
268.59655004065144
 20
152.25430766964109
 11
266.21369205474412
 21
152.25430766964109
  0
LINE
  8
_0-0_
  6
CONTINUOUS
 62
    7
 10
266.21369205474412
 20
152.25430766964109
 11
266.21369205474412
 21
148.85170559864093
  0
LINE
  8
_0-0_
  6
CONTINUOUS
 62
    7
 10
266.21369205474412
 20
148.85170559864093
 11
268.59655004065144
 21
148.85170559864093
  0
LINE
  8
_0-0_
  6
CONTINUOUS
 62
    7
 10
268.59655004065144
 20
148.85170559864093
 11
268.59655004065144
 21
149.4583021599409
  0
LINE
  8
_0-0_
  6
CONTINUOUS
 62
    7
 10
268.59655004065144
 20
149.4583021599409
 11
267.05919219714406
 21
149.4583021599409
  0
LINE
  8
_0-0_
  6
CONTINUOUS
 62
    7
 10
267.05919219714406
 20
149.4583021599409
 11
267.05919219714406
 21
150.28921878852407
  0
LINE
  8
_0-0_
  6
CONTINUOUS
 62
    7
 10
267.05919219714406
 20
150.28921878852407
 11
268.44994832210659
 21
150.28921878852407
  0
LINE
  8
_0-0_
  6
CENTER1
 62
    7
 10
255.16155541702301
 20
149.55974027989498
 11
249.16155541702301
 21
149.55974027989498
  0
LINE
  8
_0-0_
  6
CENTER1
 62
    7
 10
252.16155541702301
 20
146.55974027989498
 11
252.16155541702301
 21
152.5597402798951
  0
ARC
  8
_0-0_
  6
CONTINUOUS
 62
    7
 10
267.40419541702295
 20
130.55974027989498
 40
3.0000000000000004
 50
90
 51
225
  0
ARC
  8
_0-0_
  6
CONTINUOUS
 62
    7
 10
303.16155541702301
 20
94.802380279894976
 40
3.0000000000000004
 50
225
 51
0
  0
ARC
  8
_0-0_
  6
CONTINUOUS
 62
    7
 10
328.17627541702313
 20
160.0597402798951
 40
6.0000000000000009
 50
45
 51
90
  0
ARC
  8
_0-0_
  6
CONTINUOUS
 62
    7
 10
332.66155541702301
 20
155.57446027989522
 40
6.0000000000000009
 50
0
 51
45
  0
ARC
  8
_0-0_
  6
CONTINUOUS
 62
    7
 10
333.66155541702301
 20
161.0597402798951
 40
1
 50
0
 51
90
  0
ARC
  8
_0-0_
  6
CONTINUOUS
 62
    7
 10
291.677525888123
 20
152.55974027989532
 40
0.9999999999999997
 50
0.0000000000000254
 51
90.000000000000028
  0
ARC
  8
_0-0_
  6
CONTINUOUS
 62
    7
 10
291.677525888123
 20
148.55974027989498
 40
0.9999999999999997
 50
270
 51
0
  0
ARC
  8
_0-0_
  6
CONTINUOUS
 62
    7
 10
262.64558494592347
 20
148.55974027989498
 40
0.9999999999999997
 50
180.00000000000006
 51
270.00000000000006
  0
ARC
  8
_0-0_
  6
CONTINUOUS
 62
    7
 10
262.64558494592347
 20
152.55974027989532
 40
0.9999999999999997
 50
90.000000000000028
 51
180.00000000000003
  0
ARC
  8
_0-0_
  6
CONTINUOUS
 62
    7
 10
273.21653915182878
 20
150.55300663414118
 40
3.9983105741623
 50
164.21600247589299
 51
195.78399752410709
  0
ARC
  8
_0-0_
  6
CONTINUOUS
 62
    7
 10
280.27849014843969
 20
150.55300663413391
 40
10.15456491635166
 50
176.78919008197275
 51
183.21080991802742
  0
ARC
  8
_0-0_
  6
CONTINUOUS
 62
    7
 10
270.27002328591516
 20
149.77775051381946
 40
0.9536316105643563
 50
199.11812031409389
 51
253.77089632225113
  0
ARC
  8
_0-0_
  6
CONTINUOUS
 62
    7
 10
270.456575293485
 20
150.64357964814531
 40
1.8381716132716766
 50
255.7307072235771
 51
284.2692927764229
  0
ARC
  8
_0-0_
  6
CONTINUOUS
 62
    7
 10
270.64312730105485
 20
149.77775051381946
 40
0.953631610564356
 50
286.22910367774887
 51
340.8818796859062
  0
ARC
  8
_0-0_
  6
CONTINUOUS
 62
    7
 10
267.69661143514122
 20
150.55300663414118
 40
3.9983105741623
 50
344.21600247589294
 51
352.22375855280194
  0
ARC
  8
_0-0_
  6
CONTINUOUS
 62
    7
 10
270.456575293485
 20
149.66525472680166
 40
0.2764383107008605
 50
198.78093483258863
 51
341.21906516741143
  0
ARC
  8
_0-0_
  6
CONTINUOUS
 62
    7
 10
269.22956097136603
 20
149.98507043561858
 40
1.5438455292554942
 50
344.64474174215434
 51
1.000075600874925
  0
ARC
  8
_0-0_
  6
CONTINUOUS
 62
    7
 10
271.68358961560443
 20
149.98507043561858
 40
1.5438455292554942
 50
179.28077569259491
 51
195.35525825784572
  0
ARC
  8
_0-0_
  6
CONTINUOUS
 62
    7
 10
270.456575293485
 20
151.44075854148014
 40
0.2764383107008605
 50
18.780934832588638
 51
161.21906516741146
  0
ARC
  8
_0-0_
  6
CONTINUOUS
 62
    7
 10
271.68358961560443
 20
151.12094283266356
 40
1.5438455292554942
 50
164.64474174215434
 51
180.71922430740514
  0
ARC
  8
_0-0_
  6
CONTINUOUS
 62
    7
 10
269.22956097136603
 20
151.12094283266356
 40
1.5438455292554942
 50
4.3528100028009122
 51
15.355258257845675
  0
ARC
  8
_0-0_
  6
CONTINUOUS
 62
    7
 10
270.64312730105485
 20
151.32826275446268
 40
0.9536316105643563
 50
19.118120314093819
 51
73.770896322251133
  0
ARC
  8
_0-0_
  6
CONTINUOUS
 62
    7
 10
267.69661143514122
 20
150.55300663414118
 40
3.9983105741623
 50
9.8663227198208787
 51
15.783997524107056
  0
ARC
  8
_0-0_
  6
CONTINUOUS
 62
    7
 10
270.456575293485
 20
150.46243362013684
 40
1.8381716132716766
 50
75.730707223577141
 51
104.26929277642293
  0
ARC
  8
_0-0_
  6
CONTINUOUS
 62
    7
 10
270.27002328591516
 20
151.32826275446268
 40
0.9536316105643563
 50
106.22910367774888
 51
160.8818796859062
  0
ARC
  8
_0-0_
  6
CONTINUOUS
 62
    7
 10
276.19869298521144
 20
150.55300663414118
 40
3.9983105741623
 50
164.21600247589299
 51
195.78399752410709
  0
ARC
  8
_0-0_
  6
CONTINUOUS
 62
    7
 10
283.26064398182234
 20
150.55300663413391
 40
10.15456491635166
 50
176.78919008197275
 51
183.21080991802742
  0
ARC
  8
_0-0_
  6
CONTINUOUS
 62
    7
 10
263.61681427191297
 20
150.55300663413391
 40
10.154564916351658
 50
356.78919008197266
 51
3.2108099180273384
  0
ARC
  8
_0-0_
  6
CONTINUOUS
 62
    7
 10
273.43872912686766
 20
149.66525472680166
 40
0.2764383107008605
 50
198.78093483258863
 51
341.21906516741143
  0
ARC
  8
_0-0_
  6
CONTINUOUS
 62
    7
 10
273.43872912686766
 20
150.64357964814531
 40
1.8381716132716766
 50
255.7307072235771
 51
284.2692927764229
  0
ARC
  8
_0-0_
  6
CONTINUOUS
 62
    7
 10
273.6252811344375
 20
149.77775051381946
 40
0.953631610564356
 50
286.22910367774887
 51
340.8818796859062
  0
ARC
  8
_0-0_
  6
CONTINUOUS
 62
    7
 10
273.25217711929781
 20
149.77775051381946
 40
0.9536316105643563
 50
199.11812031409389
 51
253.77089632225113
  0
ARC
  8
_0-0_
  6
CONTINUOUS
 62
    7
 10
270.67876526852388
 20
150.55300663414118
 40
3.9983105741623
 50
344.21600247589294
 51
15.783997524107075
  0
ARC
  8
_0-0_
  6
CONTINUOUS
 62
    7
 10
272.21171480474823
 20
149.98507043561858
 40
1.5438455292554942
 50
344.64474174215434
 51
0.7192243074051015
  0
ARC
  8
_0-0_
  6
CONTINUOUS
 62
    7
 10
274.66574344898709
 20
149.98507043561858
 40
1.5438455292554942
 50
179.28077569259491
 51
195.35525825784572
  0
ARC
  8
_0-0_
  6
CONTINUOUS
 62
    7
 10
274.66574344898709
 20
151.12094283266356
 40
1.5438455292554942
 50
164.64474174215434
 51
180.71922430740514
  0
ARC
  8
_0-0_
  6
CONTINUOUS
 62
    7
 10
273.43872912686766
 20
151.44075854148014
 40
0.2764383107008605
 50
18.780934832588638
 51
161.21906516741146
  0
ARC
  8
_0-0_
  6
CONTINUOUS
 62
    7
 10
272.21171480474823
 20
151.12094283266356
 40
1.5438455292554942
 50
359.28077569259489
 51
15.355258257845644
  0
ARC
  8
_0-0_
  6
CONTINUOUS
 62
    7
 10
273.43872912686766
 20
150.46243362013684
 40
1.8381716132716766
 50
75.730707223577141
 51
104.26929277642293
  0
ARC
  8
_0-0_
  6
CONTINUOUS
 62
    7
 10
273.25217711929781
 20
151.32826275446268
 40
0.9536316105643563
 50
106.22910367774888
 51
160.8818796859062
  0
ARC
  8
_0-0_
  6
CONTINUOUS
 62
    7
 10
273.6252811344375
 20
151.32826275446268
 40
0.9536316105643563
 50
19.118120314093819
 51
73.770896322251133
  0
LINE
  8
_0-0_
  6
CONTINUOUS
 62
    7
 10
282.1446610377339
 20
150.80082860934493
 11
282.08687750049569
 21
150.66757277441798
  0
LINE
  8
_0-0_
  6
CONTINUOUS
 62
    7
 10
282.08687750049569
 20
150.66757277441798
 11
282.0041415371403
 21
150.5453301920362
  0
LINE
  8
_0-0_
  6
CONTINUOUS
 62
    7
 10
282.0041415371403
 20
150.5453301920362
 11
281.89896703804783
 21
150.43781514120758
  0
LINE
  8
_0-0_
  6
CONTINUOUS
 62
    7
 10
281.89896703804783
 20
150.43781514120758
 11
281.77454967715238
 21
150.34829441234626
  0
LINE
  8
_0-0_
  6
CONTINUOUS
 62
    7
 10
281.77454967715238
 20
150.34829441234626
 11
281.63466981300644
 21
150.27948804749906
  0
LINE
  8
_0-0_
  6
CONTINUOUS
 62
    7
 10
281.63466981300644
 20
150.27948804749906
 11
281.5559364163538
 21
150.25223152149988
  0
LINE
  8
_0-0_
  6
CONTINUOUS
 62
    7
 10
281.09978047043501
 20
151.55807983332204
 11
281.14634484900688
 21
151.52967213171405
  0
LINE
  8
_0-0_
  6
CONTINUOUS
 62
    7
 10
281.14634484900688
 20
151.52967213171405
 11
281.1886387521929
 21
151.49050143487563
  0
LINE
  8
_0-0_
  6
CONTINUOUS
 62
    7
 10
281.1886387521929
 20
151.49050143487563
 11
281.22537710114659
 21
151.44175792460885
  0
LINE
  8
_0-0_
  6
CONTINUOUS
 62
    7
 10
281.22537710114659
 20
151.44175792460885
 11
281.25544361972544
 21
151.38492264780768
  0
LINE
  8
_0-0_
  6
CONTINUOUS
 62
    7
 10
281.25544361972544
 20
151.38492264780768
 11
281.27792475197691
 21
151.32172251559786
  0
LINE
  8
_0-0_
  6
CONTINUOUS
 62
    7
 10
281.27792475197691
 20
151.32172251559786
 11
281.2921374200734
 21
151.2540778320157
  0
LINE
  8
_0-0_
  6
CONTINUOUS
 62
    7
 10
281.2921374200734
 20
151.2540778320157
 11
281.29764977928687
 21
151.18404394654192
  0
LINE
  8
_0-0_
  6
CONTINUOUS
 62
    7
 10
281.29764977928687
 20
151.18404394654192
 11
281.29429433937196
 21
151.11374880334779
  0
LINE
  8
_0-0_
  6
CONTINUOUS
 62
    7
 10
281.29429433937196
 20
151.11374880334779
 11
281.28217305367258
 21
151.0453282847883
  0
LINE
  8
_0-0_
  6
CONTINUOUS
 62
    7
 10
281.28217305367258
 20
151.0453282847883
 11
281.26165422132095
 21
150.98086131369735
  0
LINE
  8
_0-0_
  6
CONTINUOUS
 62
    7
 10
281.26165422132095
 20
150.98086131369735
 11
281.23336129665518
 21
150.92230668636967
  0
LINE
  8
_0-0_
  6
CONTINUOUS
 62
    7
 10
281.23336129665518
 20
150.92230668636967
 11
281.19815394587425
 21
150.87144355552664
  0
LINE
  8
_0-0_
  6
CONTINUOUS
 62
    7
 10
281.19815394587425
 20
150.87144355552664
 11
281.15710192651585
 21
150.82981737166079
  0
LINE
  8
_0-0_
  6
CONTINUOUS
 62
    7
 10
281.15710192651585
 20
150.82981737166079
 11
281.11145258341492
 21
150.79869292530509
  0
LINE
  8
_0-0_
  6
CONTINUOUS
 62
    7
 10
281.11145258341492
 20
150.79869292530509
 11
281.09978047043501
 21
150.79281128034393
  0
LINE
  8
_0-0_
  6
CONTINUOUS
 62
    7
 10
281.56549222737982
 20
152.12579475376072
 11
281.7111414939373
 21
152.06737983316134
  0
LINE
  8
_0-0_
  6
CONTINUOUS
 62
    7
 10
281.7111414939373
 20
152.06737983316134
 11
281.84325488280518
 21
151.98719519192599
  0
LINE
  8
_0-0_
  6
CONTINUOUS
 62
    7
 10
281.84325488280518
 20
151.98719519192599
 11
281.95781819551547
 21
151.88767719980331
  0
LINE
  8
_0-0_
  6
CONTINUOUS
 62
    7
 10
281.95781819551547
 20
151.88767719980331
 11
282.05135048378315
 21
151.77184966062532
  0
LINE
  8
_0-0_
  6
CONTINUOUS
 62
    7
 10
282.05135048378315
 20
151.77184966062532
 11
282.12100981635894
 21
151.64323193555845
  0
LINE
  8
_0-0_
  6
CONTINUOUS
 62
    7
 10
282.12100981635894
 20
151.64323193555845
 11
282.1446610377339
 21
151.58011224146844
  0
LINE
  8
_0-0_
  6
CONTINUOUS
 62
    7
 10
281.56549222738005
 20
152.12579475376072
 11
280.90823496907569
 21
152.23794259544945
  0
LINE
  8
_0-0_
  6
CONTINUOUS
 62
    7
 10
280.90823496907569
 20
152.23794259544945
 11
280.62028027291922
 21
152.25430766964104
  0
LINE
  8
_0-0_
  6
CONTINUOUS
 62
    7
 10
282.14466103773407
 20
151.58011224146838
 11
282.19420733036878
 21
151.30815400096111
  0
LINE
  8
_0-0_
  6
CONTINUOUS
 62
    7
 10
282.19420733036878
 20
151.30815400096111
 11
282.19028456540599
 21
151.03262000456141
  0
LINE
  8
_0-0_
  6
CONTINUOUS
 62
    7
 10
282.19028456540599
 20
151.03262000456141
 11
282.14466103773407
 21
150.80082860934476
  0
LINE
  8
_0-0_
  6
CONTINUOUS
 62
    7
 10
281.09978047043541
 20
150.79281128034393
 11
280.82022899017801
 21
150.72209024582037
  0
LINE
  8
_0-0_
  6
CONTINUOUS
 62
    7
 10
280.82022899017801
 20
150.72209024582037
 11
280.62028027291893
 21
150.71320834453888
  0
LINE
  8
_0-0_
  6
CONTINUOUS
 62
    7
 10
280.62028027291893
 20
151.6376827691272
 11
280.90398344278037
 21
151.61489659763186
  0
LINE
  8
_0-0_
  6
CONTINUOUS
 62
    7
 10
280.90398344278037
 20
151.61489659763186
 11
281.09978047043541
 21
151.55807983332215
  0
ARC
  8
_0-0_
  6
CONTINUOUS
 62
    7
 10
240.66155541702301
 20
151.04502165437589
 40
6
 50
180
 51
225
  0
ARC
  8
_0-0_
  6
CONTINUOUS
 62
    7
 10
252.14683679150403
 20
139.55974027989498
 40
6
 50
225
 51
270
  0
ARC
  8
_0-0_
  6
CONTINUOUS
 62
    7
 10
302.17627404254245
 20
139.55974027989498
 40
6
 50
270
 51
314.99999999999989
  0
ARC
  8
_0-0_
  6
CONTINUOUS
 62
    7
 10
313.66155541702301
 20
151.04502165437589
 40
6
 50
314.99999999999983
 51
0.000000000000019
  0
CIRCLE
  8
_0-0_
  6
CONTINUOUS
 62
    7
 10
252.16155541702301
 20
149.55974027989498
 40
2.5
  0
CIRCLE
  8
_0-0_
  6
CONTINUOUS
 62
    7
 10
302.16155541702301
 20
149.55974027989498
 40
2.5
  0
ARC
  8
_0-0_
  6
CONTINUOUS
 62
    7
 10
236.66155541702301
 20
167.55974027989507
 40
2
 50
90
 51
180
  0
ARC
  8
_0-0_
  6
CONTINUOUS
 62
    7
 10
317.66155541702301
 20
167.55974027989507
 40
2
 50
0
 51
90
  0
ARC
  8
_0-0_
  6
CONTINUOUS
 62
    7
 10
325.16155541702301
 20
90.043769808795048
 40
0.9999999999999997
 50
270
 51
0
  0
ARC
  8
_0-0_
  6
CONTINUOUS
 62
    7
 10
321.16155541702301
 20
90.043769808795048
 40
0.9999999999999997
 50
180.00000000000006
 51
270
  0
ARC
  8
_0-0_
  6
CONTINUOUS
 62
    7
 10
321.16155541702301
 20
119.0757107509948
 40
0.9999999999999997
 50
90.000000000000057
 51
180.00000000000006
  0
ARC
  8
_0-0_
  6
CONTINUOUS
 62
    7
 10
325.16155541702301
 20
119.0757107509948
 40
0.9999999999999997
 50
0.0000000000000254
 51
90.000000000000028
  0
ARC
  8
_0-0_
  6
CONTINUOUS
 62
    7
 10
323.15482177126887
 20
108.50475654508949
 40
3.9983105741623
 50
74.216002475892992
 51
105.78399752410711
  0
ARC
  8
_0-0_
  6
CONTINUOUS
 62
    7
 10
323.1548217712616
 20
101.44280554847836
 40
10.15456491635166
 50
86.78919008197272
 51
93.21080991802738
  0
ARC
  8
_0-0_
  6
CONTINUOUS
 62
    7
 10
322.37956565094737
 20
111.45127241100289
 40
0.9536316105643563
 50
109.11812031409384
 51
163.77089632225116
  0
ARC
  8
_0-0_
  6
CONTINUOUS
 62
    7
 10
323.24539478527322
 20
111.26472040343305
 40
1.8381716132716766
 50
165.7307072235771
 51
194.26929277642293
  0
ARC
  8
_0-0_
  6
CONTINUOUS
 62
    7
 10
322.37956565094737
 20
111.0781683958632
 40
0.953631610564356
 50
196.2291036777489
 51
250.8818796859062
  0
ARC
  8
_0-0_
  6
CONTINUOUS
 62
    7
 10
323.15482177126887
 20
114.02468426177683
 40
3.9983105741623
 50
254.21600247589294
 51
262.22375855280194
  0
ARC
  8
_0-0_
  6
CONTINUOUS
 62
    7
 10
322.26706986392946
 20
111.26472040343305
 40
0.2764383107008605
 50
108.78093483258863
 51
251.2190651674114
  0
ARC
  8
_0-0_
  6
CONTINUOUS
 62
    7
 10
322.58688557274627
 20
112.49173472555225
 40
1.5438455292554942
 50
254.64474174215428
 51
271.00007560087488
  0
ARC
  8
_0-0_
  6
CONTINUOUS
 62
    7
 10
322.58688557274627
 20
110.03770608131384
 40
1.5438455292554942
 50
89.280775692594915
 51
105.35525825784572
  0
ARC
  8
_0-0_
  6
CONTINUOUS
 62
    7
 10
324.04257367860782
 20
111.26472040343305
 40
0.2764383107008605
 50
288.78093483258863
 51
71.219065167411458
  0
ARC
  8
_0-0_
  6
CONTINUOUS
 62
    7
 10
323.72275796979147
 20
110.03770608131384
 40
1.5438455292554942
 50
74.64474174215438
 51
90.719224307405185
  0
ARC
  8
_0-0_
  6
CONTINUOUS
 62
    7
 10
323.72275796979147
 20
112.49173472555225
 40
1.5438455292554942
 50
274.35281000280088
 51
285.35525825784566
  0
ARC
  8
_0-0_
  6
CONTINUOUS
 62
    7
 10
323.93007789159037
 20
111.0781683958632
 40
0.9536316105643563
 50
289.1181203140938
 51
343.77089632225113
  0
ARC
  8
_0-0_
  6
CONTINUOUS
 62
    7
 10
323.15482177126887
 20
114.02468426177683
 40
3.9983105741623
 50
279.86632271982086
 51
285.78399752410701
  0
ARC
  8
_0-0_
  6
CONTINUOUS
 62
    7
 10
323.06424875726452
 20
111.26472040343305
 40
1.8381716132716766
 50
345.73070722357716
 51
14.269292776422905
  0
ARC
  8
_0-0_
  6
CONTINUOUS
 62
    7
 10
323.93007789159037
 20
111.45127241100289
 40
0.9536316105643563
 50
16.229103677748899
 51
70.881879685906199
  0
ARC
  8
_0-0_
  6
CONTINUOUS
 62
    7
 10
323.15482177126887
 20
105.52260271170684
 40
3.9983105741623
 50
74.216002475892992
 51
105.78399752410711
  0
ARC
  8
_0-0_
  6
CONTINUOUS
 62
    7
 10
323.1548217712616
 20
98.460651715095935
 40
10.15456491635166
 50
86.78919008197272
 51
93.21080991802738
  0
ARC
  8
_0-0_
  6
CONTINUOUS
 62
    7
 10
323.1548217712616
 20
118.1044814250053
 40
10.154564916351658
 50
266.78919008197266
 51
273.21080991802734
  0
ARC
  8
_0-0_
  6
CONTINUOUS
 62
    7
 10
322.26706986392946
 20
108.28256657005062
 40
0.2764383107008605
 50
108.78093483258863
 51
251.2190651674114
  0
ARC
  8
_0-0_
  6
CONTINUOUS
 62
    7
 10
323.24539478527322
 20
108.28256657005062
 40
1.8381716132716766
 50
165.7307072235771
 51
194.26929277642293
  0
ARC
  8
_0-0_
  6
CONTINUOUS
 62
    7
 10
322.37956565094737
 20
108.09601456248078
 40
0.953631610564356
 50
196.2291036777489
 51
250.8818796859062
  0
ARC
  8
_0-0_
  6
CONTINUOUS
 62
    7
 10
322.37956565094737
 20
108.46911857762046
 40
0.9536316105643563
 50
109.11812031409384
 51
163.77089632225116
  0
ARC
  8
_0-0_
  6
CONTINUOUS
 62
    7
 10
323.15482177126887
 20
111.04253042839417
 40
3.9983105741623
 50
254.21600247589294
 51
285.78399752410701
  0
ARC
  8
_0-0_
  6
CONTINUOUS
 62
    7
 10
322.58688557274627
 20
109.50958089216982
 40
1.5438455292554942
 50
254.64474174215428
 51
270.71922430740506
  0
ARC
  8
_0-0_
  6
CONTINUOUS
 62
    7
 10
322.58688557274627
 20
107.05555224793119
 40
1.5438455292554942
 50
89.280775692594915
 51
105.35525825784572
  0
ARC
  8
_0-0_
  6
CONTINUOUS
 62
    7
 10
323.72275796979147
 20
107.05555224793119
 40
1.5438455292554942
 50
74.64474174215438
 51
90.719224307405185
  0
ARC
  8
_0-0_
  6
CONTINUOUS
 62
    7
 10
324.04257367860782
 20
108.28256657005062
 40
0.2764383107008605
 50
288.78093483258863
 51
71.219065167411458
  0
ARC
  8
_0-0_
  6
CONTINUOUS
 62
    7
 10
323.72275796979147
 20
109.50958089216982
 40
1.5438455292554942
 50
269.28077569259483
 51
285.35525825784566
  0
ARC
  8
_0-0_
  6
CONTINUOUS
 62
    7
 10
323.06424875726452
 20
108.28256657005062
 40
1.8381716132716766
 50
345.73070722357716
 51
14.269292776422905
  0
ARC
  8
_0-0_
  6
CONTINUOUS
 62
    7
 10
323.93007789159037
 20
108.46911857762046
 40
0.9536316105643563
 50
16.229103677748899
 51
70.881879685906199
  0
ARC
  8
_0-0_
  6
CONTINUOUS
 62
    7
 10
323.93007789159037
 20
108.09601456248078
 40
0.9536316105643563
 50
289.1181203140938
 51
343.77089632225113
  0
LINE
  8
_0-0_
  6
CONTINUOUS
 62
    7
 10
323.40264374647285
 20
99.576634659184151
 11
323.26938791154589
 21
99.634418196422359
  0
LINE
  8
_0-0_
  6
CONTINUOUS
 62
    7
 10
323.26938791154589
 20
99.634418196422359
 11
323.14714532916412
 21
99.717154159777749
  0
LINE
  8
_0-0_
  6
CONTINUOUS
 62
    7
 10
323.14714532916412
 20
99.717154159777749
 11
323.03963027833549
 21
99.822328658870219
  0
LINE
  8
_0-0_
  6
CONTINUOUS
 62
    7
 10
323.03963027833549
 20
99.822328658870219
 11
322.95010954947418
 21
99.946746019765726
  0
LINE
  8
_0-0_
  6
CONTINUOUS
 62
    7
 10
322.95010954947418
 20
99.946746019765726
 11
322.88130318462697
 21
100.08662588391161
  0
LINE
  8
_0-0_
  6
CONTINUOUS
 62
    7
 10
322.88130318462697
 20
100.08662588391161
 11
322.85404665862785
 21
100.16535928056425
  0
LINE
  8
_0-0_
  6
CONTINUOUS
 62
    7
 10
324.15989497044973
 20
100.62151522648304
 11
324.13148726884174
 21
100.57495084791117
  0
LINE
  8
_0-0_
  6
CONTINUOUS
 62
    7
 10
324.13148726884174
 20
100.57495084791117
 11
324.09231657200331
 21
100.53265694472515
  0
LINE
  8
_0-0_
  6
CONTINUOUS
 62
    7
 10
324.09231657200331
 20
100.53265694472515
 11
324.04357306173654
 21
100.49591859577146
  0
LINE
  8
_0-0_
  6
CONTINUOUS
 62
    7
 10
324.04357306173654
 20
100.49591859577146
 11
323.98673778493543
 21
100.46585207719255
  0
LINE
  8
_0-0_
  6
CONTINUOUS
 62
    7
 10
323.98673778493543
 20
100.46585207719255
 11
323.9235376527256
 21
100.44337094494114
  0
LINE
  8
_0-0_
  6
CONTINUOUS
 62
    7
 10
323.9235376527256
 20
100.44337094494114
 11
323.85589296914338
 21
100.42915827684465
  0
LINE
  8
_0-0_
  6
CONTINUOUS
 62
    7
 10
323.85589296914338
 20
100.42915827684465
 11
323.78585908366961
 21
100.42364591763118
  0
LINE
  8
_0-0_
  6
CONTINUOUS
 62
    7
 10
323.78585908366961
 20
100.42364591763118
 11
323.71556394047548
 21
100.42700135754609
  0
LINE
  8
_0-0_
  6
CONTINUOUS
 62
    7
 10
323.71556394047548
 20
100.42700135754609
 11
323.64714342191598
 21
100.43912264324553
  0
LINE
  8
_0-0_
  6
CONTINUOUS
 62
    7
 10
323.64714342191598
 20
100.43912264324553
 11
323.58267645082503
 21
100.45964147559704
  0
LINE
  8
_0-0_
  6
CONTINUOUS
 62
    7
 10
323.58267645082503
 20
100.45964147559704
 11
323.52412182349741
 21
100.48793440026287
  0
LINE
  8
_0-0_
  6
CONTINUOUS
 62
    7
 10
323.52412182349741
 20
100.48793440026287
 11
323.47325869265433
 21
100.5231417510438
  0
LINE
  8
_0-0_
  6
CONTINUOUS
 62
    7
 10
323.47325869265433
 20
100.5231417510438
 11
323.43163250878848
 21
100.5641937704022
  0
LINE
  8
_0-0_
  6
CONTINUOUS
 62
    7
 10
323.43163250878848
 20
100.5641937704022
 11
323.40050806243283
 21
100.60984311350313
  0
LINE
  8
_0-0_
  6
CONTINUOUS
 62
    7
 10
323.40050806243283
 20
100.60984311350313
 11
323.39462641747161
 21
100.62151522648304
  0
LINE
  8
_0-0_
  6
CONTINUOUS
 62
    7
 10
324.7276098908884
 20
100.15580346953817
 11
324.66919497028903
 21
100.0101542029808
  0
LINE
  8
_0-0_
  6
CONTINUOUS
 62
    7
 10
324.66919497028903
 20
100.0101542029808
 11
324.58901032905374
 21
99.878040814112808
  0
LINE
  8
_0-0_
  6
CONTINUOUS
 62
    7
 10
324.58901032905374
 20
99.878040814112808
 11
324.48949233693099
 21
99.763477501402633
  0
LINE
  8
_0-0_
  6
CONTINUOUS
 62
    7
 10
324.48949233693099
 20
99.763477501402633
 11
324.37366479775307
 21
99.669945213134895
  0
LINE
  8
_0-0_
  6
CONTINUOUS
 62
    7
 10
324.37366479775307
 20
99.669945213134895
 11
324.24504707268619
 21
99.600285880559113
  0
LINE
  8
_0-0_
  6
CONTINUOUS
 62
    7
 10
324.24504707268619
 20
99.600285880559113
 11
324.18192737859619
 21
99.576634659184151
  0
LINE
  8
_0-0_
  6
CONTINUOUS
 62
    7
 10
324.72760989088852
 20
100.15580346953823
 11
324.83975773257725
 21
100.81306072784258
  0
LINE
  8
_0-0_
  6
CONTINUOUS
 62
    7
 10
324.83975773257725
 20
100.81306072784258
 11
324.85612280676878
 21
101.10101542399906
  0
LINE
  8
_0-0_
  6
CONTINUOUS
 62
    7
 10
324.18192737859607
 20
99.576634659184208
 11
323.90996913808885
 21
99.527088366549492
  0
LINE
  8
_0-0_
  6
CONTINUOUS
 62
    7
 10
323.90996913808885
 20
99.527088366549492
 11
323.6344351416891
 21
99.531011131512344
  0
LINE
  8
_0-0_
  6
CONTINUOUS
 62
    7
 10
323.6344351416891
 20
99.531011131512344
 11
323.40264374647251
 21
99.576634659184208
  0
LINE
  8
_0-0_
  6
CONTINUOUS
 62
    7
 10
323.3946264174719
 20
100.62151522648287
 11
323.32390538294828
 21
100.90106670674027
  0
LINE
  8
_0-0_
  6
CONTINUOUS
 62
    7
 10
323.32390538294828
 20
100.90106670674027
 11
323.31502348166686
 21
101.10101542399934
  0
LINE
  8
_0-0_
  6
CONTINUOUS
 62
    7
 10
324.23949790625494
 20
101.10101542399934
 11
324.2167117347596
 21
100.8173122541379
  0
LINE
  8
_0-0_
  6
CONTINUOUS
 62
    7
 10
324.2167117347596
 20
100.8173122541379
 11
324.1598949704499
 21
100.62151522648287
  0
ARC
  8
_0-0_
  6
CONTINUOUS
 62
    7
 10
323.64683679150357
 20
141.05974027989498
 40
6
 50
90
 51
135
  0
ARC
  8
_0-0_
  6
CONTINUOUS
 62
    7
 10
312.16155541702301
 20
129.57445890541419
 40
6
 50
135
 51
180
  0
ARC
  8
_0-0_
  6
CONTINUOUS
 62
    7
 10
312.16155541702301
 20
79.54502165437583
 40
6
 50
180
 51
224.99999999999989
  0
ARC
  8
_0-0_
  6
CONTINUOUS
 62
    7
 10
323.64683679150357
 20
68.059740279895038
 40
6
 50
224.99999999999986
 51
270
  0
CIRCLE
  8
_0-0_
  6
CONTINUOUS
 62
    7
 10
322.16155541702301
 20
129.55974027989498
 40
2.5
  0
CIRCLE
  8
_0-0_
  6
CONTINUOUS
 62
    7
 10
322.16155541702301
 20
79.559740279895038
 40
2.5
  0
ARC
  8
_0-0_
  6
CONTINUOUS
 62
    7
 10
340.16155541702301
 20
145.05974027989498
 40
2
 50
359.99999999999994
 51
89.999999999999943
  0
ARC
  8
_0-0_
  6
CONTINUOUS
 62
    7
 10
340.16155541702301
 20
64.059740279895038
 40
2
 50
270
 51
0
  0
ARC
  8
_0-0_
  6
CONTINUOUS
 62
    7
 10
324.66155541702301
 20
152.05974027989532
 40
4.2999999999999998
 50
168.1534084156404
 51
281.84659158435898
  0
ARC
  8
_0-0_
  6
CONTINUOUS
 62
    7
 10
324.66155541702301
 20
152.05974027989532
 40
4.2999999999999998
 50
348.1534084156404
 51
101.84659158435903
  0
CIRCLE
  8
_0-0_
  6
CONTINUOUS
 62
    7
 10
324.66155541702301
 20
152.05974027989532
 40
2.25
  0
ARC
  8
_0-0_
  6
CONTINUOUS
 62
    7
 10
303.16155541702301
 20
130.55974027989498
 40
3
 50
0
 51
90
  0
LINE
  8
_0-1_
  6
PHANTOM1
 62
  152
 10
177.43983269745155
 20
162.0597402798951
 11
217.43983269745155
 21
162.0597402798951
  0
LINE
  8
_0-1_
  6
PHANTOM1
 62
  152
 10
217.43983269745155
 20
162.0597402798951
 11
217.43983269745155
 21
202.05974027989512
  0
LINE
  8
_0-1_
  6
PHANTOM1
 62
  152
 10
217.43983269745155
 20
202.05974027989512
 11
177.43983269745155
 21
202.05974027989512
  0
LINE
  8
_0-1_
  6
DASHED2
 62
  152
 10
177.43983269745155
 20
155.0597402798951
 11
182.63983269745137
 21
155.0597402798951
  0
LINE
  8
_0-1_
  6
DASHED2
 62
  152
 10
182.63983269745137
 20
155.0597402798951
 11
182.63983269745137
 21
144.0597402798951
  0
LINE
  8
_0-1_
  6
DASHED2
 62
  152
 10
182.63983269745137
 20
144.0597402798951
 11
177.43983269745155
 21
144.0597402798951
  0
LINE
  8
_0-1_
  6
DASHED2
 62
  152
 10
182.63983269745137
 20
146.159740279895
 11
193.43983269745155
 21
146.159740279895
  0
LINE
  8
ADD_LINE
  6
DOT
 62
  152
 10
185.93983269745155
 20
157.83486914929858
 11
185.93983269745155
 21
158.00807423005551
  0
LINE
  8
ADD_LINE
  6
DOT
 62
  152
 10
185.93983269745155
 20
158.00807423005551
 11
186.08983269745119
 21
158.09467677043392
  0
LINE
  8
_0-1_
  6
DASHED2
 62
  152
 10
182.63983269745137
 20
152.95974027989473
 11
193.43983269745155
 21
152.95974027989473
  0
LINE
  8
_0-1_
  6
CENTER2
 62
  152
 10
197.43983269745155
 20
177.05974027989507
 11
197.43983269745155
 21
187.05974027989512
  0
LINE
  8
_0-1_
  6
CENTER2
 62
  152
 10
202.43983269745155
 20
182.05974027989512
 11
192.43983269745155
 21
182.05974027989512
  0
LINE
  8
_0-1_
  6
DASHED2
 62
  152
 10
43.473241100783412
 20
162.0597402798951
 11
143.47324110078341
 21
162.0597402798951
  0
LINE
  8
_0-1_
  6
CONTINUOUS
 62
  152
 10
143.47324110078341
 20
156.0597402798951
 11
53.473241100783412
 21
156.0597402798951
  0
LINE
  8
_0-1_
  6
CENTER2
 62
  152
 10
53.473241100783412
 20
157.5597402798951
 11
53.473241100783412
 21
146.55974027989498
  0
LINE
  8
_0-1_
  6
CONTINUOUS
 62
  152
 10
49.473241100783412
 20
152.0597402798951
 11
49.473241100783412
 21
62.059740279895038
  0
LINE
  8
_0-1_
  6
CONTINUOUS
 62
  152
 10
45.873241100783503
 20
62.059740279895038
 11
45.873241100783503
 21
152.0597402798951
  0
LINE
  8
_0-1_
  6
CENTER2
 62
  152
 10
47.973241100783412
 20
152.0597402798951
 11
58.973241100783412
 21
152.0597402798951
  0
LINE
  8
_0-1_
  6
CENTER2
 62
  152
 10
69.473241100783412
 20
149.55974027989498
 11
82.473241100783412
 21
149.55974027989498
  0
LINE
  8
_0-1_
  6
CENTER2
 62
  152
 10
75.973241100783412
 20
143.05974027989498
 11
75.973241100783412
 21
156.0597402798951
  0
LINE
  8
_0-1_
  6
CONTINUOUS
 62
  152
 10
74.556961100783496
 20
133.97603027989464
 11
92.537111100783363
 21
133.97603027989464
  0
LINE
  8
_0-1_
  6
CONTINUOUS
 62
  152
 10
94.658431100783559
 20
128.8547102798949
 11
76.678281100783693
 21
110.87455027989535
  0
LINE
  8
_0-1_
  6
CONTINUOUS
 62
  152
 10
71.556961100783496
 20
112.99587027989509
 11
71.556961100783496
 21
130.9760302798951
  0
LINE
  8
_0-1_
  6
CENTER2
 62
  152
 10
62.473241100783412
 20
129.55974027989498
 11
49.473241100783412
 21
129.55974027989498
  0
LINE
  8
_0-1_
  6
CENTER2
 62
  152
 10
55.973241100783412
 20
123.05974027989504
 11
55.973241100783412
 21
136.05974027989498
  0
LINE
  8
_0-1_
  6
CONTINUOUS
 62
  152
 10
62.973241100783412
 20
139.55974027989498
 11
62.973241100783412
 21
86.802380279894976
  0
LINE
  8
_0-1_
  6
CONTINUOUS
 62
  152
 10
68.094561100783608
 20
84.681060279895235
 11
78.594561100783608
 21
95.18106027989478
  0
LINE
  8
_0-1_
  6
CONTINUOUS
 62
  152
 10
79.473241100783412
 20
97.302380279894976
 11
79.473241100783412
 21
100.28767027989505
  0
LINE
  8
_0-1_
  6
CONTINUOUS
 62
  152
 10
80.35192110078367
 20
102.40899027989479
 11
103.1240011007834
 21
125.18106027989478
  0
LINE
  8
_0-1_
  6
CONTINUOUS
 62
  152
 10
105.2453211007836
 20
126.05974027989498
 11
108.23060110078347
 21
126.05974027989498
  0
LINE
  8
_0-1_
  6
CONTINUOUS
 62
  152
 10
110.35192110078367
 20
126.93842027989479
 11
120.85192110078367
 21
137.43842027989524
  0
LINE
  8
_0-1_
  6
CONTINUOUS
 62
  152
 10
118.73060110078347
 20
142.55974027989498
 11
65.973241100783412
 21
142.55974027989498
  0
LINE
  8
_0-1_
  6
CONTINUOUS
 62
  152
 10
53.473241100783412
 20
159.659740279895
 11
143.47324110078341
 21
159.659740279895
  0
LINE
  8
_0-1_
  6
DASHED2
 62
  152
 10
43.473241100783412
 20
162.0597402798951
 11
43.473241100783412
 21
62.059740279895038
  0
LINE
  8
_0-1_
  6
CENTER2
 62
  152
 10
132.47324110078341
 20
149.55974027989498
 11
119.47324110078341
 21
149.55974027989498
  0
LINE
  8
_0-1_
  6
CENTER2
 62
  152
 10
125.97324110078341
 20
143.05974027989498
 11
125.97324110078341
 21
156.0597402798951
  0
LINE
  8
_0-1_
  6
CENTER2
 62
  152
 10
55.973241100783412
 20
86.059740279895038
 11
55.973241100783412
 21
73.059740279895038
  0
LINE
  8
_0-1_
  6
CENTER2
 62
  152
 10
62.473241100783412
 20
79.559740279895038
 11
49.473241100783412
 21
79.559740279895038
  0
ARC
  8
_0-1_
  6
CONTINUOUS
 62
  152
 10
53.473241100783412
 20
152.0597402798951
 40
4
 50
90
 51
180
  0
ARC
  8
_0-1_
  6
CONTINUOUS
 62
  152
 10
118.73060110078347
 20
139.55974027989498
 40
3.0000000000000004
 50
315.00000000000006
 51
90.000000000000057
  0
ARC
  8
_0-1_
  6
CONTINUOUS
 62
  152
 10
108.23060110078347
 20
129.05974027989498
 40
3.0000000000000004
 50
270
 51
315
  0
ARC
  8
_0-1_
  6
CONTINUOUS
 62
  152
 10
105.2453211007836
 20
123.05974027989504
 40
3.0000000000000004
 50
90
 51
135
  0
ARC
  8
_0-1_
  6
CONTINUOUS
 62
  152
 10
82.473241100783412
 20
100.28767027989505
 40
3.0000000000000004
 50
135
 51
180
  0
ARC
  8
_0-1_
  6
CONTINUOUS
 62
  152
 10
76.473241100783412
 20
97.302380279894976
 40
3.0000000000000004
 50
315.00000000000006
 51
0.0000000000000508
  0
ARC
  8
_0-1_
  6
CONTINUOUS
 62
  152
 10
65.973241100783412
 20
86.802380279894976
 40
3.0000000000000004
 50
180
 51
315
  0
ARC
  8
_0-1_
  6
CONTINUOUS
 62
  152
 10
65.973241100783412
 20
139.55974027989498
 40
3.0000000000000004
 50
90
 51
180
  0
ARC
  8
_0-1_
  6
CONTINUOUS
 62
  152
 10
53.473241100783412
 20
152.0597402798951
 40
7.5999999999999996
 50
90
 51
180
  0
ARC
  8
_0-1_
  6
CONTINUOUS
 62
  152
 10
74.556961100783496
 20
130.9760302798951
 40
3.0000000000000004
 50
90
 51
180
  0
ARC
  8
_0-1_
  6
CONTINUOUS
 62
  152
 10
92.537111100783363
 20
130.9760302798951
 40
3.0000000000000004
 50
315.00000000000006
 51
90.000000000000057
  0
ARC
  8
_0-1_
  6
CONTINUOUS
 62
  152
 10
74.556961100783496
 20
112.99587027989509
 40
3.0000000000000004
 50
180
 51
315
  0
LINE
  8
_0-1_
  6
CENTER1
 62
  152
 10
322.11596541702284
 20
154.60533027989527
 11
327.20713541702298
 21
149.51416027989501
  0
LINE
  8
_0-1_
  6
CENTER1
 62
  152
 10
321.6209954170231
 20
149.01918027989507
 11
327.70211541702292
 21
155.10030027989501
  0
LINE
  8
_0-1_
  6
CENTER1
 62
  152
 10
322.16155541702301
 20
76.559740279895038
 11
322.16155541702301
 21
82.559740279895038
  0
LINE
  8
_0-1_
  6
CENTER1
 62
  152
 10
319.16155541702301
 20
79.559740279895038
 11
325.16155541702301
 21
79.559740279895038
  0
LINE
  8
_0-1_
  6
CENTER1
 62
  152
 10
302.16155541702301
 20
146.55974027989498
 11
302.16155541702301
 21
152.5597402798951
  0
LINE
  8
_0-1_
  6
CENTER1
 62
  152
 10
299.16155541702301
 20
149.55974027989498
 11
305.16155541702301
 21
149.55974027989498
  0
CIRCLE
  8
_0-1_
  6
CONTINUOUS
 62
  152
 10
252.16155541702301
 20
149.55974027989498
 40
3.0000000000000009
  0
CIRCLE
  8
_0-1_
  6
CONTINUOUS
 62
  152
 10
302.16155541702301
 20
149.55974027989498
 40
2.9999999999999996
  0
CIRCLE
  8
_0-1_
  6
CONTINUOUS
 62
  152
 10
322.16155541702301
 20
129.55974027989498
 40
3.0000000000000009
  0
CIRCLE
  8
_0-1_
  6
CONTINUOUS
 62
  152
 10
322.16155541702301
 20
79.559740279895038
 40
2.9999999999999996
  0
LINE
  8
_0-1_
  6
PHANTOM1
 62
  152
 10
43.473241100783412
 20
218.79048157926394
 11
43.473241100783412
 21
11.238545933210673
  0
LINE
  8
_0-1_
  6
PHANTOM1
 62
  152
 10
161.41315262371262
 20
162.0597402798951
 11
43.473241100783412
 21
162.0597402798951
  0
LINE
  8
_0-1_
  6
PHANTOM1
 62
  152
 10
161.41315262371262
 20
202.05974027989507
 11
43.473241100783412
 21
202.05974027989507
  0
LINE
  8
_0-1_
  6
PHANTOM1
 62
  152
 10
3.4732411007834116
 20
218.79048157926394
 11
3.4732411007834116
 21
11.238545933210673
  0
LINE
  8
_0-1_
  6
PHANTOM1
 62
  152
 10
177.43983269745155
 20
202.05974027989512
 11
177.43983269745155
 21
162.0597402798951
  0
LINE
  8
_0-1_
  6
PHANTOM1
 62
  152
 10
334.66155541702295
 20
218.79048157926394
 11
334.66155541702295
 21
11.238545933210673
  0
LINE
  8
_0-1_
  6
PHANTOM1
 62
  152
 10
374.66155541702295
 20
218.79048157926394
 11
374.66155541702295
 21
11.238545933210673
  0
LINE
  8
_0-1_
  6
PHANTOM1
 62
  152
 10
231.1594945412964
 20
202.05974027989507
 11
334.66155541702295
 21
202.05974027989507
  0
LINE
  8
_0-1_
  6
PHANTOM1
 62
  152
 10
231.1594945412964
 20
162.0597402798951
 11
334.66155541702295
 21
162.0597402798951
  0
ENDSEC
  0
EOF
