  0
SECTION
  2
HEADER
  9
$ACADVER
  1
AC1009
  9
$INSBASE
 10
0
 20
0
 30
0
  9
$EXTMIN
 10
0
 20
0
  9
$EXTMAX
 10
1189
 20
841
  9
$LIMMIN
 10
0
 20
0
  9
$LIMMAX
 10
1189
 20
841
  9
$LTSCALE
 40
1
  0
ENDSEC
  0
SECTION
  2
TABLES
  0
TABLE
  2
LTYPE
 70
     9
  0
LTYPE
  2
CONTINUOUS
 70
    64
  3
実線
 72
    65
 73
     0
 40
0.0
  0
LTYPE
  2
DASHED1
 70
    64
  3
--  --  --  --  --  --  --  --  
 72
    65
 73
     2
 40
2.5
 49
1.25
 49
-1.25
  0
LTYPE
  2
DASHED2
 70
    64
  3
----    ----    ----    ----    
 72
    65
 73
     2
 40
5.0
 49
2.5
 49
-2.5
  0
LTYPE
  2
DASHED3
 70
    64
  3
------  ------  ------  ------  
 72
    65
 73
     2
 40
5.0
 49
3.75
 49
-1.25
  0
LTYPE
  2
CENTER1
 70
    64
  3
----- - ----- - ----- - ----- - 
 72
    65
 73
     4
 40
10.0
 49
6.25
 49
-1.25
 49
1.25
 49
-1.25
  0
LTYPE
  2
CENTER2
 70
    64
  3
----------  --  ----------  --  
 72
    65
 73
     4
 40
20.0
 49
12.5
 49
-2.5
 49
2.5
 49
-2.5
  0
LTYPE
  2
PHANTOM1
 70
    64
  3
--- - - --- - - --- - - --- - - 
 72
    65
 73
     6
 40
10.0
 49
3.25
 49
-1.25
 49
1.25
 49
-1.25
 49
1.25
 49
-1.25
  0
LTYPE
  2
PHANTOM2
 70
    64
  3
--------  -  -  --------  -  -  
 72
    65
 73
     6
 40
20.0
 49
10.0
 49
-2.5
 49
1.25
 49
-2.5
 49
1.25
 49
-2.5
  0
LTYPE
  2
DOT
 70
    64
  3
-   -   -   -   -   -   -   -   
 72
    65
 73
     2
 40
2.5
 49
0.625
 49
-1.875
  0
LTYPE
  2
DUMMY
 70
    64
  3
ダミー
 72
    65
 73
     0
 40
0.0
  0
LTYPE
  2
RAND1
 70
    64
  3
ランダム線1
 72
    65
 73
     4
 40
10.0
 49
1.0
 49
-2.0
 49
3.0
 49
-4.0
  0
LTYPE
  2
RAND2
 70
    64
  3
ランダム線2
 72
    65
 73
     4
 40
14.0
 49
2.0
 49
-3.0
 49
4.0
 49
-5.0
  0
LTYPE
  2
RAND3
 70
    64
  3
ランダム線3
 72
    65
 73
     4
 40
18.0
 49
3.0
 49
-4.0
 49
5.0
 49
-6.0
  0
LTYPE
  2
RAND4
 70
    64
  3
ランダム線4
 72
    65
 73
     4
 40
22.0
 49
4.0
 49
-5.0
 49
6.0
 49
-7.0
  0
LTYPE
  2
RAND5
 70
    64
  3
ランダム線5
 72
    65
 73
     4
 40
26.0
 49
5.0
 49
-6.0
 49
7.0
 49
-8.0
  0
LTYPE
  2
LONG1
 70
    64
  3
----------  --  ----------  --  
 72
    65
 73
     4
 40
40.0
 49
32.5
 49
-2.5
 49
2.5
 49
-2.5
  0
LTYPE
  2
LONG2
 70
    64
  3
--------  -  -  --------  -  -  
 72
    65
 73
     6
 40
40.0
 49
30.0
 49
-2.5
 49
1.25
 49
-2.5
 49
1.25
 49
-2.5
  0
LTYPE
  2
LONG3
 70
    64
  3
+++++++++++++++..+++++++++++++++
 72
    65
 73
     2
 40
40.0
 49
37.5
 49
-2.5
  0
LTYPE
  2
LONG4
 70
    64
  3
+++++++++++++++..+++++++++++++++
 72
    65
 73
     2
 40
80.0
 49
75.0
 49
-5.0
  0
LTYPE
  2
LONG5
 70
    64
  3
----------  --  ----------  --  
 72
    65
 73
     4
 40
60.0
 49
37.5
 49
-7.5
 49
7.5
 49
-7.5
  0
LTYPE
  2
dashed
 70
   64
  3
-------   -------------   ------
 72
   65
 73
    2
 40
7.5
 49
6
 49
-1.5
  0
LTYPE
  2
dashed_spaced
 70
   64
  3
----        --------        ----
 72
   65
 73
    2
 40
12
 49
6
 49
-6
  0
LTYPE
  2
long_dashed_dotted
 70
   64
  3
------------- --- --------------
 72
   65
 73
    4
 40
15.25
 49
12
 49
-1.5
 49
0.25
 49
-1.5
  0
LTYPE
  2
long_dashed_double-dotted
 70
   64
  3
----------- --- --- ------------
 72
   65
 73
    6
 40
17
 49
12
 49
-1.5
 49
0.25
 49
-1.5
 49
0.25
 49
-1.5
  0
LTYPE
  2
long_dashed_triplicate-dotted
 70
   64
  3
--------- --- --- --- ----------
 72
   65
 73
    8
 40
18.75
 49
12
 49
-1.5
 49
0.25
 49
-1.5
 49
0.25
 49
-1.5
 49
0.25
 49
-1.5
  0
LTYPE
  2
dotted
 70
   64
  3
   -       -       -       -    
 72
   65
 73
    2
 40
1.75
 49
0.25
 49
-1.5
  0
LTYPE
  2
chain
 70
   64
  3
-------------- -- --------------
 72
   65
 73
    4
 40
18.5
 49
12
 49
-1.5
 49
3.5
 49
-1.5
  0
LTYPE
  2
chain_double_dash
 70
   64
  3
------------ -- -- -------------
 72
   65
 73
    6
 40
23.5
 49
12
 49
-1.5
 49
3.5
 49
-1.5
 49
3.5
 49
-1.5
  0
LTYPE
  2
dashed_dotted
 70
   64
  3
-----------     -     ----------
 72
   65
 73
    4
 40
9.25
 49
6
 49
-1.5
 49
0.25
 49
-1.5
  0
LTYPE
  2
double-dashed_dotted
 70
   64
  3
------   -----------   -   -----
 72
   65
 73
    6
 40
16.75
 49
6
 49
-1.5
 49
6
 49
-1.5
 49
0.25
 49
-1.5
  0
LTYPE
  2
dashed_double-dotted
 70
   64
  3
---------    -    -    ---------
 72
   65
 73
    6
 40
11
 49
6
 49
-1.5
 49
0.25
 49
-1.5
 49
0.25
 49
-1.5
  0
LTYPE
  2
double-dashed_double-dotted
 70
   64
  3
-----   ---------   -   -   ----
 72
   65
 73
    8
 40
18.5
 49
6
 49
-1.5
 49
6
 49
-1.5
 49
0.25
 49
-1.5
 49
0.25
 49
-1.5
  0
LTYPE
  2
dashed_triplicate-dotted
 70
   64
  3
-------    -    -    -    ------
 72
   65
 73
    8
 40
12.75
 49
6
 49
-1.5
 49
0.25
 49
-1.5
 49
0.25
 49
-1.5
 49
0.25
 49
-1.5
  0
LTYPE
  2
double-dashed_triplicate-dotted
 70
   64
  3
-----  ---------  -  -  -  -----
 72
   65
 73
   10
 40
20.25
 49
6
 49
-1.5
 49
6
 49
-1.5
 49
0.25
 49
-1.5
 49
0.25
 49
-1.5
 49
0.25
 49
-1.5
  0
LTYPE
  2
undefined
 70
   64
  3
--------------------------------
 72
   65
 73
    0
 40
0
  0
ENDTAB
  0
TABLE
  2
STYLE
  5
3
100
AcDbSymbolTable
 70
     1
  0
STYLE
  5
10
100
AcDbSymbolTableRecord
100
AcDbTextStyleTableRecord
  2
STANDARD
 70
     0
 40
0.0
 41
1.0
 50
0.0
 71
     0
 42
0.2
  3
txt
  4
bigfont.shx
  0
STYLE
  5
26
100
AcDbSymbolTableRecord
100
AcDbTextStyleTableRecord
  2
TATEGAKI
 70
    68
 40
0.0
 41
1.0
 50
0.0
 71
     0
 42
1.0
  3
txt
  4
bigfont.shx
  0
ENDTAB
  0
TABLE
  2
LAYER
 70
    6
  0
LAYER
  2
_0-0_
 70
   64
 62
    7
  6
CONTINUOUS
  0
LAYER
  2
_0-1_
 70
   64
 62
    7
  6
CONTINUOUS
  0
LAYER
  2
_0-2_
 70
   64
 62
    7
  6
CONTINUOUS
  0
LAYER
  2
_0-3_
 70
   64
 62
    7
  6
CONTINUOUS
  0
LAYER
  2
_0-7_
 70
   64
 62
    7
  6
CONTINUOUS
  0
LAYER
  2
ADD_LINE
 70
   64
 62
    7
  6
CONTINUOUS
  0
ENDTAB
  0
ENDSEC
  0
SECTION
  2
BLOCKS
  0
ENDSEC
  0
SECTION
  2
ENTITIES
  0
LINE
  8
_0-2_
  6
CONTINUOUS
 62
  204
 10
109.73240964304551
 20
61.430462587536397
 11
109.70555169619917
 21
61.952991372937504
  0
LINE
  8
_0-2_
  6
CONTINUOUS
 62
  204
 10
109.73240964304551
 20
61.430462587536795
 11
109.73240964304551
 21
60.798411779978551
  0
LINE
  8
_0-2_
  6
CONTINUOUS
 62
  204
 10
109.60101148136829
 20
60.298411779978437
 11
108.5432901462728
 21
58.430462587546572
  0
LINE
  8
_0-2_
  6
CONTINUOUS
 62
  204
 10
107.69391907715004
 20
57.930462587546572
 11
106.75989172128681
 21
57.930462587546572
  0
LINE
  8
_0-2_
  6
CONTINUOUS
 62
  204
 10
105.33886622679785
 20
59.042234019892817
 11
104.63240964288281
 21
61.73046258754664
  0
LINE
  8
_0-2_
  6
CONTINUOUS
 62
  204
 10
104.63240964288531
 20
61.730462587536294
 11
105.42483943027202
 21
61.730462587536294
  0
LINE
  8
_0-2_
  6
CONTINUOUS
 62
  204
 10
105.96375492704948
 20
61.371437727636078
 11
106.4225672793628
 21
60.304719128722809
  0
LINE
  8
_0-2_
  6
CONTINUOUS
 62
  204
 10
106.98625579680544
 20
60.425206699204978
 11
106.98625579680544
 21
62.630462587545594
  0
LINE
  8
_0-2_
  6
CONTINUOUS
 62
  204
 10
105.51510195060524
 20
64.130462587545594
 11
102.93240964288549
 21
64.130462587545594
  0
LINE
  8
_0-2_
  6
CONTINUOUS
 62
  204
 10
102.83240964288558
 20
64.713305300020352
 11
102.83240964288558
 21
65.539041231320994
  0
LINE
  8
_0-2_
  6
CONTINUOUS
 62
  204
 10
102.83240964288558
 20
66.113305300020329
 11
102.83240964288558
 21
66.947619875071041
  0
LINE
  8
_0-2_
  6
CONTINUOUS
 62
  204
 10
102.83240964288558
 20
67.513305300020306
 11
102.83240964288558
 21
68.347619875070961
  0
LINE
  8
_0-2_
  6
CONTINUOUS
 62
  204
 10
102.83240964288558
 20
68.91330530002034
 11
102.83240964288558
 21
69.747619875071052
  0
LINE
  8
_0-2_
  6
CONTINUOUS
 62
  204
 10
102.93240964288549
 20
70.330462587545696
 11
105.844357779728
 21
70.330462587545696
  0
LINE
  8
_0-2_
  6
CONTINUOUS
 62
  204
 10
104.63240964288531
 20
70.330462587545696
 11
104.63240964288531
 21
64.130462587545594
  0
LINE
  8
_0-2_
  6
CONTINUOUS
 62
  204
 10
104.63240964288531
 20
64.630462587492843
 11
105.40633731272152
 21
65.41956530965399
  0
LINE
  8
_0-2_
  6
CONTINUOUS
 62
  204
 10
105.53325819061234
 20
65.902528222798537
 11
104.63240964288531
 21
69.330462587439399
  0
LINE
  8
_0-2_
  6
CONTINUOUS
 62
  204
 10
107.03454624264378
 20
69.712140465984419
 11
109.35991746983024
 21
66.448784709123458
  0
LINE
  8
_0-2_
  6
CONTINUOUS
 62
  204
 10
110.73080520541276
 20
65.549985068758645
 11
111.87734320691567
 21
64.571102744737175
  0
LINE
  8
_0-2_
  6
CONTINUOUS
 62
  204
 10
111.87734320691567
 20
64.571102744737175
 11
112.52499278227521
 21
64.09037243026296
  0
LINE
  8
_0-2_
  6
CONTINUOUS
 62
  204
 10
113.11718677087725
 20
63.077469989049348
 11
113.14507219960302
 21
62.865900957730503
  0
LINE
  8
_0-2_
  6
CONTINUOUS
 62
  204
 10
113.14507219960302
 20
62.865900957730503
 11
113.3363160146958
 21
62.002377601139926
  0
LINE
  8
_0-2_
  6
CONTINUOUS
 62
  204
 10
113.3363160146958
 20
62.002377601139926
 11
113.36279062692626
 21
61.950438183947256
  0
LINE
  8
_0-2_
  6
CONTINUOUS
 62
  204
 10
113.06702502776562
 20
61.730462587536977
 11
112.50198163780698
 21
61.730462587536977
  0
LINE
  8
_0-2_
  6
CONTINUOUS
 62
  204
 10
112.50198163780698
 20
61.730462587536977
 11
111.82642146321342
 21
61.904042529982348
  0
LINE
  8
_0-2_
  6
CONTINUOUS
 62
  204
 10
111.82642146321342
 20
61.904042529982348
 11
111.10521533087723
 21
62.173980193801867
  0
LINE
  8
_0-2_
  6
CONTINUOUS
 62
  204
 10
111.10521533087723
 20
62.173980193801867
 11
110.36620523210087
 21
62.473125120612849
  0
LINE
  8
_0-2_
  6
CONTINUOUS
 62
  204
 10
106.43721370682843
 20
60.275206699204979
 11
106.43721370682843
 21
60.275206699204979
  0
LINE
  8
_0-2_
  6
CONTINUOUS
 62
  204
 10
106.43721370682843
 20
60.275206699204979
 11
106.46663118179438
 21
60.232370416299013
  0
LINE
  8
_0-2_
  6
CONTINUOUS
 62
  204
 10
106.46663118179438
 20
60.232370416299013
 11
106.5028971347093
 21
60.195393366269286
  0
LINE
  8
_0-2_
  6
CONTINUOUS
 62
  204
 10
106.5028971347093
 20
60.195393366269286
 11
106.54490964294531
 21
60.165399078069647
  0
LINE
  8
_0-2_
  6
CONTINUOUS
 62
  204
 10
106.54490964294531
 20
60.165399078069647
 11
106.59139217769902
 21
60.143298912969207
  0
LINE
  8
_0-2_
  6
CONTINUOUS
 62
  204
 10
106.59139217769902
 20
60.143298912969207
 11
106.64093239067324
 21
60.129764373301313
  0
LINE
  8
_0-2_
  6
CONTINUOUS
 62
  204
 10
106.64093239067324
 20
60.129764373301313
 11
106.69202502756531
 21
60.125206699204981
  0
LINE
  8
_0-2_
  6
CONTINUOUS
 62
  204
 10
106.69202502756531
 20
60.125206699204981
 11
106.74311766445737
 21
60.129764373301313
  0
LINE
  8
_0-2_
  6
CONTINUOUS
 62
  204
 10
106.74311766445737
 20
60.129764373301313
 11
106.79265787743159
 21
60.143298912969207
  0
LINE
  8
_0-2_
  6
CONTINUOUS
 62
  204
 10
106.79265787743159
 20
60.143298912969207
 11
106.8391404121853
 21
60.165399078069647
  0
LINE
  8
_0-2_
  6
CONTINUOUS
 62
  204
 10
106.8391404121853
 20
60.165399078069647
 11
106.88115292042131
 21
60.195393366269286
  0
LINE
  8
_0-2_
  6
CONTINUOUS
 62
  204
 10
106.88115292042131
 20
60.195393366269286
 11
106.91741887333623
 21
60.232370416299013
  0
LINE
  8
_0-2_
  6
CONTINUOUS
 62
  204
 10
106.91741887333623
 20
60.232370416299013
 11
106.94683634830218
 21
60.275206699204979
  0
LINE
  8
_0-2_
  6
CONTINUOUS
 62
  204
 10
106.94683634830218
 20
60.275206699204979
 11
106.9685115102283
 21
60.322600656207278
  0
LINE
  8
_0-2_
  6
CONTINUOUS
 62
  204
 10
106.9685115102283
 20
60.322600656207278
 11
106.9817857702876
 21
60.373112245904899
  0
LINE
  8
_0-2_
  6
CONTINUOUS
 62
  204
 10
106.9817857702876
 20
60.373112245904899
 11
106.98625579680531
 21
60.425206699204978
  0
LINE
  8
_0-2_
  6
CONTINUOUS
 62
  204
 10
106.98625579680531
 20
60.425206699204978
 11
106.98625579680531
 21
60.425206699204978
  0
LINE
  8
_0-2_
  6
CONTINUOUS
 62
  204
 10
105.33886622679773
 20
59.042234019892796
 11
105.33886622679773
 21
59.042234019892796
  0
LINE
  8
_0-2_
  6
CONTINUOUS
 62
  204
 10
105.33886622679773
 20
59.042234019892796
 11
105.42657353454682
 21
58.796535194935529
  0
LINE
  8
_0-2_
  6
CONTINUOUS
 62
  204
 10
105.42657353454682
 20
58.796535194935529
 11
105.55479304070846
 21
58.570097933020008
  0
LINE
  8
_0-2_
  6
CONTINUOUS
 62
  204
 10
105.55479304070846
 20
58.570097933020008
 11
105.71962886047011
 21
58.369802415766756
  0
LINE
  8
_0-2_
  6
CONTINUOUS
 62
  204
 10
105.71962886047011
 20
58.369802415766756
 11
105.91607254085928
 21
58.201734521113089
  0
LINE
  8
_0-2_
  6
CONTINUOUS
 62
  204
 10
105.91607254085928
 20
58.201734521113089
 11
106.13815524005261
 21
58.0710009069916
  0
LINE
  8
_0-2_
  6
CONTINUOUS
 62
  204
 10
106.13815524005261
 20
58.0710009069916
 11
106.37912908761442
 21
57.981573848112973
  0
LINE
  8
_0-2_
  6
CONTINUOUS
 62
  204
 10
106.37912908761442
 20
57.981573848112973
 11
106.63167221512516
 21
57.936170540408952
  0
LINE
  8
_0-2_
  6
CONTINUOUS
 62
  204
 10
106.63167221512516
 20
57.936170540408952
 11
106.75989172128681
 21
57.930462587546572
  0
LINE
  8
_0-2_
  6
CONTINUOUS
 62
  204
 10
109.60101148136822
 20
60.298411779978522
 11
109.60101148136822
 21
60.298411779978522
  0
LINE
  8
_0-2_
  6
CONTINUOUS
 62
  204
 10
109.60101148136822
 20
60.298411779978522
 11
109.67326202112193
 21
60.456391636652853
  0
LINE
  8
_0-2_
  6
CONTINUOUS
 62
  204
 10
109.67326202112193
 20
60.456391636652853
 11
109.71750955465296
 21
60.624763602311589
  0
LINE
  8
_0-2_
  6
CONTINUOUS
 62
  204
 10
109.71750955465296
 20
60.624763602311589
 11
109.73240964304532
 21
60.798411779978522
  0
LINE
  8
_0-2_
  6
CONTINUOUS
 62
  204
 10
109.73240964304532
 20
60.798411779978522
 11
109.73240964304532
 21
60.798411779978551
  0
LINE
  8
_0-2_
  6
CONTINUOUS
 62
  204
 10
107.69391907715004
 20
57.930462587546572
 11
107.69391907715004
 21
57.930462587546572
  0
LINE
  8
_0-2_
  6
CONTINUOUS
 62
  204
 10
107.69391907715004
 20
57.930462587546572
 11
107.86422786679026
 21
57.945654834534366
  0
LINE
  8
_0-2_
  6
CONTINUOUS
 62
  204
 10
107.86422786679026
 20
57.945654834534366
 11
108.02936191003766
 21
57.990769966760666
  0
LINE
  8
_0-2_
  6
CONTINUOUS
 62
  204
 10
108.02936191003766
 20
57.990769966760666
 11
108.18430369255005
 21
58.064437183762131
  0
LINE
  8
_0-2_
  6
CONTINUOUS
 62
  204
 10
108.18430369255005
 20
58.064437183762131
 11
108.32434538667007
 21
58.164418144427593
  0
LINE
  8
_0-2_
  6
CONTINUOUS
 62
  204
 10
108.32434538667007
 20
58.164418144427593
 11
108.44523189638646
 21
58.287674977860036
  0
LINE
  8
_0-2_
  6
CONTINUOUS
 62
  204
 10
108.44523189638646
 20
58.287674977860036
 11
108.54329014627295
 21
58.430462587546543
  0
LINE
  8
_0-2_
  6
CONTINUOUS
 62
  204
 10
106.98625579680524
 20
62.630462587545594
 11
106.98625579680524
 21
62.630462587545594
  0
LINE
  8
_0-2_
  6
CONTINUOUS
 62
  204
 10
106.98625579680524
 20
62.630462587545594
 11
106.96390566421672
 21
62.890934854045987
  0
LINE
  8
_0-2_
  6
CONTINUOUS
 62
  204
 10
106.96390566421672
 20
62.890934854045987
 11
106.89753436392019
 21
63.143492802534098
  0
LINE
  8
_0-2_
  6
CONTINUOUS
 62
  204
 10
106.89753436392019
 20
63.143492802534098
 11
106.78915855428963
 21
63.380462587545594
  0
LINE
  8
_0-2_
  6
CONTINUOUS
 62
  204
 10
106.78915855428963
 20
63.380462587545594
 11
106.64207117945986
 21
63.594644002075405
  0
LINE
  8
_0-2_
  6
CONTINUOUS
 62
  204
 10
106.64207117945986
 20
63.594644002075405
 11
106.46074141488531
 21
63.779529252224059
  0
LINE
  8
_0-2_
  6
CONTINUOUS
 62
  204
 10
106.46074141488531
 20
63.779529252224059
 11
106.25067887370524
 21
63.929500693222252
  0
LINE
  8
_0-2_
  6
CONTINUOUS
 62
  204
 10
106.25067887370524
 20
63.929500693222252
 11
106.01826619993668
 21
64.040001518724452
  0
LINE
  8
_0-2_
  6
CONTINUOUS
 62
  204
 10
106.01826619993668
 20
64.040001518724452
 11
105.77056513506557
 21
64.107674217063902
  0
LINE
  8
_0-2_
  6
CONTINUOUS
 62
  204
 10
105.77056513506557
 20
64.107674217063902
 11
105.51510195060524
 21
64.130462587545594
  0
LINE
  8
_0-2_
  6
CONTINUOUS
 62
  204
 10
105.4063373127215
 20
65.419565309653933
 11
105.4063373127215
 21
65.419565309653933
  0
LINE
  8
_0-2_
  6
CONTINUOUS
 62
  204
 10
105.4063373127215
 20
65.419565309653933
 11
105.4612825859754
 21
65.486330482071679
  0
LINE
  8
_0-2_
  6
CONTINUOUS
 62
  204
 10
105.4612825859754
 20
65.486330482071679
 11
105.50402242136261
 21
65.561809569376862
  0
LINE
  8
_0-2_
  6
CONTINUOUS
 62
  204
 10
105.50402242136261
 20
65.561809569376862
 11
105.5332581906123
 21
65.643709177695939
  0
LINE
  8
_0-2_
  6
CONTINUOUS
 62
  204
 10
105.5332581906123
 20
65.643709177695939
 11
105.54810157966986
 21
65.729540828873382
  0
LINE
  8
_0-2_
  6
CONTINUOUS
 62
  204
 10
105.54810157966986
 20
65.729540828873382
 11
105.54810157966986
 21
65.816696571621037
  0
LINE
  8
_0-2_
  6
CONTINUOUS
 62
  204
 10
105.54810157966986
 20
65.816696571621037
 11
105.53325819061232
 21
65.902528222798466
  0
LINE
  8
_0-2_
  6
CONTINUOUS
 62
  204
 10
105.53325819061232
 20
65.902528222798466
 11
105.5332581906123
 21
65.902528222798466
  0
LINE
  8
_0-2_
  6
CONTINUOUS
 62
  204
 10
110.36620523210304
 20
62.473125120612018
 11
110.36620523210304
 21
62.473125120612018
  0
LINE
  8
_0-2_
  6
CONTINUOUS
 62
  204
 10
110.36620523210304
 20
62.473125120612018
 11
110.28389536150033
 21
62.496639393464555
  0
LINE
  8
_0-2_
  6
CONTINUOUS
 62
  204
 10
110.28389536150033
 20
62.496639393464555
 11
110.19883127543257
 21
62.505223218543762
  0
LINE
  8
_0-2_
  6
CONTINUOUS
 62
  204
 10
110.19883127543257
 20
62.505223218543762
 11
110.11359760311041
 21
62.498615780668246
  0
LINE
  8
_0-2_
  6
CONTINUOUS
 62
  204
 10
110.11359760311041
 20
62.498615780668246
 11
110.03078412653706
 21
62.477017843494309
  0
LINE
  8
_0-2_
  6
CONTINUOUS
 62
  204
 10
110.03078412653706
 20
62.477017843494309
 11
109.95290709129253
 21
62.441085649413914
  0
LINE
  8
_0-2_
  6
CONTINUOUS
 62
  204
 10
109.95290709129253
 20
62.441085649413914
 11
109.88233275168508
 21
62.391910979961615
  0
LINE
  8
_0-2_
  6
CONTINUOUS
 62
  204
 10
109.88233275168508
 20
62.391910979961615
 11
109.82120547331131
 21
62.330987982585143
  0
LINE
  8
_0-2_
  6
CONTINUOUS
 62
  204
 10
109.82120547331131
 20
62.330987982585143
 11
109.77138257759275
 21
62.260167771731254
  0
LINE
  8
_0-2_
  6
CONTINUOUS
 62
  204
 10
109.77138257759275
 20
62.260167771731254
 11
109.73437790800416
 21
62.181602183669995
  0
LINE
  8
_0-2_
  6
CONTINUOUS
 62
  204
 10
109.73437790800416
 20
62.181602183669995
 11
109.71131583270575
 21
62.097678394038496
  0
LINE
  8
_0-2_
  6
CONTINUOUS
 62
  204
 10
109.71131583270575
 20
62.097678394038496
 11
109.7028970811855
 21
62.010946384717222
  0
LINE
  8
_0-2_
  6
CONTINUOUS
 62
  204
 10
109.7028970811855
 20
62.010946384717222
 11
109.70555169619914
 21
61.952991372937461
  0
LINE
  8
_0-2_
  6
CONTINUOUS
 62
  204
 10
107.03454624264387
 20
69.712140465984405
 11
107.03454624264387
 21
69.712140465984405
  0
LINE
  8
_0-2_
  6
CONTINUOUS
 62
  204
 10
107.03454624264387
 20
69.712140465984405
 11
106.86630711322378
 21
69.909472288053678
  0
LINE
  8
_0-2_
  6
CONTINUOUS
 62
  204
 10
106.86630711322378
 20
69.909472288053678
 11
106.66701657043673
 21
70.07401894637826
  0
LINE
  8
_0-2_
  6
CONTINUOUS
 62
  204
 10
106.66701657043673
 20
70.07401894637826
 11
106.44272995657944
 21
70.200780774009601
  0
LINE
  8
_0-2_
  6
CONTINUOUS
 62
  204
 10
106.44272995657944
 20
70.200780774009601
 11
106.20026210691945
 21
70.285906176959685
  0
LINE
  8
_0-2_
  6
CONTINUOUS
 62
  204
 10
106.20026210691945
 20
70.285906176959685
 11
105.94698028437402
 21
70.326808662935434
  0
LINE
  8
_0-2_
  6
CONTINUOUS
 62
  204
 10
105.94698028437402
 20
70.326808662935434
 11
105.844357779728
 21
70.330462587545696
  0
LINE
  8
_0-2_
  6
CONTINUOUS
 62
  204
 10
105.96375492704946
 20
61.371437727636106
 11
105.96375492704946
 21
61.371437727636106
  0
LINE
  8
_0-2_
  6
CONTINUOUS
 62
  204
 10
105.96375492704946
 20
61.371437727636106
 11
105.91452740527309
 21
61.463193402893808
  0
LINE
  8
_0-2_
  6
CONTINUOUS
 62
  204
 10
105.91452740527309
 20
61.463193402893808
 11
105.85042096217039
 21
61.544839220696787
  0
LINE
  8
_0-2_
  6
CONTINUOUS
 62
  204
 10
105.85042096217039
 20
61.544839220696787
 11
105.77338343957561
 21
61.613894414185879
  0
LINE
  8
_0-2_
  6
CONTINUOUS
 62
  204
 10
105.77338343957561
 20
61.613894414185879
 11
105.6857555836299
 21
61.668260776250534
  0
LINE
  8
_0-2_
  6
CONTINUOUS
 62
  204
 10
105.6857555836299
 20
61.668260776250534
 11
105.59019992239438
 21
61.706286412490122
  0
LINE
  8
_0-2_
  6
CONTINUOUS
 62
  204
 10
105.59019992239438
 20
61.706286412490122
 11
105.48961986628214
 21
61.7268159331894
  0
LINE
  8
_0-2_
  6
CONTINUOUS
 62
  204
 10
105.48961986628214
 20
61.7268159331894
 11
105.42483943027202
 21
61.73046258753633
  0
LINE
  8
_0-2_
  6
CONTINUOUS
 62
  204
 10
113.26317887392534
 20
61.717069462268867
 11
113.26317887392534
 21
61.717069462268867
  0
LINE
  8
_0-2_
  6
CONTINUOUS
 62
  204
 10
113.26317887392534
 20
61.717069462268867
 11
113.06702502776562
 21
61.730462587536977
  0
LINE
  8
_0-2_
  6
CONTINUOUS
 62
  204
 10
113.26317887392538
 20
61.717069462268825
 11
113.26317887392538
 21
61.717069462268825
  0
LINE
  8
_0-2_
  6
CONTINUOUS
 62
  204
 10
113.26317887392538
 20
61.717069462268825
 11
113.28811991238122
 21
61.723149118982924
  0
LINE
  8
_0-2_
  6
CONTINUOUS
 62
  204
 10
113.28811991238122
 20
61.723149118982924
 11
113.3116466214443
 21
61.733552298827014
  0
LINE
  8
_0-2_
  6
CONTINUOUS
 62
  204
 10
113.3116466214443
 20
61.733552298827014
 11
113.33304415396482
 21
61.747962906445785
  0
LINE
  8
_0-2_
  6
CONTINUOUS
 62
  204
 10
113.33304415396482
 20
61.747962906445785
 11
113.35166235674482
 21
61.765943082818858
  0
LINE
  8
_0-2_
  6
CONTINUOUS
 62
  204
 10
113.35166235674482
 20
61.765943082818858
 11
113.36693552511412
 21
61.786946509385558
  0
LINE
  8
_0-2_
  6
CONTINUOUS
 62
  204
 10
113.36693552511412
 20
61.786946509385558
 11
113.37839959158038
 21
61.810335007657898
  0
LINE
  8
_0-2_
  6
CONTINUOUS
 62
  204
 10
113.37839959158038
 20
61.810335007657898
 11
113.38570622628514
 21
61.835397929951014
  0
LINE
  8
_0-2_
  6
CONTINUOUS
 62
  204
 10
113.38570622628514
 20
61.835397929951014
 11
113.38863342083023
 21
61.861373752053495
  0
LINE
  8
_0-2_
  6
CONTINUOUS
 62
  204
 10
113.38863342083023
 20
61.861373752053495
 11
113.38709223389063
 21
61.88747321175515
  0
LINE
  8
_0-2_
  6
CONTINUOUS
 62
  204
 10
113.38709223389063
 20
61.88747321175515
 11
113.38112949365161
 21
61.912903290179905
  0
LINE
  8
_0-2_
  6
CONTINUOUS
 62
  204
 10
113.38112949365161
 20
61.912903290179905
 11
113.37092637495805
 21
61.936891307263075
  0
LINE
  8
_0-2_
  6
CONTINUOUS
 62
  204
 10
113.37092637495805
 20
61.936891307263075
 11
113.36279062692631
 21
61.950438183947242
  0
LINE
  8
_0-2_
  6
CONTINUOUS
 62
  204
 10
109.35991746983017
 20
66.448784709123501
 11
109.35991746983017
 21
66.448784709123501
  0
LINE
  8
_0-2_
  6
CONTINUOUS
 62
  204
 10
109.35991746983017
 20
66.448784709123501
 11
109.52815659925027
 21
66.251452887054242
  0
LINE
  8
_0-2_
  6
CONTINUOUS
 62
  204
 10
109.52815659925027
 20
66.251452887054242
 11
109.72744714203731
 21
66.08690622872966
  0
LINE
  8
_0-2_
  6
CONTINUOUS
 62
  204
 10
109.72744714203731
 20
66.08690622872966
 11
109.95173375589461
 21
65.960144401098319
  0
LINE
  8
_0-2_
  6
CONTINUOUS
 62
  204
 10
109.95173375589461
 20
65.960144401098319
 11
110.11358777972025
 21
65.898014973123964
  0
LINE
  8
_0-2_
  6
CONTINUOUS
 62
  204
 10
110.11358777972028
 20
65.898014973123978
 11
110.11358777972028
 21
65.898014973123978
  0
LINE
  8
_0-2_
  6
CONTINUOUS
 62
  204
 10
110.11358777972028
 20
65.898014973123978
 11
110.35444812548387
 21
65.808270593903075
  0
LINE
  8
_0-2_
  6
CONTINUOUS
 62
  204
 10
110.35444812548387
 20
65.808270593903075
 11
110.57636500478294
 21
65.67724457608719
  0
LINE
  8
_0-2_
  6
CONTINUOUS
 62
  204
 10
110.57636500478294
 20
65.67724457608719
 11
110.73080520541275
 21
65.549985068758645
  0
LINE
  8
_0-2_
  6
CONTINUOUS
 62
  204
 10
113.11718677087728
 20
63.077469989049362
 11
113.11718677087728
 21
63.077469989049362
  0
LINE
  8
_0-2_
  6
CONTINUOUS
 62
  204
 10
113.11718677087728
 20
63.077469989049362
 11
113.06101061713984
 21
63.332586398959371
  0
LINE
  8
_0-2_
  6
CONTINUOUS
 62
  204
 10
113.06101061713984
 20
63.332586398959371
 11
112.96223933841569
 21
63.573880858346143
  0
LINE
  8
_0-2_
  6
CONTINUOUS
 62
  204
 10
112.96223933841569
 20
63.573880858346143
 11
112.82387405002815
 21
63.794021757162085
  0
LINE
  8
_0-2_
  6
CONTINUOUS
 62
  204
 10
112.82387405002815
 20
63.794021757162085
 11
112.65011891124868
 21
63.986320225593353
  0
LINE
  8
_0-2_
  6
CONTINUOUS
 62
  204
 10
112.65011891124868
 20
63.986320225593353
 11
112.52499278227523
 21
64.090372430263017
  0
ARC
  8
_0-2_
  6
CONTINUOUS
 62
  204
 10
102.93240964288549
 20
68.630462587545651
 40
0.3
 50
109.47122063447162
 51
250.52877936552841
  0
ARC
  8
_0-2_
  6
CONTINUOUS
 62
  204
 10
102.93240964288549
 20
67.230462587545617
 40
0.3
 50
109.47122063447165
 51
250.52877936551633
  0
ARC
  8
_0-2_
  6
CONTINUOUS
 62
  204
 10
102.93240964288549
 20
65.83046258754564
 40
0.3
 50
109.47122063448369
 51
250.52877936552841
  0
ARC
  8
_0-2_
  6
CONTINUOUS
 62
  204
 10
102.93240964288549
 20
64.430462587545662
 40
0.3
 50
109.47122063447162
 51
270
  0
ARC
  8
_0-2_
  6
CONTINUOUS
 62
  204
 10
102.93240964288549
 20
70.030462587545628
 40
0.3
 50
90
 51
250.52877936552841
  0
LINE
  8
_0-2_
  6
CONTINUOUS
 62
  204
 10
55.58730224952933
 20
61.730462587536977
 11
55.022258859570684
 21
61.730462587536977
  0
LINE
  8
_0-2_
  6
CONTINUOUS
 62
  204
 10
55.022258859570684
 20
61.730462587536977
 11
54.346698684977127
 21
61.904042529982348
  0
LINE
  8
_0-2_
  6
CONTINUOUS
 62
  204
 10
54.346698684977127
 20
61.904042529982348
 11
53.625492552640935
 21
62.173980193801867
  0
LINE
  8
_0-2_
  6
CONTINUOUS
 62
  204
 10
53.625492552640935
 20
62.173980193801867
 11
52.886482453864573
 21
62.473125120612849
  0
LINE
  8
_0-2_
  6
CONTINUOUS
 62
  204
 10
55.883067848689961
 20
61.950438183947313
 11
55.856593236459503
 21
62.002377601139983
  0
LINE
  8
_0-2_
  6
CONTINUOUS
 62
  204
 10
55.856593236459503
 20
62.002377601139983
 11
55.665349421366727
 21
62.86590095773056
  0
LINE
  8
_0-2_
  6
CONTINUOUS
 62
  204
 10
55.665349421366727
 20
62.86590095773056
 11
55.63746399264096
 21
63.077469989049291
  0
LINE
  8
_0-2_
  6
CONTINUOUS
 62
  204
 10
55.045270004038912
 20
64.090372430263074
 11
54.397620428679375
 21
64.571102744737232
  0
LINE
  8
_0-2_
  6
CONTINUOUS
 62
  204
 10
54.397620428679375
 20
64.571102744737232
 11
53.25108242717647
 21
65.549985068758701
  0
LINE
  8
_0-2_
  6
CONTINUOUS
 62
  204
 10
51.880194691593942
 20
66.448784709123515
 11
49.554823464407491
 21
69.712140465984362
  0
LINE
  8
_0-2_
  6
CONTINUOUS
 62
  204
 10
48.364635001491706
 20
70.33046258754564
 11
45.452686864649195
 21
70.33046258754564
  0
LINE
  8
_0-2_
  6
CONTINUOUS
 62
  204
 10
45.152686864649013
 20
70.33046258754564
 11
43.952686864649195
 21
70.33046258754564
  0
LINE
  8
_0-2_
  6
CONTINUOUS
 62
  204
 10
43.852686864649286
 20
69.747619875071109
 11
43.852686864649286
 21
68.913305300020397
  0
LINE
  8
_0-2_
  6
CONTINUOUS
 62
  204
 10
43.852686864649286
 20
68.347619875071018
 11
43.852686864649286
 21
67.513305300020306
  0
LINE
  8
_0-2_
  6
CONTINUOUS
 62
  204
 10
43.852686864649286
 20
66.947619875071155
 11
43.852686864649286
 21
66.113305300020443
  0
LINE
  8
_0-2_
  6
CONTINUOUS
 62
  204
 10
43.852686864649286
 20
65.539041231320994
 11
43.852686864649286
 21
64.713305300020352
  0
LINE
  8
_0-2_
  6
CONTINUOUS
 62
  204
 10
43.952686864649195
 20
64.130462587545594
 11
45.152686864649013
 21
64.130462587545594
  0
LINE
  8
_0-2_
  6
CONTINUOUS
 62
  204
 10
45.152686864649013
 20
64.130462587545594
 11
45.152686864649013
 21
70.33046258754564
  0
LINE
  8
_0-2_
  6
CONTINUOUS
 62
  204
 10
45.352686864649286
 20
69.747619875071109
 11
45.352686864649286
 21
68.913305300020397
  0
LINE
  8
_0-2_
  6
CONTINUOUS
 62
  204
 10
45.352686864649286
 20
68.347619875071018
 11
45.352686864649286
 21
67.513305300020306
  0
LINE
  8
_0-2_
  6
CONTINUOUS
 62
  204
 10
45.352686864649286
 20
66.947619875071155
 11
45.352686864649286
 21
66.113305300020443
  0
LINE
  8
_0-2_
  6
CONTINUOUS
 62
  204
 10
45.352686864649286
 20
65.539041231320994
 11
45.352686864649286
 21
64.713305300020352
  0
LINE
  8
_0-2_
  6
CONTINUOUS
 62
  204
 10
45.452686864649195
 20
64.130462587545594
 11
48.035379172368948
 21
64.130462587545594
  0
LINE
  8
_0-2_
  6
CONTINUOUS
 62
  204
 10
47.152686864649013
 20
64.130462587545594
 11
47.152686864649013
 21
70.33046258754564
  0
LINE
  8
_0-2_
  6
CONTINUOUS
 62
  204
 10
47.152686864649013
 20
69.330462587439456
 11
48.05353541237605
 21
65.902528222798651
  0
LINE
  8
_0-2_
  6
CONTINUOUS
 62
  204
 10
47.926614534485225
 20
65.419565309654104
 11
47.152686864649013
 21
64.630462587492843
  0
LINE
  8
_0-2_
  6
CONTINUOUS
 62
  204
 10
47.945116652035722
 20
61.730462587536294
 11
47.152686864649013
 21
61.730462587536294
  0
LINE
  8
_0-2_
  6
CONTINUOUS
 62
  204
 10
47.152686864646512
 20
61.73046258754664
 11
47.859143448561554
 21
59.042234019892817
  0
LINE
  8
_0-2_
  6
CONTINUOUS
 62
  204
 10
48.942844501126501
 20
60.304719128722809
 11
48.484032148813185
 21
61.371437727636135
  0
LINE
  8
_0-2_
  6
CONTINUOUS
 62
  204
 10
49.506533018569144
 20
60.425206699204978
 11
49.506533018569144
 21
62.630462587545594
  0
LINE
  8
_0-2_
  6
CONTINUOUS
 62
  204
 10
52.225828917962872
 20
61.952991372937504
 11
52.25268686480922
 21
61.430462587536454
  0
LINE
  8
_0-2_
  6
CONTINUOUS
 62
  204
 10
52.25268686480922
 20
61.430462587536795
 11
52.25268686480922
 21
60.798411779978551
  0
LINE
  8
_0-2_
  6
CONTINUOUS
 62
  204
 10
49.280168943050512
 20
57.930462587546572
 11
50.214196298913748
 21
57.930462587546572
  0
LINE
  8
_0-2_
  6
CONTINUOUS
 62
  204
 10
51.063567368036502
 20
58.430462587546572
 11
52.121288703131995
 21
60.298411779978437
  0
LINE
  8
_0-2_
  6
CONTINUOUS
 62
  204
 10
48.957490928592136
 20
60.275206699204979
 11
48.957490928592136
 21
60.275206699204979
  0
LINE
  8
_0-2_
  6
CONTINUOUS
 62
  204
 10
48.957490928592136
 20
60.275206699204979
 11
48.98690840355809
 21
60.232370416299013
  0
LINE
  8
_0-2_
  6
CONTINUOUS
 62
  204
 10
48.98690840355809
 20
60.232370416299013
 11
49.023174356473
 21
60.195393366269286
  0
LINE
  8
_0-2_
  6
CONTINUOUS
 62
  204
 10
49.023174356473
 20
60.195393366269286
 11
49.065186864709013
 21
60.165399078069647
  0
LINE
  8
_0-2_
  6
CONTINUOUS
 62
  204
 10
49.065186864709013
 20
60.165399078069647
 11
49.111669399462727
 21
60.143298912969207
  0
LINE
  8
_0-2_
  6
CONTINUOUS
 62
  204
 10
49.111669399462727
 20
60.143298912969207
 11
49.161209612436949
 21
60.129764373301313
  0
LINE
  8
_0-2_
  6
CONTINUOUS
 62
  204
 10
49.161209612436949
 20
60.129764373301313
 11
49.212302249329014
 21
60.125206699204981
  0
LINE
  8
_0-2_
  6
CONTINUOUS
 62
  204
 10
49.212302249329014
 20
60.125206699204981
 11
49.263394886221079
 21
60.129764373301313
  0
LINE
  8
_0-2_
  6
CONTINUOUS
 62
  204
 10
49.263394886221079
 20
60.129764373301313
 11
49.3129350991953
 21
60.143298912969207
  0
LINE
  8
_0-2_
  6
CONTINUOUS
 62
  204
 10
49.3129350991953
 20
60.143298912969207
 11
49.359417633949015
 21
60.165399078069647
  0
LINE
  8
_0-2_
  6
CONTINUOUS
 62
  204
 10
49.359417633949015
 20
60.165399078069647
 11
49.401430142185028
 21
60.195393366269286
  0
LINE
  8
_0-2_
  6
CONTINUOUS
 62
  204
 10
49.401430142185028
 20
60.195393366269286
 11
49.437696095099938
 21
60.232370416299013
  0
LINE
  8
_0-2_
  6
CONTINUOUS
 62
  204
 10
49.437696095099938
 20
60.232370416299013
 11
49.467113570065891
 21
60.275206699204979
  0
LINE
  8
_0-2_
  6
CONTINUOUS
 62
  204
 10
49.467113570065891
 20
60.275206699204979
 11
49.488788731992003
 21
60.322600656207278
  0
LINE
  8
_0-2_
  6
CONTINUOUS
 62
  204
 10
49.488788731992003
 20
60.322600656207278
 11
49.502062992051314
 21
60.373112245904899
  0
LINE
  8
_0-2_
  6
CONTINUOUS
 62
  204
 10
49.502062992051314
 20
60.373112245904899
 11
49.506533018569016
 21
60.425206699204978
  0
LINE
  8
_0-2_
  6
CONTINUOUS
 62
  204
 10
49.506533018569016
 20
60.425206699204978
 11
49.506533018569016
 21
60.425206699204978
  0
LINE
  8
_0-2_
  6
CONTINUOUS
 62
  204
 10
47.859143448561433
 20
59.042234019892796
 11
47.859143448561433
 21
59.042234019892796
  0
LINE
  8
_0-2_
  6
CONTINUOUS
 62
  204
 10
47.859143448561433
 20
59.042234019892796
 11
47.946850756310532
 21
58.796535194935529
  0
LINE
  8
_0-2_
  6
CONTINUOUS
 62
  204
 10
47.946850756310532
 20
58.796535194935529
 11
48.075070262472167
 21
58.570097933020008
  0
LINE
  8
_0-2_
  6
CONTINUOUS
 62
  204
 10
48.075070262472167
 20
58.570097933020008
 11
48.239906082233816
 21
58.369802415766756
  0
LINE
  8
_0-2_
  6
CONTINUOUS
 62
  204
 10
48.239906082233816
 20
58.369802415766756
 11
48.436349762622974
 21
58.201734521113089
  0
LINE
  8
_0-2_
  6
CONTINUOUS
 62
  204
 10
48.436349762622974
 20
58.201734521113089
 11
48.658432461816318
 21
58.0710009069916
  0
LINE
  8
_0-2_
  6
CONTINUOUS
 62
  204
 10
48.658432461816318
 20
58.0710009069916
 11
48.899406309378122
 21
57.981573848112973
  0
LINE
  8
_0-2_
  6
CONTINUOUS
 62
  204
 10
48.899406309378122
 20
57.981573848112973
 11
49.15194943688887
 21
57.936170540408952
  0
LINE
  8
_0-2_
  6
CONTINUOUS
 62
  204
 10
49.15194943688887
 20
57.936170540408952
 11
49.280168943050512
 21
57.930462587546572
  0
LINE
  8
_0-2_
  6
CONTINUOUS
 62
  204
 10
52.121288703131924
 20
60.298411779978522
 11
52.121288703131924
 21
60.298411779978522
  0
LINE
  8
_0-2_
  6
CONTINUOUS
 62
  204
 10
52.121288703131924
 20
60.298411779978522
 11
52.193539242885635
 21
60.456391636652853
  0
LINE
  8
_0-2_
  6
CONTINUOUS
 62
  204
 10
52.193539242885635
 20
60.456391636652853
 11
52.237786776416669
 21
60.624763602311589
  0
LINE
  8
_0-2_
  6
CONTINUOUS
 62
  204
 10
52.237786776416669
 20
60.624763602311589
 11
52.252686864809014
 21
60.798411779978522
  0
LINE
  8
_0-2_
  6
CONTINUOUS
 62
  204
 10
52.252686864809014
 20
60.798411779978522
 11
52.252686864809014
 21
60.798411779978551
  0
LINE
  8
_0-2_
  6
CONTINUOUS
 62
  204
 10
50.214196298913748
 20
57.930462587546572
 11
50.214196298913748
 21
57.930462587546572
  0
LINE
  8
_0-2_
  6
CONTINUOUS
 62
  204
 10
50.214196298913748
 20
57.930462587546572
 11
50.384505088553965
 21
57.945654834534366
  0
LINE
  8
_0-2_
  6
CONTINUOUS
 62
  204
 10
50.384505088553965
 20
57.945654834534366
 11
50.549639131801371
 21
57.990769966760666
  0
LINE
  8
_0-2_
  6
CONTINUOUS
 62
  204
 10
50.549639131801371
 20
57.990769966760666
 11
50.704580914313752
 21
58.064437183762131
  0
LINE
  8
_0-2_
  6
CONTINUOUS
 62
  204
 10
50.704580914313752
 20
58.064437183762131
 11
50.844622608433788
 21
58.164418144427593
  0
LINE
  8
_0-2_
  6
CONTINUOUS
 62
  204
 10
50.844622608433788
 20
58.164418144427593
 11
50.965509118150166
 21
58.287674977860036
  0
LINE
  8
_0-2_
  6
CONTINUOUS
 62
  204
 10
50.965509118150166
 20
58.287674977860036
 11
51.063567368036658
 21
58.430462587546543
  0
LINE
  8
_0-2_
  6
CONTINUOUS
 62
  204
 10
49.506533018568945
 20
62.630462587545594
 11
49.506533018568945
 21
62.630462587545594
  0
LINE
  8
_0-2_
  6
CONTINUOUS
 62
  204
 10
49.506533018568945
 20
62.630462587545594
 11
49.484182885980438
 21
62.890934854045987
  0
LINE
  8
_0-2_
  6
CONTINUOUS
 62
  204
 10
49.484182885980438
 20
62.890934854045987
 11
49.417811585683893
 21
63.143492802534098
  0
LINE
  8
_0-2_
  6
CONTINUOUS
 62
  204
 10
49.417811585683893
 20
63.143492802534098
 11
49.309435776053334
 21
63.380462587545594
  0
LINE
  8
_0-2_
  6
CONTINUOUS
 62
  204
 10
49.309435776053334
 20
63.380462587545594
 11
49.162348401223568
 21
63.594644002075405
  0
LINE
  8
_0-2_
  6
CONTINUOUS
 62
  204
 10
49.162348401223568
 20
63.594644002075405
 11
48.981018636649004
 21
63.779529252224059
  0
LINE
  8
_0-2_
  6
CONTINUOUS
 62
  204
 10
48.981018636649004
 20
63.779529252224059
 11
48.770956095468947
 21
63.929500693222252
  0
LINE
  8
_0-2_
  6
CONTINUOUS
 62
  204
 10
48.770956095468947
 20
63.929500693222252
 11
48.538543421700382
 21
64.040001518724452
  0
LINE
  8
_0-2_
  6
CONTINUOUS
 62
  204
 10
48.538543421700382
 20
64.040001518724452
 11
48.290842356829273
 21
64.107674217063902
  0
LINE
  8
_0-2_
  6
CONTINUOUS
 62
  204
 10
48.290842356829273
 20
64.107674217063902
 11
48.035379172368948
 21
64.130462587545594
  0
LINE
  8
_0-2_
  6
CONTINUOUS
 62
  204
 10
47.926614534485218
 20
65.419565309653933
 11
47.926614534485218
 21
65.419565309653933
  0
LINE
  8
_0-2_
  6
CONTINUOUS
 62
  204
 10
47.926614534485218
 20
65.419565309653933
 11
47.981559807739103
 21
65.486330482071679
  0
LINE
  8
_0-2_
  6
CONTINUOUS
 62
  204
 10
47.981559807739103
 20
65.486330482071679
 11
48.024299643126312
 21
65.561809569376862
  0
LINE
  8
_0-2_
  6
CONTINUOUS
 62
  204
 10
48.024299643126312
 20
65.561809569376862
 11
48.053535412376014
 21
65.643709177695939
  0
LINE
  8
_0-2_
  6
CONTINUOUS
 62
  204
 10
48.053535412376014
 20
65.643709177695939
 11
48.06837880143356
 21
65.729540828873382
  0
LINE
  8
_0-2_
  6
CONTINUOUS
 62
  204
 10
48.06837880143356
 20
65.729540828873382
 11
48.06837880143356
 21
65.816696571621037
  0
LINE
  8
_0-2_
  6
CONTINUOUS
 62
  204
 10
48.06837880143356
 20
65.816696571621037
 11
48.053535412376014
 21
65.902528222798466
  0
LINE
  8
_0-2_
  6
CONTINUOUS
 62
  204
 10
48.053535412376014
 20
65.902528222798466
 11
48.053535412376014
 21
65.902528222798466
  0
LINE
  8
_0-2_
  6
CONTINUOUS
 62
  204
 10
52.886482453866748
 20
62.473125120612018
 11
52.886482453866748
 21
62.473125120612018
  0
LINE
  8
_0-2_
  6
CONTINUOUS
 62
  204
 10
52.886482453866748
 20
62.473125120612018
 11
52.804172583264034
 21
62.496639393464555
  0
LINE
  8
_0-2_
  6
CONTINUOUS
 62
  204
 10
52.804172583264034
 20
62.496639393464555
 11
52.719108497196274
 21
62.505223218543762
  0
LINE
  8
_0-2_
  6
CONTINUOUS
 62
  204
 10
52.719108497196274
 20
62.505223218543762
 11
52.63387482487412
 21
62.498615780668246
  0
LINE
  8
_0-2_
  6
CONTINUOUS
 62
  204
 10
52.63387482487412
 20
62.498615780668246
 11
52.551061348300763
 21
62.477017843494309
  0
LINE
  8
_0-2_
  6
CONTINUOUS
 62
  204
 10
52.551061348300763
 20
62.477017843494309
 11
52.473184313056244
 21
62.441085649413914
  0
LINE
  8
_0-2_
  6
CONTINUOUS
 62
  204
 10
52.473184313056244
 20
62.441085649413914
 11
52.402609973448783
 21
62.391910979961615
  0
LINE
  8
_0-2_
  6
CONTINUOUS
 62
  204
 10
52.402609973448783
 20
62.391910979961615
 11
52.341482695075022
 21
62.330987982585143
  0
LINE
  8
_0-2_
  6
CONTINUOUS
 62
  204
 10
52.341482695075022
 20
62.330987982585143
 11
52.291659799356445
 21
62.260167771731254
  0
LINE
  8
_0-2_
  6
CONTINUOUS
 62
  204
 10
52.291659799356445
 20
62.260167771731254
 11
52.254655129767862
 21
62.181602183669995
  0
LINE
  8
_0-2_
  6
CONTINUOUS
 62
  204
 10
52.254655129767862
 20
62.181602183669995
 11
52.231593054469457
 21
62.097678394038496
  0
LINE
  8
_0-2_
  6
CONTINUOUS
 62
  204
 10
52.231593054469457
 20
62.097678394038496
 11
52.223174302949197
 21
62.010946384717222
  0
LINE
  8
_0-2_
  6
CONTINUOUS
 62
  204
 10
52.223174302949197
 20
62.010946384717222
 11
52.225828917962843
 21
61.952991372937461
  0
LINE
  8
_0-2_
  6
CONTINUOUS
 62
  204
 10
49.554823464407576
 20
69.712140465984348
 11
49.554823464407576
 21
69.712140465984348
  0
LINE
  8
_0-2_
  6
CONTINUOUS
 62
  204
 10
49.554823464407576
 20
69.712140465984348
 11
49.386584334987482
 21
69.909472288053621
  0
LINE
  8
_0-2_
  6
CONTINUOUS
 62
  204
 10
49.386584334987482
 20
69.909472288053621
 11
49.187293792200443
 21
70.074018946378203
  0
LINE
  8
_0-2_
  6
CONTINUOUS
 62
  204
 10
49.187293792200443
 20
70.074018946378203
 11
48.963007178343148
 21
70.200780774009544
  0
LINE
  8
_0-2_
  6
CONTINUOUS
 62
  204
 10
48.963007178343148
 20
70.200780774009544
 11
48.720539328683152
 21
70.285906176959628
  0
LINE
  8
_0-2_
  6
CONTINUOUS
 62
  204
 10
48.720539328683152
 20
70.285906176959628
 11
48.467257506137727
 21
70.326808662935377
  0
LINE
  8
_0-2_
  6
CONTINUOUS
 62
  204
 10
48.467257506137727
 20
70.326808662935377
 11
48.364635001491706
 21
70.33046258754564
  0
LINE
  8
_0-2_
  6
CONTINUOUS
 62
  204
 10
48.484032148813171
 20
61.371437727636049
 11
48.484032148813171
 21
61.371437727636049
  0
LINE
  8
_0-2_
  6
CONTINUOUS
 62
  204
 10
48.484032148813171
 20
61.371437727636049
 11
48.434804627036804
 21
61.463193402893751
  0
LINE
  8
_0-2_
  6
CONTINUOUS
 62
  204
 10
48.434804627036804
 20
61.463193402893751
 11
48.370698183934095
 21
61.54483922069673
  0
LINE
  8
_0-2_
  6
CONTINUOUS
 62
  204
 10
48.370698183934095
 20
61.54483922069673
 11
48.29366066133931
 21
61.613894414185822
  0
LINE
  8
_0-2_
  6
CONTINUOUS
 62
  204
 10
48.29366066133931
 20
61.613894414185822
 11
48.206032805393612
 21
61.668260776250477
  0
LINE
  8
_0-2_
  6
CONTINUOUS
 62
  204
 10
48.206032805393612
 20
61.668260776250477
 11
48.110477144158075
 21
61.706286412490066
  0
LINE
  8
_0-2_
  6
CONTINUOUS
 62
  204
 10
48.110477144158075
 20
61.706286412490066
 11
48.009897088045847
 21
61.726815933189343
  0
LINE
  8
_0-2_
  6
CONTINUOUS
 62
  204
 10
48.009897088045847
 20
61.726815933189343
 11
47.945116652035722
 21
61.730462587536273
  0
LINE
  8
_0-2_
  6
CONTINUOUS
 62
  204
 10
55.78345609568904
 20
61.717069462268867
 11
55.78345609568904
 21
61.717069462268867
  0
LINE
  8
_0-2_
  6
CONTINUOUS
 62
  204
 10
55.78345609568904
 20
61.717069462268867
 11
55.58730224952933
 21
61.730462587536977
  0
LINE
  8
_0-2_
  6
CONTINUOUS
 62
  204
 10
55.78345609568909
 20
61.717069462268825
 11
55.78345609568909
 21
61.717069462268825
  0
LINE
  8
_0-2_
  6
CONTINUOUS
 62
  204
 10
55.78345609568909
 20
61.717069462268825
 11
55.808397134144926
 21
61.723149118982924
  0
LINE
  8
_0-2_
  6
CONTINUOUS
 62
  204
 10
55.808397134144926
 20
61.723149118982924
 11
55.831923843208003
 21
61.733552298827014
  0
LINE
  8
_0-2_
  6
CONTINUOUS
 62
  204
 10
55.831923843208003
 20
61.733552298827014
 11
55.85332137572852
 21
61.747962906445785
  0
LINE
  8
_0-2_
  6
CONTINUOUS
 62
  204
 10
55.85332137572852
 20
61.747962906445785
 11
55.871939578508531
 21
61.765943082818858
  0
LINE
  8
_0-2_
  6
CONTINUOUS
 62
  204
 10
55.871939578508531
 20
61.765943082818858
 11
55.887212746877822
 21
61.786946509385558
  0
LINE
  8
_0-2_
  6
CONTINUOUS
 62
  204
 10
55.887212746877822
 20
61.786946509385558
 11
55.898676813344082
 21
61.810335007657898
  0
LINE
  8
_0-2_
  6
CONTINUOUS
 62
  204
 10
55.898676813344082
 20
61.810335007657898
 11
55.905983448048843
 21
61.835397929951014
  0
LINE
  8
_0-2_
  6
CONTINUOUS
 62
  204
 10
55.905983448048843
 20
61.835397929951014
 11
55.908910642593938
 21
61.861373752053495
  0
LINE
  8
_0-2_
  6
CONTINUOUS
 62
  204
 10
55.908910642593938
 20
61.861373752053495
 11
55.907369455654333
 21
61.88747321175515
  0
LINE
  8
_0-2_
  6
CONTINUOUS
 62
  204
 10
55.907369455654333
 20
61.88747321175515
 11
55.901406715415312
 21
61.912903290179905
  0
LINE
  8
_0-2_
  6
CONTINUOUS
 62
  204
 10
55.901406715415312
 20
61.912903290179905
 11
55.891203596721759
 21
61.936891307263075
  0
LINE
  8
_0-2_
  6
CONTINUOUS
 62
  204
 10
55.891203596721759
 20
61.936891307263075
 11
55.883067848690018
 21
61.950438183947242
  0
LINE
  8
_0-2_
  6
CONTINUOUS
 62
  204
 10
51.880194691593871
 20
66.448784709123501
 11
51.880194691593871
 21
66.448784709123501
  0
LINE
  8
_0-2_
  6
CONTINUOUS
 62
  204
 10
51.880194691593871
 20
66.448784709123501
 11
52.048433821013965
 21
66.251452887054242
  0
LINE
  8
_0-2_
  6
CONTINUOUS
 62
  204
 10
52.048433821013965
 20
66.251452887054242
 11
52.247724363801012
 21
66.08690622872966
  0
LINE
  8
_0-2_
  6
CONTINUOUS
 62
  204
 10
52.247724363801012
 20
66.08690622872966
 11
52.472010977658307
 21
65.960144401098319
  0
LINE
  8
_0-2_
  6
CONTINUOUS
 62
  204
 10
52.472010977658307
 20
65.960144401098319
 11
52.633865001483962
 21
65.898014973123964
  0
LINE
  8
_0-2_
  6
CONTINUOUS
 62
  204
 10
52.633865001483983
 20
65.898014973123978
 11
52.633865001483983
 21
65.898014973123978
  0
LINE
  8
_0-2_
  6
CONTINUOUS
 62
  204
 10
52.633865001483983
 20
65.898014973123978
 11
52.874725347247576
 21
65.808270593903075
  0
LINE
  8
_0-2_
  6
CONTINUOUS
 62
  204
 10
52.874725347247576
 20
65.808270593903075
 11
53.096642226546642
 21
65.67724457608719
  0
LINE
  8
_0-2_
  6
CONTINUOUS
 62
  204
 10
53.096642226546642
 20
65.67724457608719
 11
53.251082427176463
 21
65.549985068758645
  0
LINE
  8
_0-2_
  6
CONTINUOUS
 62
  204
 10
55.637463992640988
 20
63.077469989049305
 11
55.637463992640988
 21
63.077469989049305
  0
LINE
  8
_0-2_
  6
CONTINUOUS
 62
  204
 10
55.637463992640988
 20
63.077469989049305
 11
55.581287838903549
 21
63.332586398959315
  0
LINE
  8
_0-2_
  6
CONTINUOUS
 62
  204
 10
55.581287838903549
 20
63.332586398959315
 11
55.482516560179391
 21
63.573880858346087
  0
LINE
  8
_0-2_
  6
CONTINUOUS
 62
  204
 10
55.482516560179391
 20
63.573880858346087
 11
55.344151271791851
 21
63.794021757162028
  0
LINE
  8
_0-2_
  6
CONTINUOUS
 62
  204
 10
55.344151271791851
 20
63.794021757162028
 11
55.170396133012382
 21
63.986320225593296
  0
LINE
  8
_0-2_
  6
CONTINUOUS
 62
  204
 10
55.170396133012382
 20
63.986320225593296
 11
55.04527000403894
 21
64.09037243026296
  0
ARC
  8
_0-2_
  6
CONTINUOUS
 62
  204
 10
43.952686864649195
 20
70.030462587545685
 40
0.3
 50
89.999999999999972
 51
250.52877936552841
  0
ARC
  8
_0-2_
  6
CONTINUOUS
 62
  204
 10
43.952686864649195
 20
68.630462587545594
 40
0.3
 50
109.47122063447162
 51
250.52877936552841
  0
ARC
  8
_0-2_
  6
CONTINUOUS
 62
  204
 10
43.952686864649195
 20
67.23046258754573
 40
0.3
 50
109.47122063447165
 51
250.52877936551633
  0
ARC
  8
_0-2_
  6
CONTINUOUS
 62
  204
 10
43.952686864649195
 20
65.83046258754564
 40
0.3
 50
109.47122063448369
 51
250.52877936552841
  0
ARC
  8
_0-2_
  6
CONTINUOUS
 62
  204
 10
43.952686864649195
 20
64.430462587545776
 40
0.3
 50
109.47122063447162
 51
270
  0
ARC
  8
_0-2_
  6
CONTINUOUS
 62
  204
 10
45.452686864649195
 20
68.630462587545594
 40
0.3
 50
109.47122063447162
 51
250.52877936552841
  0
ARC
  8
_0-2_
  6
CONTINUOUS
 62
  204
 10
45.452686864649195
 20
67.23046258754573
 40
0.3
 50
109.47122063447165
 51
250.52877936551633
  0
ARC
  8
_0-2_
  6
CONTINUOUS
 62
  204
 10
45.452686864649195
 20
65.83046258754564
 40
0.3
 50
109.47122063448369
 51
250.52877936552841
  0
ARC
  8
_0-2_
  6
CONTINUOUS
 62
  204
 10
45.452686864649195
 20
64.430462587545776
 40
0.3
 50
109.47122063447162
 51
270
  0
ARC
  8
_0-2_
  6
CONTINUOUS
 62
  204
 10
45.452686864649195
 20
70.030462587545685
 40
0.3
 50
90
 51
250.52877936552841
  0
LINE
  8
_0-2_
  6
CONTINUOUS
 62
  204
 10
165.06511801355623
 20
61.43046258753634
 11
165.03826006670988
 21
61.952991372937447
  0
LINE
  8
_0-2_
  6
CONTINUOUS
 62
  204
 10
165.06511801355623
 20
61.430462587536795
 11
165.06511801355623
 21
60.798411779978551
  0
LINE
  8
_0-2_
  6
CONTINUOUS
 62
  204
 10
164.933719851879
 20
60.298411779978437
 11
163.87599851678351
 21
58.430462587546572
  0
LINE
  8
_0-2_
  6
CONTINUOUS
 62
  204
 10
163.02662744766076
 20
57.930462587546572
 11
162.09260009179752
 21
57.930462587546572
  0
LINE
  8
_0-2_
  6
CONTINUOUS
 62
  204
 10
160.67157459730856
 20
59.042234019892817
 11
159.96511801339352
 21
61.73046258754664
  0
LINE
  8
_0-2_
  6
CONTINUOUS
 62
  204
 10
159.96511801339602
 20
61.730462587536294
 11
160.75754780078273
 21
61.730462587536294
  0
LINE
  8
_0-2_
  6
CONTINUOUS
 62
  204
 10
161.29646329756019
 20
61.371437727636078
 11
161.75527564987351
 21
60.304719128722752
  0
LINE
  8
_0-2_
  6
CONTINUOUS
 62
  204
 10
162.31896416731615
 20
60.425206699204978
 11
162.31896416731615
 21
62.630462587545594
  0
LINE
  8
_0-2_
  6
CONTINUOUS
 62
  204
 10
160.84781032111596
 20
64.130462587545594
 11
159.96511801339602
 21
64.130462587545594
  0
LINE
  8
_0-2_
  6
CONTINUOUS
 62
  204
 10
159.96511801339602
 20
64.130462587545594
 11
159.96511801339602
 21
64.630462587492843
  0
LINE
  8
_0-2_
  6
CONTINUOUS
 62
  204
 10
159.96511801339602
 20
64.630462587492843
 11
160.73904568323223
 21
65.41956530965399
  0
LINE
  8
_0-2_
  6
CONTINUOUS
 62
  204
 10
160.86596656112306
 20
65.902528222798537
 11
159.96511801339602
 21
69.330462587439342
  0
LINE
  8
_0-2_
  6
CONTINUOUS
 62
  204
 10
159.96511801339602
 20
70.33046258754564
 11
161.17706615023872
 21
70.33046258754564
  0
LINE
  8
_0-2_
  6
CONTINUOUS
 62
  204
 10
162.3672546131545
 20
69.712140465984362
 11
164.69262584034095
 21
66.448784709123458
  0
LINE
  8
_0-2_
  6
CONTINUOUS
 62
  204
 10
166.06351357592348
 20
65.549985068758645
 11
167.21005157742638
 21
64.571102744737175
  0
LINE
  8
_0-2_
  6
CONTINUOUS
 62
  204
 10
167.21005157742638
 20
64.571102744737175
 11
167.85770115278592
 21
64.09037243026296
  0
LINE
  8
_0-2_
  6
CONTINUOUS
 62
  204
 10
168.44989514138797
 20
63.077469989049291
 11
168.47778057011374
 21
62.865900957730503
  0
LINE
  8
_0-2_
  6
CONTINUOUS
 62
  204
 10
168.47778057011374
 20
62.865900957730503
 11
168.66902438520651
 21
62.002377601139926
  0
LINE
  8
_0-2_
  6
CONTINUOUS
 62
  204
 10
168.66902438520651
 20
62.002377601139926
 11
168.69549899743697
 21
61.950438183947256
  0
LINE
  8
_0-2_
  6
CONTINUOUS
 62
  204
 10
168.39973339827634
 20
61.73046258753692
 11
167.83469000831769
 21
61.73046258753692
  0
LINE
  8
_0-2_
  6
CONTINUOUS
 62
  204
 10
167.83469000831769
 20
61.73046258753692
 11
167.15912983372414
 21
61.904042529982291
  0
LINE
  8
_0-2_
  6
CONTINUOUS
 62
  204
 10
167.15912983372414
 20
61.904042529982291
 11
166.43792370138794
 21
62.173980193801867
  0
LINE
  8
_0-2_
  6
CONTINUOUS
 62
  204
 10
166.43792370138794
 20
62.173980193801867
 11
165.69891360261158
 21
62.473125120612792
  0
LINE
  8
_0-2_
  6
CONTINUOUS
 62
  204
 10
161.76992207733915
 20
60.275206699204979
 11
161.76992207733915
 21
60.275206699204979
  0
LINE
  8
_0-2_
  6
CONTINUOUS
 62
  204
 10
161.76992207733915
 20
60.275206699204979
 11
161.7993395523051
 21
60.232370416299013
  0
LINE
  8
_0-2_
  6
CONTINUOUS
 62
  204
 10
161.7993395523051
 20
60.232370416299013
 11
161.83560550522
 21
60.195393366269286
  0
LINE
  8
_0-2_
  6
CONTINUOUS
 62
  204
 10
161.83560550522
 20
60.195393366269286
 11
161.87761801345601
 21
60.165399078069647
  0
LINE
  8
_0-2_
  6
CONTINUOUS
 62
  204
 10
161.87761801345601
 20
60.165399078069647
 11
161.92410054820974
 21
60.143298912969207
  0
LINE
  8
_0-2_
  6
CONTINUOUS
 62
  204
 10
161.92410054820974
 20
60.143298912969207
 11
161.97364076118396
 21
60.129764373301313
  0
LINE
  8
_0-2_
  6
CONTINUOUS
 62
  204
 10
161.97364076118396
 20
60.129764373301313
 11
162.02473339807602
 21
60.125206699204981
  0
LINE
  8
_0-2_
  6
CONTINUOUS
 62
  204
 10
162.02473339807602
 20
60.125206699204981
 11
162.07582603496809
 21
60.129764373301313
  0
LINE
  8
_0-2_
  6
CONTINUOUS
 62
  204
 10
162.07582603496809
 20
60.129764373301313
 11
162.12536624794231
 21
60.143298912969207
  0
LINE
  8
_0-2_
  6
CONTINUOUS
 62
  204
 10
162.12536624794231
 20
60.143298912969207
 11
162.17184878269603
 21
60.165399078069647
  0
LINE
  8
_0-2_
  6
CONTINUOUS
 62
  204
 10
162.17184878269603
 20
60.165399078069647
 11
162.21386129093204
 21
60.195393366269286
  0
LINE
  8
_0-2_
  6
CONTINUOUS
 62
  204
 10
162.21386129093204
 20
60.195393366269286
 11
162.25012724384695
 21
60.232370416299013
  0
LINE
  8
_0-2_
  6
CONTINUOUS
 62
  204
 10
162.25012724384695
 20
60.232370416299013
 11
162.2795447188129
 21
60.275206699204979
  0
LINE
  8
_0-2_
  6
CONTINUOUS
 62
  204
 10
162.2795447188129
 20
60.275206699204979
 11
162.30121988073901
 21
60.322600656207278
  0
LINE
  8
_0-2_
  6
CONTINUOUS
 62
  204
 10
162.30121988073901
 20
60.322600656207278
 11
162.31449414079833
 21
60.373112245904899
  0
LINE
  8
_0-2_
  6
CONTINUOUS
 62
  204
 10
162.31449414079833
 20
60.373112245904899
 11
162.31896416731601
 21
60.425206699204978
  0
LINE
  8
_0-2_
  6
CONTINUOUS
 62
  204
 10
162.31896416731601
 20
60.425206699204978
 11
162.31896416731601
 21
60.425206699204978
  0
LINE
  8
_0-2_
  6
CONTINUOUS
 62
  204
 10
160.67157459730845
 20
59.042234019892796
 11
160.67157459730845
 21
59.042234019892796
  0
LINE
  8
_0-2_
  6
CONTINUOUS
 62
  204
 10
160.67157459730845
 20
59.042234019892796
 11
160.75928190505755
 21
58.796535194935529
  0
LINE
  8
_0-2_
  6
CONTINUOUS
 62
  204
 10
160.75928190505755
 20
58.796535194935529
 11
160.88750141121918
 21
58.570097933020008
  0
LINE
  8
_0-2_
  6
CONTINUOUS
 62
  204
 10
160.88750141121918
 20
58.570097933020008
 11
161.05233723098081
 21
58.369802415766756
  0
LINE
  8
_0-2_
  6
CONTINUOUS
 62
  204
 10
161.05233723098081
 20
58.369802415766756
 11
161.24878091136998
 21
58.201734521113089
  0
LINE
  8
_0-2_
  6
CONTINUOUS
 62
  204
 10
161.24878091136998
 20
58.201734521113089
 11
161.47086361056333
 21
58.0710009069916
  0
LINE
  8
_0-2_
  6
CONTINUOUS
 62
  204
 10
161.47086361056333
 20
58.0710009069916
 11
161.71183745812513
 21
57.981573848112973
  0
LINE
  8
_0-2_
  6
CONTINUOUS
 62
  204
 10
161.71183745812513
 20
57.981573848112973
 11
161.96438058563587
 21
57.936170540408952
  0
LINE
  8
_0-2_
  6
CONTINUOUS
 62
  204
 10
161.96438058563587
 20
57.936170540408952
 11
162.09260009179752
 21
57.930462587546572
  0
LINE
  8
_0-2_
  6
CONTINUOUS
 62
  204
 10
164.93371985187892
 20
60.298411779978522
 11
164.93371985187892
 21
60.298411779978522
  0
LINE
  8
_0-2_
  6
CONTINUOUS
 62
  204
 10
164.93371985187892
 20
60.298411779978522
 11
165.00597039163264
 21
60.456391636652853
  0
LINE
  8
_0-2_
  6
CONTINUOUS
 62
  204
 10
165.00597039163264
 20
60.456391636652853
 11
165.05021792516368
 21
60.624763602311589
  0
LINE
  8
_0-2_
  6
CONTINUOUS
 62
  204
 10
165.05021792516368
 20
60.624763602311589
 11
165.06511801355603
 21
60.798411779978522
  0
LINE
  8
_0-2_
  6
CONTINUOUS
 62
  204
 10
165.06511801355603
 20
60.798411779978522
 11
165.06511801355603
 21
60.798411779978551
  0
LINE
  8
_0-2_
  6
CONTINUOUS
 62
  204
 10
163.02662744766076
 20
57.930462587546572
 11
163.02662744766076
 21
57.930462587546572
  0
LINE
  8
_0-2_
  6
CONTINUOUS
 62
  204
 10
163.02662744766076
 20
57.930462587546572
 11
163.19693623730097
 21
57.945654834534366
  0
LINE
  8
_0-2_
  6
CONTINUOUS
 62
  204
 10
163.19693623730097
 20
57.945654834534366
 11
163.36207028054838
 21
57.990769966760666
  0
LINE
  8
_0-2_
  6
CONTINUOUS
 62
  204
 10
163.36207028054838
 20
57.990769966760666
 11
163.51701206306075
 21
58.064437183762131
  0
LINE
  8
_0-2_
  6
CONTINUOUS
 62
  204
 10
163.51701206306075
 20
58.064437183762131
 11
163.65705375718079
 21
58.164418144427593
  0
LINE
  8
_0-2_
  6
CONTINUOUS
 62
  204
 10
163.65705375718079
 20
58.164418144427593
 11
163.77794026689716
 21
58.287674977860036
  0
LINE
  8
_0-2_
  6
CONTINUOUS
 62
  204
 10
163.77794026689716
 20
58.287674977860036
 11
163.87599851678365
 21
58.430462587546543
  0
LINE
  8
_0-2_
  6
CONTINUOUS
 62
  204
 10
162.31896416731595
 20
62.630462587545594
 11
162.31896416731595
 21
62.630462587545594
  0
LINE
  8
_0-2_
  6
CONTINUOUS
 62
  204
 10
162.31896416731595
 20
62.630462587545594
 11
162.29661403472744
 21
62.890934854045987
  0
LINE
  8
_0-2_
  6
CONTINUOUS
 62
  204
 10
162.29661403472744
 20
62.890934854045987
 11
162.2302427344309
 21
63.143492802534098
  0
LINE
  8
_0-2_
  6
CONTINUOUS
 62
  204
 10
162.2302427344309
 20
63.143492802534098
 11
162.12186692480034
 21
63.380462587545594
  0
LINE
  8
_0-2_
  6
CONTINUOUS
 62
  204
 10
162.12186692480034
 20
63.380462587545594
 11
161.97477954997058
 21
63.594644002075405
  0
LINE
  8
_0-2_
  6
CONTINUOUS
 62
  204
 10
161.97477954997058
 20
63.594644002075405
 11
161.79344978539601
 21
63.779529252224059
  0
LINE
  8
_0-2_
  6
CONTINUOUS
 62
  204
 10
161.79344978539601
 20
63.779529252224059
 11
161.58338724421597
 21
63.929500693222252
  0
LINE
  8
_0-2_
  6
CONTINUOUS
 62
  204
 10
161.58338724421597
 20
63.929500693222252
 11
161.35097457044739
 21
64.040001518724452
  0
LINE
  8
_0-2_
  6
CONTINUOUS
 62
  204
 10
161.35097457044739
 20
64.040001518724452
 11
161.10327350557628
 21
64.107674217063902
  0
LINE
  8
_0-2_
  6
CONTINUOUS
 62
  204
 10
161.10327350557628
 20
64.107674217063902
 11
160.84781032111596
 21
64.130462587545594
  0
LINE
  8
_0-2_
  6
CONTINUOUS
 62
  204
 10
160.73904568323223
 20
65.419565309653933
 11
160.73904568323223
 21
65.419565309653933
  0
LINE
  8
_0-2_
  6
CONTINUOUS
 62
  204
 10
160.73904568323223
 20
65.419565309653933
 11
160.79399095648611
 21
65.486330482071679
  0
LINE
  8
_0-2_
  6
CONTINUOUS
 62
  204
 10
160.79399095648611
 20
65.486330482071679
 11
160.83673079187332
 21
65.561809569376862
  0
LINE
  8
_0-2_
  6
CONTINUOUS
 62
  204
 10
160.83673079187332
 20
65.561809569376862
 11
160.86596656112303
 21
65.643709177695939
  0
LINE
  8
_0-2_
  6
CONTINUOUS
 62
  204
 10
160.86596656112303
 20
65.643709177695939
 11
160.88080995018058
 21
65.729540828873382
  0
LINE
  8
_0-2_
  6
CONTINUOUS
 62
  204
 10
160.88080995018058
 20
65.729540828873382
 11
160.88080995018058
 21
65.816696571621037
  0
LINE
  8
_0-2_
  6
CONTINUOUS
 62
  204
 10
160.88080995018058
 20
65.816696571621037
 11
160.86596656112303
 21
65.902528222798466
  0
LINE
  8
_0-2_
  6
CONTINUOUS
 62
  204
 10
160.86596656112303
 20
65.902528222798466
 11
160.86596656112303
 21
65.902528222798466
  0
LINE
  8
_0-2_
  6
CONTINUOUS
 62
  204
 10
165.69891360261374
 20
62.473125120612018
 11
165.69891360261374
 21
62.473125120612018
  0
LINE
  8
_0-2_
  6
CONTINUOUS
 62
  204
 10
165.69891360261374
 20
62.473125120612018
 11
165.61660373201104
 21
62.496639393464555
  0
LINE
  8
_0-2_
  6
CONTINUOUS
 62
  204
 10
165.61660373201104
 20
62.496639393464555
 11
165.53153964594327
 21
62.505223218543762
  0
LINE
  8
_0-2_
  6
CONTINUOUS
 62
  204
 10
165.53153964594327
 20
62.505223218543762
 11
165.44630597362112
 21
62.498615780668246
  0
LINE
  8
_0-2_
  6
CONTINUOUS
 62
  204
 10
165.44630597362112
 20
62.498615780668246
 11
165.36349249704776
 21
62.477017843494309
  0
LINE
  8
_0-2_
  6
CONTINUOUS
 62
  204
 10
165.36349249704776
 20
62.477017843494309
 11
165.28561546180325
 21
62.441085649413914
  0
LINE
  8
_0-2_
  6
CONTINUOUS
 62
  204
 10
165.28561546180325
 20
62.441085649413914
 11
165.2150411221958
 21
62.391910979961615
  0
LINE
  8
_0-2_
  6
CONTINUOUS
 62
  204
 10
165.2150411221958
 20
62.391910979961615
 11
165.15391384382204
 21
62.330987982585143
  0
LINE
  8
_0-2_
  6
CONTINUOUS
 62
  204
 10
165.15391384382204
 20
62.330987982585143
 11
165.10409094810345
 21
62.260167771731254
  0
LINE
  8
_0-2_
  6
CONTINUOUS
 62
  204
 10
165.10409094810345
 20
62.260167771731254
 11
165.06708627851486
 21
62.181602183669995
  0
LINE
  8
_0-2_
  6
CONTINUOUS
 62
  204
 10
165.06708627851486
 20
62.181602183669995
 11
165.04402420321648
 21
62.097678394038496
  0
LINE
  8
_0-2_
  6
CONTINUOUS
 62
  204
 10
165.04402420321648
 20
62.097678394038496
 11
165.0356054516962
 21
62.010946384717222
  0
LINE
  8
_0-2_
  6
CONTINUOUS
 62
  204
 10
165.0356054516962
 20
62.010946384717222
 11
165.03826006670985
 21
61.952991372937461
  0
LINE
  8
_0-2_
  6
CONTINUOUS
 62
  204
 10
162.36725461315459
 20
69.712140465984348
 11
162.36725461315459
 21
69.712140465984348
  0
LINE
  8
_0-2_
  6
CONTINUOUS
 62
  204
 10
162.36725461315459
 20
69.712140465984348
 11
162.19901548373448
 21
69.909472288053621
  0
LINE
  8
_0-2_
  6
CONTINUOUS
 62
  204
 10
162.19901548373448
 20
69.909472288053621
 11
161.99972494094746
 21
70.074018946378203
  0
LINE
  8
_0-2_
  6
CONTINUOUS
 62
  204
 10
161.99972494094746
 20
70.074018946378203
 11
161.77543832709014
 21
70.200780774009544
  0
LINE
  8
_0-2_
  6
CONTINUOUS
 62
  204
 10
161.77543832709014
 20
70.200780774009544
 11
161.53297047743015
 21
70.285906176959628
  0
LINE
  8
_0-2_
  6
CONTINUOUS
 62
  204
 10
161.53297047743015
 20
70.285906176959628
 11
161.27968865488472
 21
70.326808662935377
  0
LINE
  8
_0-2_
  6
CONTINUOUS
 62
  204
 10
161.27968865488472
 20
70.326808662935377
 11
161.17706615023872
 21
70.33046258754564
  0
LINE
  8
_0-2_
  6
CONTINUOUS
 62
  204
 10
161.29646329756017
 20
61.371437727636049
 11
161.29646329756017
 21
61.371437727636049
  0
LINE
  8
_0-2_
  6
CONTINUOUS
 62
  204
 10
161.29646329756017
 20
61.371437727636049
 11
161.24723577578382
 21
61.463193402893751
  0
LINE
  8
_0-2_
  6
CONTINUOUS
 62
  204
 10
161.24723577578382
 20
61.463193402893751
 11
161.18312933268112
 21
61.54483922069673
  0
LINE
  8
_0-2_
  6
CONTINUOUS
 62
  204
 10
161.18312933268112
 20
61.54483922069673
 11
161.10609181008633
 21
61.613894414185822
  0
LINE
  8
_0-2_
  6
CONTINUOUS
 62
  204
 10
161.10609181008633
 20
61.613894414185822
 11
161.01846395414063
 21
61.668260776250477
  0
LINE
  8
_0-2_
  6
CONTINUOUS
 62
  204
 10
161.01846395414063
 20
61.668260776250477
 11
160.92290829290508
 21
61.706286412490066
  0
LINE
  8
_0-2_
  6
CONTINUOUS
 62
  204
 10
160.92290829290508
 20
61.706286412490066
 11
160.82232823679286
 21
61.726815933189343
  0
LINE
  8
_0-2_
  6
CONTINUOUS
 62
  204
 10
160.82232823679286
 20
61.726815933189343
 11
160.75754780078273
 21
61.730462587536273
  0
LINE
  8
_0-2_
  6
CONTINUOUS
 62
  204
 10
168.59588724443606
 20
61.71706946226881
 11
168.59588724443606
 21
61.71706946226881
  0
LINE
  8
_0-2_
  6
CONTINUOUS
 62
  204
 10
168.59588724443606
 20
61.71706946226881
 11
168.39973339827634
 21
61.73046258753692
  0
LINE
  8
_0-2_
  6
CONTINUOUS
 62
  204
 10
168.59588724443611
 20
61.717069462268825
 11
168.59588724443611
 21
61.717069462268825
  0
LINE
  8
_0-2_
  6
CONTINUOUS
 62
  204
 10
168.59588724443611
 20
61.717069462268825
 11
168.62082828289195
 21
61.723149118982924
  0
LINE
  8
_0-2_
  6
CONTINUOUS
 62
  204
 10
168.62082828289195
 20
61.723149118982924
 11
168.644354991955
 21
61.733552298827014
  0
LINE
  8
_0-2_
  6
CONTINUOUS
 62
  204
 10
168.644354991955
 20
61.733552298827014
 11
168.66575252447552
 21
61.747962906445785
  0
LINE
  8
_0-2_
  6
CONTINUOUS
 62
  204
 10
168.66575252447552
 20
61.747962906445785
 11
168.68437072725553
 21
61.765943082818858
  0
LINE
  8
_0-2_
  6
CONTINUOUS
 62
  204
 10
168.68437072725553
 20
61.765943082818858
 11
168.69964389562483
 21
61.786946509385558
  0
LINE
  8
_0-2_
  6
CONTINUOUS
 62
  204
 10
168.69964389562483
 20
61.786946509385558
 11
168.71110796209109
 21
61.810335007657898
  0
LINE
  8
_0-2_
  6
CONTINUOUS
 62
  204
 10
168.71110796209109
 20
61.810335007657898
 11
168.71841459679587
 21
61.835397929951014
  0
LINE
  8
_0-2_
  6
CONTINUOUS
 62
  204
 10
168.71841459679587
 20
61.835397929951014
 11
168.72134179134093
 21
61.861373752053495
  0
LINE
  8
_0-2_
  6
CONTINUOUS
 62
  204
 10
168.72134179134093
 20
61.861373752053495
 11
168.71980060440134
 21
61.88747321175515
  0
LINE
  8
_0-2_
  6
CONTINUOUS
 62
  204
 10
168.71980060440134
 20
61.88747321175515
 11
168.71383786416231
 21
61.912903290179905
  0
LINE
  8
_0-2_
  6
CONTINUOUS
 62
  204
 10
168.71383786416231
 20
61.912903290179905
 11
168.70363474546878
 21
61.936891307263075
  0
LINE
  8
_0-2_
  6
CONTINUOUS
 62
  204
 10
168.70363474546878
 20
61.936891307263075
 11
168.69549899743703
 21
61.950438183947242
  0
LINE
  8
_0-2_
  6
CONTINUOUS
 62
  204
 10
164.6926258403409
 20
66.448784709123501
 11
164.6926258403409
 21
66.448784709123501
  0
LINE
  8
_0-2_
  6
CONTINUOUS
 62
  204
 10
164.6926258403409
 20
66.448784709123501
 11
164.86086496976097
 21
66.251452887054242
  0
LINE
  8
_0-2_
  6
CONTINUOUS
 62
  204
 10
164.86086496976097
 20
66.251452887054242
 11
165.06015551254802
 21
66.08690622872966
  0
LINE
  8
_0-2_
  6
CONTINUOUS
 62
  204
 10
165.06015551254802
 20
66.08690622872966
 11
165.28444212640531
 21
65.960144401098319
  0
LINE
  8
_0-2_
  6
CONTINUOUS
 62
  204
 10
165.28444212640531
 20
65.960144401098319
 11
165.44629615023098
 21
65.898014973123964
  0
LINE
  8
_0-2_
  6
CONTINUOUS
 62
  204
 10
165.44629615023098
 20
65.898014973123921
 11
165.44629615023098
 21
65.898014973123921
  0
LINE
  8
_0-2_
  6
CONTINUOUS
 62
  204
 10
165.44629615023098
 20
65.898014973123921
 11
165.6871564959946
 21
65.808270593903018
  0
LINE
  8
_0-2_
  6
CONTINUOUS
 62
  204
 10
165.6871564959946
 20
65.808270593903018
 11
165.90907337529364
 21
65.677244576087134
  0
LINE
  8
_0-2_
  6
CONTINUOUS
 62
  204
 10
165.90907337529364
 20
65.677244576087134
 11
166.06351357592348
 21
65.549985068758588
  0
LINE
  8
_0-2_
  6
CONTINUOUS
 62
  204
 10
168.449895141388
 20
63.077469989049305
 11
168.449895141388
 21
63.077469989049305
  0
LINE
  8
_0-2_
  6
CONTINUOUS
 62
  204
 10
168.449895141388
 20
63.077469989049305
 11
168.39371898765057
 21
63.332586398959315
  0
LINE
  8
_0-2_
  6
CONTINUOUS
 62
  204
 10
168.39371898765057
 20
63.332586398959315
 11
168.2949477089264
 21
63.573880858346087
  0
LINE
  8
_0-2_
  6
CONTINUOUS
 62
  204
 10
168.2949477089264
 20
63.573880858346087
 11
168.15658242053885
 21
63.794021757162028
  0
LINE
  8
_0-2_
  6
CONTINUOUS
 62
  204
 10
168.15658242053885
 20
63.794021757162028
 11
167.9828272817594
 21
63.986320225593296
  0
LINE
  8
_0-2_
  6
CONTINUOUS
 62
  204
 10
167.9828272817594
 20
63.986320225593296
 11
167.85770115278595
 21
64.09037243026296
  0
LINE
  8
_0-3_
  6
CONTINUOUS
 62
    5
 10
102.63240964304561
 20
64.230462587536863
 11
99.632409643045605
 21
64.230462587536863
  0
LINE
  8
_0-3_
  6
CONTINUOUS
 62
    5
 10
99.632409643045605
 20
64.230462587536863
 11
99.632409643045605
 21
73.468564756896455
  0
LINE
  8
_0-3_
  6
CONTINUOUS
 62
    5
 10
102.63240964304561
 20
73.468564756896455
 11
102.63240964304561
 21
64.230462587536863
  0
LINE
  8
_0-3_
  6
CONTINUOUS
 62
    5
 10
43.652686864809311
 20
64.230462587536863
 11
42.152686864809311
 21
64.230462587536863
  0
LINE
  8
_0-3_
  6
CONTINUOUS
 62
    5
 10
154.96511801355632
 20
64.230462587536863
 11
159.96511801355632
 21
64.230462587536863
  0
LINE
  8
_0-3_
  6
CONTINUOUS
 62
    5
 10
42.152686864809311
 20
64.230462587536863
 11
42.152686864809311
 21
73.468564756896455
  0
LINE
  8
_0-3_
  6
CONTINUOUS
 62
    5
 10
43.652686864809311
 20
73.468564756896455
 11
43.652686864809311
 21
64.230462587536863
  0
LINE
  8
_0-3_
  6
CONTINUOUS
 62
    5
 10
154.96511801355632
 20
73.468564756896455
 11
154.96511801355632
 21
64.230462587536863
  0
LINE
  8
_0-3_
  6
CONTINUOUS
 62
    5
 10
159.96511801355632
 20
64.230462587536863
 11
159.96511801355632
 21
73.468564756896455
  0
LINE
  8
_0-1_
  6
PHANTOM1
 62
  152
 10
27.152686864809311
 20
36.130462206067136
 11
27.152686864809311
 21
23.230462587536863
  0
LINE
  8
_0-1_
  6
PHANTOM1
 62
  152
 10
27.152686864809311
 20
47.330462969006589
 11
27.152686864809311
 21
60.230462587536863
  0
LINE
  8
_0-1_
  6
PHANTOM1
 62
  152
 10
41.552686483339585
 20
61.730462587536863
 11
28.652686864809311
 21
61.730462587536863
  0
LINE
  8
_0-1_
  6
PHANTOM1
 62
  152
 10
52.752687246279038
 20
61.730462587536863
 11
65.652686864809311
 21
61.730462587536863
  0
LINE
  8
_0-1_
  6
PHANTOM1
 62
  152
 10
67.152686864809311
 20
47.330462969006589
 11
67.152686864809311
 21
60.230462587536863
  0
LINE
  8
_0-1_
  6
PHANTOM1
 62
  152
 10
67.152686864809311
 20
36.130462206067136
 11
67.152686864809311
 21
23.230462587536863
  0
LINE
  8
_0-1_
  6
PHANTOM1
 62
  152
 10
52.752687246279038
 20
21.730462587536863
 11
65.652686864809311
 21
21.730462587536863
  0
LINE
  8
_0-1_
  6
PHANTOM1
 62
  152
 10
41.552686483339585
 20
21.730462587536863
 11
28.652686864809311
 21
21.730462587536863
  0
LINE
  8
_0-1_
  6
PHANTOM1
 62
  152
 10
29.434652835802353
 20
36.630462206067136
 11
27.652686864809311
 21
36.630462206067136
  0
LINE
  8
_0-1_
  6
PHANTOM1
 62
  152
 10
29.658259660677231
 20
36.57767633265405
 11
30.476293594316758
 21
36.168658769787839
  0
LINE
  8
_0-1_
  6
PHANTOM1
 62
  152
 10
29.434652835802353
 20
46.830462969006589
 11
27.652686864809311
 21
46.830462969006589
  0
LINE
  8
_0-1_
  6
PHANTOM1
 62
  152
 10
29.658259660677231
 20
46.883248842419675
 11
30.476293594316758
 21
47.292266405285886
  0
LINE
  8
_0-1_
  6
PHANTOM1
 62
  152
 10
30.75268676944188
 20
49.230462587536863
 11
30.75268676944188
 21
47.739479578198484
  0
LINE
  8
_0-1_
  6
PHANTOM1
 62
  152
 10
30.75268676944188
 20
34.230462587536863
 11
30.75268676944188
 21
35.721444643200925
  0
LINE
  8
_0-1_
  6
PHANTOM1
 62
  152
 10
42.052686483339585
 20
59.448496616543821
 11
42.052686483339585
 21
61.230462587536863
  0
LINE
  8
_0-1_
  6
PHANTOM1
 62
  152
 10
41.999900609926499
 20
59.224889791668943
 11
41.590883047060288
 21
58.406855858029417
  0
LINE
  8
_0-1_
  6
PHANTOM1
 62
  152
 10
39.652686864809311
 20
58.130462682904295
 11
41.14366987414769
 21
58.130462682904295
  0
LINE
  8
_0-1_
  6
PHANTOM1
 62
  152
 10
54.652686864809311
 20
58.130462682904295
 11
53.161704809145249
 21
58.130462682904295
  0
LINE
  8
_0-1_
  6
PHANTOM1
 62
  152
 10
52.305473119692124
 20
59.224889791668943
 11
52.714490682558335
 21
58.406855858029417
  0
LINE
  8
_0-1_
  6
PHANTOM1
 62
  152
 10
52.252687246279038
 20
59.448496616543821
 11
52.252687246279038
 21
61.230462587536863
  0
LINE
  8
_0-1_
  6
PHANTOM1
 62
  152
 10
64.870719701723374
 20
36.630462206067136
 11
66.652686864809311
 21
36.630462206067136
  0
LINE
  8
_0-1_
  6
PHANTOM1
 62
  152
 10
64.647113592104233
 20
36.57767633265405
 11
63.829078466371811
 21
36.168658769787839
  0
LINE
  8
_0-1_
  6
PHANTOM1
 62
  152
 10
63.552688390688218
 20
34.230462587536863
 11
63.552688390688218
 21
35.721444643200925
  0
LINE
  8
_0-1_
  6
PHANTOM1
 62
  152
 10
63.552688390688218
 20
49.230462587536863
 11
63.552688390688218
 21
47.739479578198484
  0
LINE
  8
_0-1_
  6
PHANTOM1
 62
  152
 10
64.647113592104233
 20
46.883248842419675
 11
63.829078466371811
 21
47.292266405285886
  0
LINE
  8
_0-1_
  6
PHANTOM1
 62
  152
 10
64.870719701723374
 20
46.830462969006589
 11
66.652686864809311
 21
46.830462969006589
  0
LINE
  8
_0-1_
  6
PHANTOM1
 62
  152
 10
42.052686483339585
 20
24.0124297506228
 11
42.052686483339585
 21
22.230462587536863
  0
LINE
  8
_0-1_
  6
PHANTOM1
 62
  152
 10
41.999900609926499
 20
24.236035860241941
 11
41.590883047060288
 21
25.054070985974363
  0
LINE
  8
_0-1_
  6
PHANTOM1
 62
  152
 10
39.652686864809311
 20
25.330461061657957
 11
41.14366987414769
 21
25.330461061657957
  0
LINE
  8
_0-1_
  6
PHANTOM1
 62
  152
 10
54.652686864809311
 20
25.330461061657957
 11
53.161704809145249
 21
25.330461061657957
  0
LINE
  8
_0-1_
  6
PHANTOM1
 62
  152
 10
52.305473119692124
 20
24.236035860241941
 11
52.714490682558335
 21
25.054070985974363
  0
LINE
  8
_0-1_
  6
PHANTOM1
 62
  152
 10
52.252687246279038
 20
24.0124297506228
 11
52.252687246279038
 21
22.230462587536863
  0
LINE
  8
_0-1_
  6
PHANTOM1
 62
  152
 10
39.152686864809311
 20
30.02335504359155
 11
39.152686864809311
 21
25.830461061657957
  0
LINE
  8
_0-1_
  6
PHANTOM1
 62
  152
 10
40.506240636781968
 20
31.584016359509519
 11
39.299133092836655
 21
30.376908815564207
  0
LINE
  8
_0-1_
  6
PHANTOM1
 62
  152
 10
53.445579320863999
 20
31.730462587536863
 11
40.859793455080307
 21
31.730462587536863
  0
LINE
  8
_0-1_
  6
PHANTOM1
 62
  152
 10
55.006240636781968
 20
30.376908815564207
 11
53.799133092836655
 21
31.584016359509519
  0
LINE
  8
_0-1_
  6
PHANTOM1
 62
  152
 10
55.152686864809311
 20
30.02335504359155
 11
55.152686864809311
 21
25.830461061657957
  0
LINE
  8
_0-1_
  6
PHANTOM1
 62
  152
 10
58.859794408754624
 20
33.730462587536863
 11
63.052688390688218
 21
33.730462587536863
  0
LINE
  8
_0-1_
  6
PHANTOM1
 62
  152
 10
57.299133092836655
 20
35.084016359509519
 11
58.506240636781968
 21
33.876908815564207
  0
LINE
  8
_0-1_
  6
PHANTOM1
 62
  152
 10
58.506240636781968
 20
49.584016359509519
 11
57.299133092836655
 21
48.376908815564207
  0
LINE
  8
_0-1_
  6
PHANTOM1
 62
  152
 10
58.859794408754624
 20
49.730462587536863
 11
63.052688390688218
 21
49.730462587536863
  0
LINE
  8
_0-1_
  6
PHANTOM1
 62
  152
 10
55.152686864809311
 20
53.437569177807859
 11
55.152686864809311
 21
57.630462682904295
  0
LINE
  8
_0-1_
  6
PHANTOM1
 62
  152
 10
53.799133092836655
 20
51.876908815564207
 11
55.006240636781968
 21
53.084016359509519
  0
LINE
  8
_0-1_
  6
PHANTOM1
 62
  152
 10
40.859793455080307
 20
51.730462587536863
 11
53.445579320863999
 21
51.730462587536863
  0
LINE
  8
_0-1_
  6
PHANTOM1
 62
  152
 10
39.299133092836655
 20
53.084016359509519
 11
40.506240636781968
 21
51.876908815564207
  0
LINE
  8
_0-1_
  6
PHANTOM1
 62
  152
 10
39.152686864809311
 20
53.437569177807859
 11
39.152686864809311
 21
57.630462682904295
  0
LINE
  8
_0-1_
  6
PHANTOM1
 62
  152
 10
35.445580274538315
 20
33.730462587536863
 11
31.25268676944188
 21
33.730462587536863
  0
LINE
  8
_0-1_
  6
PHANTOM1
 62
  152
 10
37.006240636781968
 20
35.084016359509519
 11
35.799133092836655
 21
33.876908815564207
  0
LINE
  8
_0-1_
  6
PHANTOM1
 62
  152
 10
35.799133092836655
 20
49.584016359509519
 11
37.006240636781968
 21
48.376908815564207
  0
LINE
  8
_0-1_
  6
PHANTOM1
 62
  152
 10
35.445580274538315
 20
49.730462587536863
 11
31.25268676944188
 21
49.730462587536863
  0
ARC
  8
_0-1_
  6
PHANTOM1
 62
  152
 10
41.14366987414769
 20
58.630462682904295
 40
0.5
 50
270
 51
333.4349365234375
  0
ARC
  8
_0-1_
  6
PHANTOM1
 62
  152
 10
53.161704809145249
 20
58.630462682904295
 40
0.5
 50
206.56504821777344
 51
270
  0
ARC
  8
_0-1_
  6
PHANTOM1
 62
  152
 10
53.161704809145249
 20
24.830461061657957
 40
0.5
 50
90
 51
153.43493652343753
  0
ARC
  8
_0-1_
  6
PHANTOM1
 62
  152
 10
41.14366987414769
 20
24.830461061657957
 40
0.5
 50
26.56504821777343
 51
90
  0
ARC
  8
_0-1_
  6
PHANTOM1
 62
  152
 10
64.052688390688218
 20
47.739479578198484
 40
0.5
 50
180
 51
243.43493652343753
  0
ARC
  8
_0-1_
  6
PHANTOM1
 62
  152
 10
64.052688390688218
 20
35.721444643200925
 40
0.5
 50
116.56504821777345
 51
180.00000000000003
  0
ARC
  8
_0-1_
  6
PHANTOM1
 62
  152
 10
30.25268676944188
 20
35.721444643200925
 40
0.5
 50
0
 51
63.434936523437493
  0
ARC
  8
_0-1_
  6
PHANTOM1
 62
  152
 10
30.25268676944188
 20
47.739479578198484
 40
0.5
 50
296.56504821777344
 51
0
  0
ARC
  8
_0-1_
  6
PHANTOM1
 62
  152
 10
28.652686864809311
 20
23.230462587536863
 40
1.5
 50
180
 51
270
  0
ARC
  8
_0-1_
  6
PHANTOM1
 62
  152
 10
28.652686864809311
 20
60.230462587536863
 40
1.5
 50
90
 51
180
  0
ARC
  8
_0-1_
  6
PHANTOM1
 62
  152
 10
65.652686864809311
 20
60.230462587536863
 40
1.5
 50
0
 51
90
  0
ARC
  8
_0-1_
  6
PHANTOM1
 62
  152
 10
65.652686864809311
 20
23.230462587536863
 40
1.5
 50
270
 51
0
  0
ARC
  8
_0-1_
  6
PHANTOM1
 62
  152
 10
27.652686864809311
 20
36.130462206067136
 40
0.5
 50
90
 51
180
  0
ARC
  8
_0-1_
  6
PHANTOM1
 62
  152
 10
27.652686864809311
 20
47.330462969006589
 40
0.5
 50
180
 51
270
  0
ARC
  8
_0-1_
  6
PHANTOM1
 62
  152
 10
41.552686483339585
 20
61.230462587536863
 40
0.5
 50
0
 51
90
  0
ARC
  8
_0-1_
  6
PHANTOM1
 62
  152
 10
52.752687246279038
 20
61.230462587536863
 40
0.5
 50
90
 51
180
  0
ARC
  8
_0-1_
  6
PHANTOM1
 62
  152
 10
66.652686864809311
 20
47.330462969006589
 40
0.5
 50
270
 51
0
  0
ARC
  8
_0-1_
  6
PHANTOM1
 62
  152
 10
66.652686864809311
 20
36.130462206067136
 40
0.5
 50
0
 51
90
  0
ARC
  8
_0-1_
  6
PHANTOM1
 62
  152
 10
52.752687246279038
 20
22.230462587536863
 40
0.5
 50
180
 51
270
  0
ARC
  8
_0-1_
  6
PHANTOM1
 62
  152
 10
41.552686483339585
 20
22.230462587536863
 40
0.5
 50
270
 51
359.99998474121094
  0
ARC
  8
_0-1_
  6
PHANTOM1
 62
  152
 10
29.434652835802353
 20
36.130462206067136
 40
0.5
 50
63.434936523437521
 51
90.000000000000028
  0
ARC
  8
_0-1_
  6
PHANTOM1
 62
  152
 10
29.434652835802353
 20
47.330462969006589
 40
0.5
 50
270
 51
296.56504821777344
  0
ARC
  8
_0-1_
  6
PHANTOM1
 62
  152
 10
31.25268676944188
 20
49.230462587536863
 40
0.5
 50
90
 51
180
  0
ARC
  8
_0-1_
  6
PHANTOM1
 62
  152
 10
31.25268676944188
 20
34.230462587536863
 40
0.5
 50
180
 51
270
  0
ARC
  8
_0-1_
  6
PHANTOM1
 62
  152
 10
41.552686483339585
 20
59.448496616543821
 40
0.5
 50
333.4349365234375
 51
0.000000000000019
  0
ARC
  8
_0-1_
  6
PHANTOM1
 62
  152
 10
39.652686864809311
 20
57.630462682904295
 40
0.5
 50
90
 51
180
  0
ARC
  8
_0-1_
  6
PHANTOM1
 62
  152
 10
54.652686864809311
 20
57.630462682904295
 40
0.5
 50
0
 51
90
  0
ARC
  8
_0-1_
  6
PHANTOM1
 62
  152
 10
52.752687246279038
 20
59.448496616543821
 40
0.5
 50
180
 51
206.56504821777344
  0
ARC
  8
_0-1_
  6
PHANTOM1
 62
  152
 10
64.870719701723374
 20
36.130462206067136
 40
0.5
 50
90
 51
116.56504821777344
  0
ARC
  8
_0-1_
  6
PHANTOM1
 62
  152
 10
63.052688390688218
 20
34.230462587536863
 40
0.5
 50
270
 51
0
  0
ARC
  8
_0-1_
  6
PHANTOM1
 62
  152
 10
63.052688390688218
 20
49.230462587536863
 40
0.5
 50
0
 51
90
  0
ARC
  8
_0-1_
  6
PHANTOM1
 62
  152
 10
64.870719701723374
 20
47.330462969006589
 40
0.5
 50
243.43493652343753
 51
270
  0
ARC
  8
_0-1_
  6
PHANTOM1
 62
  152
 10
41.552686483339585
 20
24.0124297506228
 40
0.5
 50
359.99998474121088
 51
26.565048217773398
  0
ARC
  8
_0-1_
  6
PHANTOM1
 62
  152
 10
39.652686864809311
 20
25.830461061657957
 40
0.5
 50
180
 51
270
  0
ARC
  8
_0-1_
  6
PHANTOM1
 62
  152
 10
54.652686864809311
 20
25.830461061657957
 40
0.5
 50
270
 51
0
  0
ARC
  8
_0-1_
  6
PHANTOM1
 62
  152
 10
52.752687246279038
 20
24.0124297506228
 40
0.5
 50
153.43493652343753
 51
180.00000000000003
  0
ARC
  8
_0-1_
  6
PHANTOM1
 62
  152
 10
39.652686864809311
 20
30.02335504359155
 40
0.5
 50
135
 51
180
  0
ARC
  8
_0-1_
  6
PHANTOM1
 62
  152
 10
40.859793455080307
 20
31.230462587536863
 40
0.5
 50
90
 51
135
  0
ARC
  8
_0-1_
  6
PHANTOM1
 62
  152
 10
53.445579320863999
 20
31.230462587536863
 40
0.5
 50
45.00000000000005
 51
90.000000000000057
  0
ARC
  8
_0-1_
  6
PHANTOM1
 62
  152
 10
54.652686864809311
 20
30.02335504359155
 40
0.5
 50
0
 51
45
  0
ARC
  8
_0-1_
  6
PHANTOM1
 62
  152
 10
58.859794408754624
 20
34.230462587536863
 40
0.5
 50
225
 51
270
  0
ARC
  8
_0-1_
  6
PHANTOM1
 62
  152
 10
57.652686864809311
 20
35.437570131482175
 40
0.5
 50
180
 51
224.99998474121097
  0
ARC
  8
_0-1_
  6
PHANTOM1
 62
  152
 10
57.652686864809311
 20
48.023355997265867
 40
0.5
 50
135
 51
180
  0
ARC
  8
_0-1_
  6
PHANTOM1
 62
  152
 10
58.859794408754624
 20
49.230462587536863
 40
0.5
 50
90
 51
135
  0
ARC
  8
_0-1_
  6
PHANTOM1
 62
  152
 10
54.652686864809311
 20
53.437569177807859
 40
0.5
 50
315
 51
0
  0
ARC
  8
_0-1_
  6
PHANTOM1
 62
  152
 10
53.445579320863999
 20
52.230462587536863
 40
0.5
 50
270
 51
315
  0
ARC
  8
_0-1_
  6
PHANTOM1
 62
  152
 10
40.859793455080307
 20
52.230462587536863
 40
0.5
 50
225
 51
270
  0
ARC
  8
_0-1_
  6
PHANTOM1
 62
  152
 10
39.652686864809311
 20
53.437569177807859
 40
0.5
 50
180
 51
225
  0
ARC
  8
_0-1_
  6
PHANTOM1
 62
  152
 10
35.445580274538315
 20
34.230462587536863
 40
0.5
 50
270
 51
315
  0
ARC
  8
_0-1_
  6
PHANTOM1
 62
  152
 10
36.652686864809311
 20
35.437570131482175
 40
0.5
 50
315
 51
0
  0
ARC
  8
_0-1_
  6
PHANTOM1
 62
  152
 10
36.652686864809311
 20
48.023355997265867
 40
0.5
 50
0
 51
45
  0
ARC
  8
_0-1_
  6
PHANTOM1
 62
  152
 10
35.445580274538315
 20
49.230462587536863
 40
0.5
 50
45.00000000000005
 51
90.000000000000057
  0
LINE
  8
_0-1_
  6
PHANTOM1
 62
  152
 10
57.152686864809311
 20
35.437570131482175
 11
57.152686864809311
 21
48.023355997265867
  0
LINE
  8
_0-1_
  6
PHANTOM1
 62
  152
 10
37.152686864809311
 20
35.437570131482175
 11
37.152686864809311
 21
48.023355997265867
  0
LINE
  8
_0-1_
  6
PHANTOM1
 62
  152
 10
84.632409643045605
 20
36.130462206067136
 11
84.632409643045605
 21
23.230462587536863
  0
LINE
  8
_0-1_
  6
PHANTOM1
 62
  152
 10
84.632409643045605
 20
47.330462969006589
 11
84.632409643045605
 21
60.230462587536863
  0
LINE
  8
_0-1_
  6
PHANTOM1
 62
  152
 10
99.032409261575879
 20
61.730462587536863
 11
86.132409643045605
 21
61.730462587536863
  0
LINE
  8
_0-1_
  6
PHANTOM1
 62
  152
 10
110.23241002451533
 20
61.730462587536863
 11
123.13240964304561
 21
61.730462587536863
  0
LINE
  8
_0-1_
  6
PHANTOM1
 62
  152
 10
124.63240964304561
 20
47.330462969006589
 11
124.63240964304561
 21
60.230462587536863
  0
LINE
  8
_0-1_
  6
PHANTOM1
 62
  152
 10
124.63240964304561
 20
36.130462206067136
 11
124.63240964304561
 21
23.230462587536863
  0
LINE
  8
_0-1_
  6
PHANTOM1
 62
  152
 10
110.23241002451533
 20
21.730462587536863
 11
123.13240964304561
 21
21.730462587536863
  0
LINE
  8
_0-1_
  6
PHANTOM1
 62
  152
 10
99.032409261575879
 20
21.730462587536863
 11
86.132409643045605
 21
21.730462587536863
  0
LINE
  8
_0-1_
  6
PHANTOM1
 62
  152
 10
86.914375614038647
 20
36.630462206067136
 11
85.132409643045605
 21
36.630462206067136
  0
LINE
  8
_0-1_
  6
PHANTOM1
 62
  152
 10
87.137982438913525
 20
36.57767633265405
 11
87.956016372553051
 21
36.168658769787839
  0
LINE
  8
_0-1_
  6
PHANTOM1
 62
  152
 10
86.914375614038647
 20
46.830462969006589
 11
85.132409643045605
 21
46.830462969006589
  0
LINE
  8
_0-1_
  6
PHANTOM1
 62
  152
 10
87.137982438913525
 20
46.883248842419675
 11
87.956016372553051
 21
47.292266405285886
  0
LINE
  8
_0-1_
  6
PHANTOM1
 62
  152
 10
88.232409547678174
 20
49.230462587536863
 11
88.232409547678174
 21
47.739479578198484
  0
LINE
  8
_0-1_
  6
PHANTOM1
 62
  152
 10
88.232409547678174
 20
34.230462587536863
 11
88.232409547678174
 21
35.721444643200925
  0
LINE
  8
_0-1_
  6
PHANTOM1
 62
  152
 10
99.532409261575879
 20
59.448496616543821
 11
99.532409261575879
 21
61.230462587536863
  0
LINE
  8
_0-1_
  6
PHANTOM1
 62
  152
 10
99.479623388162793
 20
59.224889791668943
 11
99.070605825296582
 21
58.406855858029417
  0
LINE
  8
_0-1_
  6
PHANTOM1
 62
  152
 10
97.132409643045605
 20
58.130462682904295
 11
98.623392652383984
 21
58.130462682904295
  0
LINE
  8
_0-1_
  6
PHANTOM1
 62
  152
 10
112.13240964304561
 20
58.130462682904295
 11
110.64142758738154
 21
58.130462682904295
  0
LINE
  8
_0-1_
  6
PHANTOM1
 62
  152
 10
109.78519589792842
 20
59.224889791668943
 11
110.19421346079463
 21
58.406855858029417
  0
LINE
  8
_0-1_
  6
PHANTOM1
 62
  152
 10
109.73241002451533
 20
59.448496616543821
 11
109.73241002451533
 21
61.230462587536863
  0
LINE
  8
_0-1_
  6
PHANTOM1
 62
  152
 10
122.35044247995967
 20
36.630462206067136
 11
124.13240964304561
 21
36.630462206067136
  0
LINE
  8
_0-1_
  6
PHANTOM1
 62
  152
 10
122.12683637034053
 20
36.57767633265405
 11
121.30880124460811
 21
36.168658769787839
  0
LINE
  8
_0-1_
  6
PHANTOM1
 62
  152
 10
121.03241116892451
 20
34.230462587536863
 11
121.03241116892451
 21
35.721444643200925
  0
LINE
  8
_0-1_
  6
PHANTOM1
 62
  152
 10
121.03241116892451
 20
49.230462587536863
 11
121.03241116892451
 21
47.739479578198484
  0
LINE
  8
_0-1_
  6
PHANTOM1
 62
  152
 10
122.12683637034053
 20
46.883248842419675
 11
121.30880124460811
 21
47.292266405285886
  0
LINE
  8
_0-1_
  6
PHANTOM1
 62
  152
 10
122.35044247995967
 20
46.830462969006589
 11
124.13240964304561
 21
46.830462969006589
  0
LINE
  8
_0-1_
  6
PHANTOM1
 62
  152
 10
99.532409261575879
 20
24.0124297506228
 11
99.532409261575879
 21
22.230462587536863
  0
LINE
  8
_0-1_
  6
PHANTOM1
 62
  152
 10
99.479623388162793
 20
24.236035860241941
 11
99.070605825296582
 21
25.054070985974363
  0
LINE
  8
_0-1_
  6
PHANTOM1
 62
  152
 10
97.132409643045605
 20
25.330461061657957
 11
98.623392652383984
 21
25.330461061657957
  0
LINE
  8
_0-1_
  6
PHANTOM1
 62
  152
 10
112.13240964304561
 20
25.330461061657957
 11
110.64142758738154
 21
25.330461061657957
  0
LINE
  8
_0-1_
  6
PHANTOM1
 62
  152
 10
109.78519589792842
 20
24.236035860241941
 11
110.19421346079463
 21
25.054070985974363
  0
LINE
  8
_0-1_
  6
PHANTOM1
 62
  152
 10
109.73241002451533
 20
24.0124297506228
 11
109.73241002451533
 21
22.230462587536863
  0
LINE
  8
_0-1_
  6
PHANTOM1
 62
  152
 10
96.632409643045605
 20
30.02335504359155
 11
96.632409643045605
 21
25.830461061657957
  0
LINE
  8
_0-1_
  6
PHANTOM1
 62
  152
 10
97.985963415018261
 20
31.584016359509519
 11
96.778855871072949
 21
30.376908815564207
  0
LINE
  8
_0-1_
  6
PHANTOM1
 62
  152
 10
110.92530209910029
 20
31.730462587536863
 11
98.339516233316601
 21
31.730462587536863
  0
LINE
  8
_0-1_
  6
PHANTOM1
 62
  152
 10
112.48596341501826
 20
30.376908815564207
 11
111.27885587107295
 21
31.584016359509519
  0
LINE
  8
_0-1_
  6
PHANTOM1
 62
  152
 10
112.63240964304561
 20
30.02335504359155
 11
112.63240964304561
 21
25.830461061657957
  0
LINE
  8
_0-1_
  6
PHANTOM1
 62
  152
 10
116.33951718699092
 20
33.730462587536863
 11
120.53241116892451
 21
33.730462587536863
  0
LINE
  8
_0-1_
  6
PHANTOM1
 62
  152
 10
114.77885587107295
 20
35.084016359509519
 11
115.98596341501826
 21
33.876908815564207
  0
LINE
  8
_0-1_
  6
PHANTOM1
 62
  152
 10
115.98596341501826
 20
49.584016359509519
 11
114.77885587107295
 21
48.376908815564207
  0
LINE
  8
_0-1_
  6
PHANTOM1
 62
  152
 10
116.33951718699092
 20
49.730462587536863
 11
120.53241116892451
 21
49.730462587536863
  0
LINE
  8
_0-1_
  6
PHANTOM1
 62
  152
 10
112.63240964304561
 20
53.437569177807859
 11
112.63240964304561
 21
57.630462682904295
  0
LINE
  8
_0-1_
  6
PHANTOM1
 62
  152
 10
111.27885587107295
 20
51.876908815564207
 11
112.48596341501826
 21
53.084016359509519
  0
LINE
  8
_0-1_
  6
PHANTOM1
 62
  152
 10
98.339516233316601
 20
51.730462587536863
 11
110.92530209910029
 21
51.730462587536863
  0
LINE
  8
_0-1_
  6
PHANTOM1
 62
  152
 10
96.778855871072949
 20
53.084016359509519
 11
97.985963415018261
 21
51.876908815564207
  0
LINE
  8
_0-1_
  6
PHANTOM1
 62
  152
 10
96.632409643045605
 20
53.437569177807859
 11
96.632409643045605
 21
57.630462682904295
  0
LINE
  8
_0-1_
  6
PHANTOM1
 62
  152
 10
92.925303052774609
 20
33.730462587536863
 11
88.732409547678174
 21
33.730462587536863
  0
LINE
  8
_0-1_
  6
PHANTOM1
 62
  152
 10
94.485963415018261
 20
35.084016359509519
 11
93.278855871072949
 21
33.876908815564207
  0
LINE
  8
_0-1_
  6
PHANTOM1
 62
  152
 10
93.278855871072949
 20
49.584016359509519
 11
94.485963415018261
 21
48.376908815564207
  0
LINE
  8
_0-1_
  6
PHANTOM1
 62
  152
 10
92.925303052774609
 20
49.730462587536863
 11
88.732409547678174
 21
49.730462587536863
  0
ARC
  8
_0-1_
  6
PHANTOM1
 62
  152
 10
98.623392652383984
 20
58.630462682904295
 40
0.5
 50
270
 51
333.4349365234375
  0
ARC
  8
_0-1_
  6
PHANTOM1
 62
  152
 10
110.64142758738154
 20
58.630462682904295
 40
0.5
 50
206.56504821777344
 51
270
  0
ARC
  8
_0-1_
  6
PHANTOM1
 62
  152
 10
110.64142758738154
 20
24.830461061657957
 40
0.5
 50
90
 51
153.43493652343753
  0
ARC
  8
_0-1_
  6
PHANTOM1
 62
  152
 10
98.623392652383984
 20
24.830461061657957
 40
0.5
 50
26.56504821777343
 51
90
  0
ARC
  8
_0-1_
  6
PHANTOM1
 62
  152
 10
121.53241116892451
 20
47.739479578198484
 40
0.5
 50
180
 51
243.43493652343753
  0
ARC
  8
_0-1_
  6
PHANTOM1
 62
  152
 10
121.53241116892451
 20
35.721444643200925
 40
0.5
 50
116.56504821777345
 51
180.00000000000003
  0
ARC
  8
_0-1_
  6
PHANTOM1
 62
  152
 10
87.732409547678174
 20
35.721444643200925
 40
0.5
 50
0
 51
63.434936523437493
  0
ARC
  8
_0-1_
  6
PHANTOM1
 62
  152
 10
87.732409547678174
 20
47.739479578198484
 40
0.5
 50
296.56504821777344
 51
0
  0
ARC
  8
_0-1_
  6
PHANTOM1
 62
  152
 10
86.132409643045605
 20
23.230462587536863
 40
1.5
 50
180
 51
270
  0
ARC
  8
_0-1_
  6
PHANTOM1
 62
  152
 10
86.132409643045605
 20
60.230462587536863
 40
1.5
 50
90
 51
180
  0
ARC
  8
_0-1_
  6
PHANTOM1
 62
  152
 10
123.13240964304561
 20
60.230462587536863
 40
1.5
 50
0
 51
90
  0
ARC
  8
_0-1_
  6
PHANTOM1
 62
  152
 10
123.13240964304561
 20
23.230462587536863
 40
1.5
 50
270
 51
0
  0
ARC
  8
_0-1_
  6
PHANTOM1
 62
  152
 10
85.132409643045605
 20
36.130462206067136
 40
0.5
 50
90
 51
180
  0
ARC
  8
_0-1_
  6
PHANTOM1
 62
  152
 10
85.132409643045605
 20
47.330462969006589
 40
0.5
 50
180
 51
270
  0
ARC
  8
_0-1_
  6
PHANTOM1
 62
  152
 10
99.032409261575879
 20
61.230462587536863
 40
0.5
 50
0
 51
90
  0
ARC
  8
_0-1_
  6
PHANTOM1
 62
  152
 10
110.23241002451533
 20
61.230462587536863
 40
0.5
 50
90
 51
180
  0
ARC
  8
_0-1_
  6
PHANTOM1
 62
  152
 10
124.13240964304561
 20
47.330462969006589
 40
0.5
 50
270
 51
0
  0
ARC
  8
_0-1_
  6
PHANTOM1
 62
  152
 10
124.13240964304561
 20
36.130462206067136
 40
0.5
 50
0
 51
90
  0
ARC
  8
_0-1_
  6
PHANTOM1
 62
  152
 10
110.23241002451533
 20
22.230462587536863
 40
0.5
 50
180
 51
270
  0
ARC
  8
_0-1_
  6
PHANTOM1
 62
  152
 10
99.032409261575879
 20
22.230462587536863
 40
0.5
 50
270
 51
359.99998474121094
  0
ARC
  8
_0-1_
  6
PHANTOM1
 62
  152
 10
86.914375614038647
 20
36.130462206067136
 40
0.5
 50
63.434936523437521
 51
90.000000000000028
  0
ARC
  8
_0-1_
  6
PHANTOM1
 62
  152
 10
86.914375614038647
 20
47.330462969006589
 40
0.5
 50
270
 51
296.56504821777344
  0
ARC
  8
_0-1_
  6
PHANTOM1
 62
  152
 10
88.732409547678174
 20
49.230462587536863
 40
0.5
 50
90
 51
180
  0
ARC
  8
_0-1_
  6
PHANTOM1
 62
  152
 10
88.732409547678174
 20
34.230462587536863
 40
0.5
 50
180
 51
270
  0
ARC
  8
_0-1_
  6
PHANTOM1
 62
  152
 10
99.032409261575879
 20
59.448496616543821
 40
0.5
 50
333.4349365234375
 51
0.000000000000019
  0
ARC
  8
_0-1_
  6
PHANTOM1
 62
  152
 10
97.132409643045605
 20
57.630462682904295
 40
0.5
 50
90
 51
180
  0
ARC
  8
_0-1_
  6
PHANTOM1
 62
  152
 10
112.13240964304561
 20
57.630462682904295
 40
0.5
 50
0
 51
90
  0
ARC
  8
_0-1_
  6
PHANTOM1
 62
  152
 10
110.23241002451533
 20
59.448496616543821
 40
0.5
 50
180
 51
206.56504821777344
  0
ARC
  8
_0-1_
  6
PHANTOM1
 62
  152
 10
122.35044247995967
 20
36.130462206067136
 40
0.5
 50
90
 51
116.56504821777344
  0
ARC
  8
_0-1_
  6
PHANTOM1
 62
  152
 10
120.53241116892451
 20
34.230462587536863
 40
0.5
 50
270
 51
0
  0
ARC
  8
_0-1_
  6
PHANTOM1
 62
  152
 10
120.53241116892451
 20
49.230462587536863
 40
0.5
 50
0
 51
90
  0
ARC
  8
_0-1_
  6
PHANTOM1
 62
  152
 10
122.35044247995967
 20
47.330462969006589
 40
0.5
 50
243.43493652343753
 51
270
  0
ARC
  8
_0-1_
  6
PHANTOM1
 62
  152
 10
99.032409261575879
 20
24.0124297506228
 40
0.5
 50
359.99998474121088
 51
26.565048217773398
  0
ARC
  8
_0-1_
  6
PHANTOM1
 62
  152
 10
97.132409643045605
 20
25.830461061657957
 40
0.5
 50
180
 51
270
  0
ARC
  8
_0-1_
  6
PHANTOM1
 62
  152
 10
112.13240964304561
 20
25.830461061657957
 40
0.5
 50
270
 51
0
  0
ARC
  8
_0-1_
  6
PHANTOM1
 62
  152
 10
110.23241002451533
 20
24.0124297506228
 40
0.5
 50
153.43493652343753
 51
180.00000000000003
  0
ARC
  8
_0-1_
  6
PHANTOM1
 62
  152
 10
97.132409643045605
 20
30.02335504359155
 40
0.5
 50
135
 51
180
  0
ARC
  8
_0-1_
  6
PHANTOM1
 62
  152
 10
98.339516233316601
 20
31.230462587536863
 40
0.5
 50
90
 51
135
  0
ARC
  8
_0-1_
  6
PHANTOM1
 62
  152
 10
110.92530209910029
 20
31.230462587536863
 40
0.5
 50
45.00000000000005
 51
90.000000000000057
  0
ARC
  8
_0-1_
  6
PHANTOM1
 62
  152
 10
112.13240964304561
 20
30.02335504359155
 40
0.5
 50
0
 51
45
  0
ARC
  8
_0-1_
  6
PHANTOM1
 62
  152
 10
116.33951718699092
 20
34.230462587536863
 40
0.5
 50
225
 51
270
  0
ARC
  8
_0-1_
  6
PHANTOM1
 62
  152
 10
115.13240964304561
 20
35.437570131482175
 40
0.5
 50
180
 51
224.99998474121097
  0
ARC
  8
_0-1_
  6
PHANTOM1
 62
  152
 10
115.13240964304561
 20
48.023355997265867
 40
0.5
 50
135
 51
180
  0
ARC
  8
_0-1_
  6
PHANTOM1
 62
  152
 10
116.33951718699092
 20
49.230462587536863
 40
0.5
 50
90
 51
135
  0
ARC
  8
_0-1_
  6
PHANTOM1
 62
  152
 10
112.13240964304561
 20
53.437569177807859
 40
0.5
 50
315
 51
0
  0
ARC
  8
_0-1_
  6
PHANTOM1
 62
  152
 10
110.92530209910029
 20
52.230462587536863
 40
0.5
 50
270
 51
315
  0
ARC
  8
_0-1_
  6
PHANTOM1
 62
  152
 10
98.339516233316601
 20
52.230462587536863
 40
0.5
 50
225
 51
270
  0
ARC
  8
_0-1_
  6
PHANTOM1
 62
  152
 10
97.132409643045605
 20
53.437569177807859
 40
0.5
 50
180
 51
225
  0
ARC
  8
_0-1_
  6
PHANTOM1
 62
  152
 10
92.925303052774609
 20
34.230462587536863
 40
0.5
 50
270
 51
315
  0
ARC
  8
_0-1_
  6
PHANTOM1
 62
  152
 10
94.132409643045605
 20
35.437570131482175
 40
0.5
 50
315
 51
0
  0
ARC
  8
_0-1_
  6
PHANTOM1
 62
  152
 10
94.132409643045605
 20
48.023355997265867
 40
0.5
 50
0
 51
45
  0
ARC
  8
_0-1_
  6
PHANTOM1
 62
  152
 10
92.925303052774609
 20
49.230462587536863
 40
0.5
 50
45.00000000000005
 51
90.000000000000057
  0
LINE
  8
_0-1_
  6
PHANTOM1
 62
  152
 10
114.63240964304561
 20
35.437570131482175
 11
114.63240964304561
 21
48.023355997265867
  0
LINE
  8
_0-1_
  6
PHANTOM1
 62
  152
 10
94.632409643045605
 20
35.437570131482175
 11
94.632409643045605
 21
48.023355997265867
  0
LINE
  8
_0-1_
  6
PHANTOM1
 62
  152
 10
139.96511801355632
 20
36.130462206067136
 11
139.96511801355632
 21
23.230462587536863
  0
LINE
  8
_0-1_
  6
PHANTOM1
 62
  152
 10
139.96511801355632
 20
47.330462969006589
 11
139.96511801355632
 21
60.230462587536863
  0
LINE
  8
_0-1_
  6
PHANTOM1
 62
  152
 10
154.36511763208659
 20
61.730462587536863
 11
141.46511801355632
 21
61.730462587536863
  0
LINE
  8
_0-1_
  6
PHANTOM1
 62
  152
 10
165.56511839502605
 20
61.730462587536863
 11
178.46511801355632
 21
61.730462587536863
  0
LINE
  8
_0-1_
  6
PHANTOM1
 62
  152
 10
179.96511801355632
 20
47.330462969006589
 11
179.96511801355632
 21
60.230462587536863
  0
LINE
  8
_0-1_
  6
PHANTOM1
 62
  152
 10
179.96511801355632
 20
36.130462206067136
 11
179.96511801355632
 21
23.230462587536863
  0
LINE
  8
_0-1_
  6
PHANTOM1
 62
  152
 10
165.56511839502605
 20
21.730462587536863
 11
178.46511801355632
 21
21.730462587536863
  0
LINE
  8
_0-1_
  6
PHANTOM1
 62
  152
 10
154.36511763208659
 20
21.730462587536863
 11
141.46511801355632
 21
21.730462587536863
  0
LINE
  8
_0-1_
  6
PHANTOM1
 62
  152
 10
142.24708398454936
 20
36.630462206067136
 11
140.46511801355632
 21
36.630462206067136
  0
LINE
  8
_0-1_
  6
PHANTOM1
 62
  152
 10
142.47069080942424
 20
36.57767633265405
 11
143.28872474306377
 21
36.168658769787839
  0
LINE
  8
_0-1_
  6
PHANTOM1
 62
  152
 10
142.24708398454936
 20
46.830462969006589
 11
140.46511801355632
 21
46.830462969006589
  0
LINE
  8
_0-1_
  6
PHANTOM1
 62
  152
 10
142.47069080942424
 20
46.883248842419675
 11
143.28872474306377
 21
47.292266405285886
  0
LINE
  8
_0-1_
  6
PHANTOM1
 62
  152
 10
143.56511791818889
 20
49.230462587536863
 11
143.56511791818889
 21
47.739479578198484
  0
LINE
  8
_0-1_
  6
PHANTOM1
 62
  152
 10
143.56511791818889
 20
34.230462587536863
 11
143.56511791818889
 21
35.721444643200925
  0
LINE
  8
_0-1_
  6
PHANTOM1
 62
  152
 10
154.86511763208659
 20
59.448496616543821
 11
154.86511763208659
 21
61.230462587536863
  0
LINE
  8
_0-1_
  6
PHANTOM1
 62
  152
 10
154.81233175867351
 20
59.224889791668943
 11
154.4033141958073
 21
58.406855858029417
  0
LINE
  8
_0-1_
  6
PHANTOM1
 62
  152
 10
152.46511801355632
 20
58.130462682904295
 11
153.9561010228947
 21
58.130462682904295
  0
LINE
  8
_0-1_
  6
PHANTOM1
 62
  152
 10
167.46511801355632
 20
58.130462682904295
 11
165.97413595789226
 21
58.130462682904295
  0
LINE
  8
_0-1_
  6
PHANTOM1
 62
  152
 10
165.11790426843913
 20
59.224889791668943
 11
165.52692183130534
 21
58.406855858029417
  0
LINE
  8
_0-1_
  6
PHANTOM1
 62
  152
 10
165.06511839502605
 20
59.448496616543821
 11
165.06511839502605
 21
61.230462587536863
  0
LINE
  8
_0-1_
  6
PHANTOM1
 62
  152
 10
177.68315085047038
 20
36.630462206067136
 11
179.46511801355632
 21
36.630462206067136
  0
LINE
  8
_0-1_
  6
PHANTOM1
 62
  152
 10
177.45954474085124
 20
36.57767633265405
 11
176.64150961511882
 21
36.168658769787839
  0
LINE
  8
_0-1_
  6
PHANTOM1
 62
  152
 10
176.36511953943523
 20
34.230462587536863
 11
176.36511953943523
 21
35.721444643200925
  0
LINE
  8
_0-1_
  6
PHANTOM1
 62
  152
 10
176.36511953943523
 20
49.230462587536863
 11
176.36511953943523
 21
47.739479578198484
  0
LINE
  8
_0-1_
  6
PHANTOM1
 62
  152
 10
177.45954474085124
 20
46.883248842419675
 11
176.64150961511882
 21
47.292266405285886
  0
LINE
  8
_0-1_
  6
PHANTOM1
 62
  152
 10
177.68315085047038
 20
46.830462969006589
 11
179.46511801355632
 21
46.830462969006589
  0
LINE
  8
_0-1_
  6
PHANTOM1
 62
  152
 10
154.86511763208659
 20
24.0124297506228
 11
154.86511763208659
 21
22.230462587536863
  0
LINE
  8
_0-1_
  6
PHANTOM1
 62
  152
 10
154.81233175867351
 20
24.236035860241941
 11
154.4033141958073
 21
25.054070985974363
  0
LINE
  8
_0-1_
  6
PHANTOM1
 62
  152
 10
152.46511801355632
 20
25.330461061657957
 11
153.9561010228947
 21
25.330461061657957
  0
LINE
  8
_0-1_
  6
PHANTOM1
 62
  152
 10
167.46511801355632
 20
25.330461061657957
 11
165.97413595789226
 21
25.330461061657957
  0
LINE
  8
_0-1_
  6
PHANTOM1
 62
  152
 10
165.11790426843913
 20
24.236035860241941
 11
165.52692183130534
 21
25.054070985974363
  0
LINE
  8
_0-1_
  6
PHANTOM1
 62
  152
 10
165.06511839502605
 20
24.0124297506228
 11
165.06511839502605
 21
22.230462587536863
  0
LINE
  8
_0-1_
  6
PHANTOM1
 62
  152
 10
151.96511801355632
 20
30.02335504359155
 11
151.96511801355632
 21
25.830461061657957
  0
LINE
  8
_0-1_
  6
PHANTOM1
 62
  152
 10
153.31867178552898
 20
31.584016359509519
 11
152.11156424158366
 21
30.376908815564207
  0
LINE
  8
_0-1_
  6
PHANTOM1
 62
  152
 10
166.25801046961101
 20
31.730462587536863
 11
153.67222460382732
 21
31.730462587536863
  0
LINE
  8
_0-1_
  6
PHANTOM1
 62
  152
 10
167.81867178552898
 20
30.376908815564207
 11
166.61156424158366
 21
31.584016359509519
  0
LINE
  8
_0-1_
  6
PHANTOM1
 62
  152
 10
167.96511801355632
 20
30.02335504359155
 11
167.96511801355632
 21
25.830461061657957
  0
LINE
  8
_0-1_
  6
PHANTOM1
 62
  152
 10
171.67222555750163
 20
33.730462587536863
 11
175.86511953943523
 21
33.730462587536863
  0
LINE
  8
_0-1_
  6
PHANTOM1
 62
  152
 10
170.11156424158366
 20
35.084016359509519
 11
171.31867178552898
 21
33.876908815564207
  0
LINE
  8
_0-1_
  6
PHANTOM1
 62
  152
 10
171.31867178552898
 20
49.584016359509519
 11
170.11156424158366
 21
48.376908815564207
  0
LINE
  8
_0-1_
  6
PHANTOM1
 62
  152
 10
171.67222555750163
 20
49.730462587536863
 11
175.86511953943523
 21
49.730462587536863
  0
LINE
  8
_0-1_
  6
PHANTOM1
 62
  152
 10
167.96511801355632
 20
53.437569177807859
 11
167.96511801355632
 21
57.630462682904295
  0
LINE
  8
_0-1_
  6
PHANTOM1
 62
  152
 10
166.61156424158366
 20
51.876908815564207
 11
167.81867178552898
 21
53.084016359509519
  0
LINE
  8
_0-1_
  6
PHANTOM1
 62
  152
 10
153.67222460382732
 20
51.730462587536863
 11
166.25801046961101
 21
51.730462587536863
  0
LINE
  8
_0-1_
  6
PHANTOM1
 62
  152
 10
152.11156424158366
 20
53.084016359509519
 11
153.31867178552898
 21
51.876908815564207
  0
LINE
  8
_0-1_
  6
PHANTOM1
 62
  152
 10
151.96511801355632
 20
53.437569177807859
 11
151.96511801355632
 21
57.630462682904295
  0
LINE
  8
_0-1_
  6
PHANTOM1
 62
  152
 10
148.25801142328532
 20
33.730462587536863
 11
144.06511791818889
 21
33.730462587536863
  0
LINE
  8
_0-1_
  6
PHANTOM1
 62
  152
 10
149.81867178552898
 20
35.084016359509519
 11
148.61156424158366
 21
33.876908815564207
  0
LINE
  8
_0-1_
  6
PHANTOM1
 62
  152
 10
148.61156424158366
 20
49.584016359509519
 11
149.81867178552898
 21
48.376908815564207
  0
LINE
  8
_0-1_
  6
PHANTOM1
 62
  152
 10
148.25801142328532
 20
49.730462587536863
 11
144.06511791818889
 21
49.730462587536863
  0
ARC
  8
_0-1_
  6
PHANTOM1
 62
  152
 10
153.9561010228947
 20
58.630462682904295
 40
0.5
 50
270
 51
333.4349365234375
  0
ARC
  8
_0-1_
  6
PHANTOM1
 62
  152
 10
165.97413595789226
 20
58.630462682904295
 40
0.5
 50
206.56504821777344
 51
270
  0
ARC
  8
_0-1_
  6
PHANTOM1
 62
  152
 10
165.97413595789226
 20
24.830461061657957
 40
0.5
 50
90
 51
153.43493652343753
  0
ARC
  8
_0-1_
  6
PHANTOM1
 62
  152
 10
153.9561010228947
 20
24.830461061657957
 40
0.5
 50
26.56504821777343
 51
90
  0
ARC
  8
_0-1_
  6
PHANTOM1
 62
  152
 10
176.86511953943523
 20
47.739479578198484
 40
0.5
 50
180
 51
243.43493652343753
  0
ARC
  8
_0-1_
  6
PHANTOM1
 62
  152
 10
176.86511953943523
 20
35.721444643200925
 40
0.5
 50
116.56504821777345
 51
180.00000000000003
  0
ARC
  8
_0-1_
  6
PHANTOM1
 62
  152
 10
143.06511791818889
 20
35.721444643200925
 40
0.5
 50
0
 51
63.434936523437493
  0
ARC
  8
_0-1_
  6
PHANTOM1
 62
  152
 10
143.06511791818889
 20
47.739479578198484
 40
0.5
 50
296.56504821777344
 51
0
  0
ARC
  8
_0-1_
  6
PHANTOM1
 62
  152
 10
141.46511801355632
 20
23.230462587536863
 40
1.5
 50
180
 51
270
  0
ARC
  8
_0-1_
  6
PHANTOM1
 62
  152
 10
141.46511801355632
 20
60.230462587536863
 40
1.5
 50
90
 51
180
  0
ARC
  8
_0-1_
  6
PHANTOM1
 62
  152
 10
178.46511801355632
 20
60.230462587536863
 40
1.5
 50
0
 51
90
  0
ARC
  8
_0-1_
  6
PHANTOM1
 62
  152
 10
178.46511801355632
 20
23.230462587536863
 40
1.5
 50
270
 51
0
  0
ARC
  8
_0-1_
  6
PHANTOM1
 62
  152
 10
140.46511801355632
 20
36.130462206067136
 40
0.5
 50
90
 51
180
  0
ARC
  8
_0-1_
  6
PHANTOM1
 62
  152
 10
140.46511801355632
 20
47.330462969006589
 40
0.5
 50
180
 51
270
  0
ARC
  8
_0-1_
  6
PHANTOM1
 62
  152
 10
154.36511763208659
 20
61.230462587536863
 40
0.5
 50
0
 51
90
  0
ARC
  8
_0-1_
  6
PHANTOM1
 62
  152
 10
165.56511839502605
 20
61.230462587536863
 40
0.5
 50
90
 51
180
  0
ARC
  8
_0-1_
  6
PHANTOM1
 62
  152
 10
179.46511801355632
 20
47.330462969006589
 40
0.5
 50
270
 51
0
  0
ARC
  8
_0-1_
  6
PHANTOM1
 62
  152
 10
179.46511801355632
 20
36.130462206067136
 40
0.5
 50
0
 51
90
  0
ARC
  8
_0-1_
  6
PHANTOM1
 62
  152
 10
165.56511839502605
 20
22.230462587536863
 40
0.5
 50
180
 51
270
  0
ARC
  8
_0-1_
  6
PHANTOM1
 62
  152
 10
154.36511763208659
 20
22.230462587536863
 40
0.5
 50
270
 51
359.99998474121094
  0
ARC
  8
_0-1_
  6
PHANTOM1
 62
  152
 10
142.24708398454936
 20
36.130462206067136
 40
0.5
 50
63.434936523437521
 51
90.000000000000028
  0
ARC
  8
_0-1_
  6
PHANTOM1
 62
  152
 10
142.24708398454936
 20
47.330462969006589
 40
0.5
 50
270
 51
296.56504821777344
  0
ARC
  8
_0-1_
  6
PHANTOM1
 62
  152
 10
144.06511791818889
 20
49.230462587536863
 40
0.5
 50
90
 51
180
  0
ARC
  8
_0-1_
  6
PHANTOM1
 62
  152
 10
144.06511791818889
 20
34.230462587536863
 40
0.5
 50
180
 51
270
  0
ARC
  8
_0-1_
  6
PHANTOM1
 62
  152
 10
154.36511763208659
 20
59.448496616543821
 40
0.5
 50
333.4349365234375
 51
0.000000000000019
  0
ARC
  8
_0-1_
  6
PHANTOM1
 62
  152
 10
152.46511801355632
 20
57.630462682904295
 40
0.5
 50
90
 51
180
  0
ARC
  8
_0-1_
  6
PHANTOM1
 62
  152
 10
167.46511801355632
 20
57.630462682904295
 40
0.5
 50
0
 51
90
  0
ARC
  8
_0-1_
  6
PHANTOM1
 62
  152
 10
165.56511839502605
 20
59.448496616543821
 40
0.5
 50
180
 51
206.56504821777344
  0
ARC
  8
_0-1_
  6
PHANTOM1
 62
  152
 10
177.68315085047038
 20
36.130462206067136
 40
0.5
 50
90
 51
116.56504821777344
  0
ARC
  8
_0-1_
  6
PHANTOM1
 62
  152
 10
175.86511953943523
 20
34.230462587536863
 40
0.5
 50
270
 51
0
  0
ARC
  8
_0-1_
  6
PHANTOM1
 62
  152
 10
175.86511953943523
 20
49.230462587536863
 40
0.5
 50
0
 51
90
  0
ARC
  8
_0-1_
  6
PHANTOM1
 62
  152
 10
177.68315085047038
 20
47.330462969006589
 40
0.5
 50
243.43493652343753
 51
270
  0
ARC
  8
_0-1_
  6
PHANTOM1
 62
  152
 10
154.36511763208659
 20
24.0124297506228
 40
0.5
 50
359.99998474121088
 51
26.565048217773398
  0
ARC
  8
_0-1_
  6
PHANTOM1
 62
  152
 10
152.46511801355632
 20
25.830461061657957
 40
0.5
 50
180
 51
270
  0
ARC
  8
_0-1_
  6
PHANTOM1
 62
  152
 10
167.46511801355632
 20
25.830461061657957
 40
0.5
 50
270
 51
0
  0
ARC
  8
_0-1_
  6
PHANTOM1
 62
  152
 10
165.56511839502605
 20
24.0124297506228
 40
0.5
 50
153.43493652343753
 51
180.00000000000003
  0
ARC
  8
_0-1_
  6
PHANTOM1
 62
  152
 10
152.46511801355632
 20
30.02335504359155
 40
0.5
 50
135
 51
180
  0
ARC
  8
_0-1_
  6
PHANTOM1
 62
  152
 10
153.67222460382732
 20
31.230462587536863
 40
0.5
 50
90
 51
135
  0
ARC
  8
_0-1_
  6
PHANTOM1
 62
  152
 10
166.25801046961101
 20
31.230462587536863
 40
0.5
 50
45.00000000000005
 51
90.000000000000057
  0
ARC
  8
_0-1_
  6
PHANTOM1
 62
  152
 10
167.46511801355632
 20
30.02335504359155
 40
0.5
 50
0
 51
45
  0
ARC
  8
_0-1_
  6
PHANTOM1
 62
  152
 10
171.67222555750163
 20
34.230462587536863
 40
0.5
 50
225
 51
270
  0
ARC
  8
_0-1_
  6
PHANTOM1
 62
  152
 10
170.46511801355632
 20
35.437570131482175
 40
0.5
 50
180
 51
224.99998474121097
  0
ARC
  8
_0-1_
  6
PHANTOM1
 62
  152
 10
170.46511801355632
 20
48.023355997265867
 40
0.5
 50
135
 51
180
  0
ARC
  8
_0-1_
  6
PHANTOM1
 62
  152
 10
171.67222555750163
 20
49.230462587536863
 40
0.5
 50
90
 51
135
  0
ARC
  8
_0-1_
  6
PHANTOM1
 62
  152
 10
167.46511801355632
 20
53.437569177807859
 40
0.5
 50
315
 51
0
  0
ARC
  8
_0-1_
  6
PHANTOM1
 62
  152
 10
166.25801046961101
 20
52.230462587536863
 40
0.5
 50
270
 51
315
  0
ARC
  8
_0-1_
  6
PHANTOM1
 62
  152
 10
153.67222460382732
 20
52.230462587536863
 40
0.5
 50
225
 51
270
  0
ARC
  8
_0-1_
  6
PHANTOM1
 62
  152
 10
152.46511801355632
 20
53.437569177807859
 40
0.5
 50
180
 51
225
  0
ARC
  8
_0-1_
  6
PHANTOM1
 62
  152
 10
148.25801142328532
 20
34.230462587536863
 40
0.5
 50
270
 51
315
  0
ARC
  8
_0-1_
  6
PHANTOM1
 62
  152
 10
149.46511801355632
 20
35.437570131482175
 40
0.5
 50
315
 51
0
  0
ARC
  8
_0-1_
  6
PHANTOM1
 62
  152
 10
149.46511801355632
 20
48.023355997265867
 40
0.5
 50
0
 51
45
  0
ARC
  8
_0-1_
  6
PHANTOM1
 62
  152
 10
148.25801142328532
 20
49.230462587536863
 40
0.5
 50
45.00000000000005
 51
90.000000000000057
  0
LINE
  8
_0-1_
  6
PHANTOM1
 62
  152
 10
169.96511801355632
 20
35.437570131482175
 11
169.96511801355632
 21
48.023355997265867
  0
LINE
  8
_0-1_
  6
PHANTOM1
 62
  152
 10
149.96511801355632
 20
35.437570131482175
 11
149.96511801355632
 21
48.023355997265867
  0
TEXT
  8
_0-7_
 62
    7
 10
155.18225351750942
 20
77.301270057817135
 40
4.2999999999999998
 41
0.744186046511628
 50
0
  1
t5用
  0
TEXT
  8
_0-7_
 62
    7
 10
99.849545146998707
 20
77.301270057817135
 40
4.2999999999999998
 41
0.744186046511628
 50
0
  1
t3用
  0
TEXT
  8
_0-7_
 62
    7
 10
42.369822368762357
 20
77.301270057817135
 40
4.2999999999999998
 41
0.744186046511628
 50
0
  1
t1.5用
  0
TEXT
  8
_0-7_
 62
    7
 10
23.082277879731464
 20
87.41788667443376
 40
4.2999999999999998
 41
0.744186046511628
 50
0
  1
RR4S
  0
LINE
  8
_0-0_
  6
CONTINUOUS
 62
    7
 10
97.032409643045469
 20
61.730462587536863
 11
99.532409643045469
 21
61.730462587536863
  0
LINE
  8
_0-0_
  6
CONTINUOUS
 62
    7
 10
99.532409643045469
 20
61.730462587536863
 11
99.532409643045469
 21
58.798707572798605
  0
LINE
  8
_0-0_
  6
CONTINUOUS
 62
    7
 10
99.069635008048465
 20
58.128826156614991
 11
99.385963033638802
 21
58.445154182205329
  0
LINE
  8
_0-0_
  6
CONTINUOUS
 62
    7
 10
98.991989294515918
 20
57.839048408730321
 11
99.507457681055996
 21
55.915294200466406
  0
LINE
  8
_0-0_
  6
CONTINUOUS
 62
    7
 10
100.59629789391448
 20
56.488131170942211
 11
100.36030122956942
 21
57.368882712694926
  0
LINE
  8
_0-0_
  6
CONTINUOUS
 62
    7
 10
100.48971075212063
 20
57.851845625839417
 11
100.8859630336388
 21
58.248097907357703
  0
LINE
  8
_0-0_
  6
CONTINUOUS
 62
    7
 10
101.03240964304547
 20
58.60165129795098
 11
101.03240964304547
 21
61.130462587536272
  0
LINE
  8
_0-0_
  6
CONTINUOUS
 62
    7
 10
101.63240964304561
 20
61.730462587536294
 11
105.23240964304551
 21
61.730462587536294
  0
LINE
  8
_0-0_
  6
CONTINUOUS
 62
    7
 10
105.23240964304551
 20
61.730462587536294
 11
105.23240964304551
 21
63.430462587537363
  0
LINE
  8
_0-0_
  6
CONTINUOUS
 62
    7
 10
104.93240964304556
 20
63.730462587536749
 11
99.632409643045605
 21
63.730462587536749
  0
LINE
  8
_0-0_
  6
CONTINUOUS
 62
    7
 10
99.632409643045605
 20
64.130462587537295
 11
99.632409643045605
 21
70.330462587536374
  0
LINE
  8
_0-0_
  6
CONTINUOUS
 62
    7
 10
99.632409643045605
 20
70.330462587536942
 11
98.275463283608872
 21
70.330462587536942
  0
LINE
  8
_0-0_
  6
CONTINUOUS
 62
    7
 10
97.779096392592066
 20
69.890628271296521
 11
97.032409643045469
 21
63.730462587536749
  0
LINE
  8
_0-0_
  6
CONTINUOUS
 62
    7
 10
97.032409643045469
 20
63.730462587536749
 11
97.032409643045469
 21
61.730462587536863
  0
LINE
  8
_0-0_
  6
CONTINUOUS
 62
    7
 10
112.60744870178843
 20
57.345157723401144
 11
112.33870141259496
 21
55.821016108127083
  0
LINE
  8
_0-0_
  6
CONTINUOUS
 62
    7
 10
111.15693210898036
 20
56.029393921327483
 11
111.42567939817383
 21
57.55353553660143
  0
LINE
  8
_0-0_
  6
CONTINUOUS
 62
    7
 10
105.07924645215809
 20
52.930574587578462
 11
107.46390303518461
 21
52.930574587578462
  0
LINE
  8
_0-0_
  6
CONTINUOUS
 62
    7
 10
107.46390303518461
 20
51.730574587578531
 11
105.07924645215809
 21
51.730574587578531
  0
ARC
  8
_0-0_
  6
CONTINUOUS
 62
    7
 10
99.632409643045605
 20
63.930462587537249
 40
0.2
 50
90
 51
270
  0
ARC
  8
_0-0_
  6
CONTINUOUS
 62
    7
 10
101.63240964304561
 20
61.130462587536272
 40
0.6
 50
90
 51
180
  0
ARC
  8
_0-0_
  6
CONTINUOUS
 62
    7
 10
104.93240964304556
 20
63.430462587537363
 40
0.3
 50
0
 51
90
  0
ARC
  8
_0-0_
  6
CONTINUOUS
 62
    7
 10
107.46390303518461
 20
56.680574587578462
 40
4.9499999999999993
 50
270
 51
349.99999999999903
  0
ARC
  8
_0-0_
  6
CONTINUOUS
 62
    7
 10
112.01656404998113
 20
57.449346630001287
 40
0.6000000000000113
 50
350.00000000000148
 51
169.99999999999613
  0
ARC
  8
_0-0_
  6
CONTINUOUS
 62
    7
 10
107.46390303518461
 20
56.680574587578462
 40
3.7499999999999996
 50
270
 51
349.9999999999996
  0
ARC
  8
_0-0_
  6
CONTINUOUS
 62
    7
 10
98.275463283608872
 20
69.830462587536942
 40
0.5
 50
89.999999999999943
 51
173.08877288097528
  0
ARC
  8
_0-0_
  6
CONTINUOUS
 62
    7
 10
105.07924645215809
 20
57.530574587578542
 40
5.7999999999999998
 50
194.99999999999818
 51
270
  0
ARC
  8
_0-0_
  6
CONTINUOUS
 62
    7
 10
99.281767042402464
 20
57.916694122261049
 40
0.3
 50
135.00000000000767
 51
194.99999999999926
  0
ARC
  8
_0-0_
  6
CONTINUOUS
 62
    7
 10
100.84326414271396
 20
57.498292235246197
 40
0.5
 50
135.00000000000216
 51
194.99999999999906
  0
ARC
  8
_0-0_
  6
CONTINUOUS
 62
    7
 10
105.07924645215809
 20
57.530574587578542
 40
4.5999999999999996
 50
190.73549920191618
 51
270
  0
ARC
  8
_0-0_
  6
CONTINUOUS
 62
    7
 10
99.032409643045469
 20
58.798707572798605
 40
0.5
 50
315.00000000000318
 51
0
  0
ARC
  8
_0-0_
  6
CONTINUOUS
 62
    7
 10
100.53240964304547
 20
58.60165129795098
 40
0.5
 50
315.00000000000301
 51
0
  0
LINE
  8
_0-0_
  6
CONTINUOUS
 62
    7
 10
47.452686864809266
 20
63.730462587536863
 11
42.152686864809311
 21
63.730462587536863
  0
LINE
  8
_0-0_
  6
CONTINUOUS
 62
    7
 10
42.152686864809311
 20
64.130462587537409
 11
42.152686864809311
 21
70.330462587536317
  0
LINE
  8
_0-0_
  6
CONTINUOUS
 62
    7
 10
42.152686864809311
 20
70.330462587536999
 11
40.795740505372578
 21
70.330462587536999
  0
LINE
  8
_0-0_
  6
CONTINUOUS
 62
    7
 10
42.052686864809175
 20
61.730462587536863
 11
42.052686864809175
 21
58.798707572798662
  0
LINE
  8
_0-0_
  6
CONTINUOUS
 62
    7
 10
41.589912229812171
 20
58.128826156614991
 11
41.906240255402508
 21
58.445154182205329
  0
LINE
  8
_0-0_
  6
CONTINUOUS
 62
    7
 10
41.512266516279624
 20
57.839048408730264
 11
42.027734902819702
 21
55.915294200466406
  0
LINE
  8
_0-0_
  6
CONTINUOUS
 62
    7
 10
43.116575115678188
 20
56.488131170942211
 11
42.880578451333122
 21
57.368882712694926
  0
LINE
  8
_0-0_
  6
CONTINUOUS
 62
    7
 10
43.009987973884336
 20
57.851845625839474
 11
43.406240255402508
 21
58.248097907357646
  0
LINE
  8
_0-0_
  6
CONTINUOUS
 62
    7
 10
43.552686864809175
 20
58.60165129795098
 11
43.552686864809175
 21
61.130462587536272
  0
LINE
  8
_0-0_
  6
CONTINUOUS
 62
    7
 10
44.152686864809311
 20
61.730462587536294
 11
47.75268686480922
 21
61.730462587536294
  0
LINE
  8
_0-0_
  6
CONTINUOUS
 62
    7
 10
47.75268686480922
 20
61.730462587536294
 11
47.75268686480922
 21
63.430462587537363
  0
LINE
  8
_0-0_
  6
CONTINUOUS
 62
    7
 10
53.945956619937533
 20
57.55353553660143
 11
53.677209330744063
 21
56.029393921327483
  0
LINE
  8
_0-0_
  6
CONTINUOUS
 62
    7
 10
54.858978634358664
 20
55.821016108127083
 11
55.127725923552134
 21
57.345157723401144
  0
LINE
  8
_0-0_
  6
CONTINUOUS
 62
    7
 10
49.984180256948321
 20
51.730574587578531
 11
47.599523673921794
 21
51.730574587578531
  0
LINE
  8
_0-0_
  6
CONTINUOUS
 62
    7
 10
47.599523673921794
 20
52.930574587578462
 11
49.984180256948321
 21
52.930574587578462
  0
ARC
  8
_0-0_
  6
CONTINUOUS
 62
    7
 10
42.152686864809311
 20
63.930462587537363
 40
0.2
 50
90
 51
270
  0
ARC
  8
_0-0_
  6
CONTINUOUS
 62
    7
 10
44.152686864809311
 20
61.130462587536272
 40
0.6
 50
90
 51
180
  0
ARC
  8
_0-0_
  6
CONTINUOUS
 62
    7
 10
47.452686864809266
 20
63.430462587537363
 40
0.3
 50
0
 51
90
  0
ARC
  8
_0-0_
  6
CONTINUOUS
 62
    7
 10
49.984180256948321
 20
56.680574587578462
 40
4.9499999999999993
 50
270
 51
349.99999999999903
  0
ARC
  8
_0-0_
  6
CONTINUOUS
 62
    7
 10
54.536841271744834
 20
57.449346630001287
 40
0.6000000000000113
 50
350.00000000000148
 51
169.99999999999613
  0
ARC
  8
_0-0_
  6
CONTINUOUS
 62
    7
 10
49.984180256948321
 20
56.680574587578462
 40
3.7499999999999996
 50
270
 51
349.9999999999996
  0
ARC
  8
_0-0_
  6
CONTINUOUS
 62
    7
 10
47.599523673921794
 20
57.530574587578599
 40
5.7999999999999998
 50
194.99999999999818
 51
270
  0
ARC
  8
_0-0_
  6
CONTINUOUS
 62
    7
 10
41.80204426416617
 20
57.916694122260992
 40
0.3
 50
135.00000000000767
 51
194.99999999999926
  0
ARC
  8
_0-0_
  6
CONTINUOUS
 62
    7
 10
43.363541364477669
 20
57.49829223524614
 40
0.5
 50
135.00000000000216
 51
194.99999999999906
  0
ARC
  8
_0-0_
  6
CONTINUOUS
 62
    7
 10
47.599523673921794
 20
57.530574587578599
 40
4.5999999999999996
 50
190.73549920191618
 51
270
  0
ARC
  8
_0-0_
  6
CONTINUOUS
 62
    7
 10
41.552686864809175
 20
58.798707572798662
 40
0.5
 50
315.00000000000318
 51
0
  0
ARC
  8
_0-0_
  6
CONTINUOUS
 62
    7
 10
43.052686864809175
 20
58.60165129795098
 40
0.5
 50
315.00000000000301
 51
0
  0
LINE
  8
_0-0_
  6
CONTINUOUS
 62
    7
 10
154.86511801355618
 20
61.730462587536863
 11
152.36511801355618
 21
61.730462587536863
  0
LINE
  8
_0-0_
  6
CONTINUOUS
 62
    7
 10
152.36511801355618
 20
61.730462587536863
 11
152.36511801355618
 21
63.730462587536749
  0
LINE
  8
_0-0_
  6
CONTINUOUS
 62
    7
 10
152.36511801355618
 20
63.730462587536749
 11
153.11180476310278
 21
69.890628271296464
  0
LINE
  8
_0-0_
  6
CONTINUOUS
 62
    7
 10
153.60817165411959
 20
70.330462587536886
 11
154.96511801355632
 21
70.330462587536886
  0
LINE
  8
_0-0_
  6
CONTINUOUS
 62
    7
 10
154.96511801355632
 20
70.330462587536317
 11
154.96511801355632
 21
64.130462587537295
  0
LINE
  8
_0-0_
  6
CONTINUOUS
 62
    7
 10
154.96511801355632
 20
63.730462587536749
 11
160.26511801355628
 21
63.730462587536749
  0
LINE
  8
_0-0_
  6
CONTINUOUS
 62
    7
 10
160.56511801355623
 20
63.430462587537363
 11
160.56511801355623
 21
61.730462587536294
  0
LINE
  8
_0-0_
  6
CONTINUOUS
 62
    7
 10
160.56511801355623
 20
61.730462587536294
 11
156.96511801355632
 21
61.730462587536294
  0
LINE
  8
_0-0_
  6
CONTINUOUS
 62
    7
 10
156.36511801355618
 20
61.130462587536272
 11
156.36511801355618
 21
58.60165129795098
  0
LINE
  8
_0-0_
  6
CONTINUOUS
 62
    7
 10
156.21867140414952
 20
58.248097907357703
 11
155.82241912263135
 21
57.851845625839417
  0
LINE
  8
_0-0_
  6
CONTINUOUS
 62
    7
 10
155.69300960008013
 20
57.368882712694926
 11
155.9290062644252
 21
56.488131170942211
  0
LINE
  8
_0-0_
  6
CONTINUOUS
 62
    7
 10
154.84016605156671
 20
55.915294200466406
 11
154.32469766502663
 21
57.839048408730321
  0
LINE
  8
_0-0_
  6
CONTINUOUS
 62
    7
 10
154.40234337855918
 20
58.128826156614991
 11
154.71867140414952
 21
58.445154182205329
  0
LINE
  8
_0-0_
  6
CONTINUOUS
 62
    7
 10
154.86511801355618
 20
61.730462587536863
 11
154.86511801355618
 21
58.798707572798605
  0
LINE
  8
_0-0_
  6
CONTINUOUS
 62
    7
 10
167.94015707229914
 20
57.345157723401144
 11
167.67140978310567
 21
55.821016108127083
  0
LINE
  8
_0-0_
  6
CONTINUOUS
 62
    7
 10
166.48964047949107
 20
56.029393921327483
 11
166.75838776868454
 21
57.55353553660143
  0
LINE
  8
_0-0_
  6
CONTINUOUS
 62
    7
 10
162.79661140569533
 20
51.730574587578531
 11
160.4119548226688
 21
51.730574587578531
  0
LINE
  8
_0-0_
  6
CONTINUOUS
 62
    7
 10
160.4119548226688
 20
52.930574587578462
 11
162.79661140569533
 21
52.930574587578462
  0
ARC
  8
_0-0_
  6
CONTINUOUS
 62
    7
 10
154.96511801355632
 20
63.930462587537249
 40
0.2
 50
90
 51
270
  0
ARC
  8
_0-0_
  6
CONTINUOUS
 62
    7
 10
156.96511801355632
 20
61.130462587536272
 40
0.6
 50
90
 51
180
  0
ARC
  8
_0-0_
  6
CONTINUOUS
 62
    7
 10
160.26511801355628
 20
63.430462587537363
 40
0.3
 50
0
 51
90
  0
ARC
  8
_0-0_
  6
CONTINUOUS
 62
    7
 10
162.79661140569533
 20
56.680574587578462
 40
4.9499999999999993
 50
270
 51
349.99999999999903
  0
ARC
  8
_0-0_
  6
CONTINUOUS
 62
    7
 10
167.34927242049184
 20
57.449346630001287
 40
0.6000000000000113
 50
350.00000000000148
 51
169.99999999999613
  0
ARC
  8
_0-0_
  6
CONTINUOUS
 62
    7
 10
162.79661140569533
 20
56.680574587578462
 40
3.7499999999999996
 50
270
 51
349.9999999999996
  0
ARC
  8
_0-0_
  6
CONTINUOUS
 62
    7
 10
153.60817165411959
 20
69.830462587536886
 40
0.5
 50
89.999999999999943
 51
173.08877288097528
  0
ARC
  8
_0-0_
  6
CONTINUOUS
 62
    7
 10
160.4119548226688
 20
57.530574587578542
 40
5.7999999999999998
 50
194.99999999999818
 51
270
  0
ARC
  8
_0-0_
  6
CONTINUOUS
 62
    7
 10
154.61447541291318
 20
57.916694122261049
 40
0.3
 50
135.00000000000767
 51
194.99999999999926
  0
ARC
  8
_0-0_
  6
CONTINUOUS
 62
    7
 10
156.17597251322468
 20
57.498292235246197
 40
0.5
 50
135.00000000000216
 51
194.99999999999906
  0
ARC
  8
_0-0_
  6
CONTINUOUS
 62
    7
 10
160.4119548226688
 20
57.530574587578542
 40
4.5999999999999996
 50
190.73549920191618
 51
270
  0
ARC
  8
_0-0_
  6
CONTINUOUS
 62
    7
 10
154.36511801355618
 20
58.798707572798605
 40
0.5
 50
315.00000000000318
 51
0
  0
ARC
  8
_0-0_
  6
CONTINUOUS
 62
    7
 10
155.86511801355618
 20
58.60165129795098
 40
0.5
 50
315.00000000000301
 51
0
  0
LINE
  8
_0-0_
  6
CONTINUOUS
 62
    7
 10
203.54124011780328
 20
61.730462587536863
 11
201.04124011780328
 21
61.730462587536863
  0
LINE
  8
_0-0_
  6
CONTINUOUS
 62
    7
 10
201.04124011780328
 20
61.730462587536863
 11
201.04124011780328
 21
63.730462587536749
  0
LINE
  8
_0-0_
  6
CONTINUOUS
 62
    7
 10
201.04124011780328
 20
63.730462587536749
 11
201.78792686734988
 21
69.890628271296464
  0
LINE
  8
_0-0_
  6
CONTINUOUS
 62
    7
 10
202.28429375836669
 20
70.330462587536886
 11
203.64124011780342
 21
70.330462587536886
  0
LINE
  8
_0-0_
  6
CONTINUOUS
 62
    7
 10
203.64124011780342
 20
70.330462587536317
 11
203.64124011780342
 21
64.130462587537295
  0
LINE
  8
_0-0_
  6
CONTINUOUS
 62
    7
 10
203.64124011780342
 20
63.730462587536749
 11
208.94124011780337
 21
63.730462587536749
  0
LINE
  8
_0-0_
  6
CONTINUOUS
 62
    7
 10
209.24124011780333
 20
63.430462587537363
 11
209.24124011780333
 21
61.730462587536294
  0
LINE
  8
_0-0_
  6
CONTINUOUS
 62
    7
 10
209.24124011780333
 20
61.730462587536294
 11
205.64124011780342
 21
61.730462587536294
  0
LINE
  8
_0-0_
  6
CONTINUOUS
 62
    7
 10
205.04124011780328
 20
61.130462587536272
 11
205.04124011780328
 21
58.60165129795098
  0
LINE
  8
_0-0_
  6
CONTINUOUS
 62
    7
 10
204.89479350839662
 20
58.248097907357703
 11
204.49854122687844
 21
57.851845625839417
  0
LINE
  8
_0-0_
  6
CONTINUOUS
 62
    7
 10
204.36913170432723
 20
57.368882712694926
 11
204.6051283686723
 21
56.488131170942211
  0
LINE
  8
_0-0_
  6
CONTINUOUS
 62
    7
 10
203.51628815581381
 20
55.915294200466406
 11
203.00081976927373
 21
57.839048408730321
  0
LINE
  8
_0-0_
  6
CONTINUOUS
 62
    7
 10
203.07846548280628
 20
58.128826156614991
 11
203.39479350839662
 21
58.445154182205329
  0
LINE
  8
_0-0_
  6
CONTINUOUS
 62
    7
 10
203.54124011780328
 20
61.730462587536863
 11
203.54124011780328
 21
58.798707572798605
  0
LINE
  8
_0-0_
  6
CONTINUOUS
 62
    7
 10
216.61627917654624
 20
57.345157723401144
 11
216.34753188735277
 21
55.821016108127083
  0
LINE
  8
_0-0_
  6
CONTINUOUS
 62
    7
 10
215.16576258373817
 20
56.029393921327483
 11
215.43450987293164
 21
57.55353553660143
  0
LINE
  8
_0-0_
  6
CONTINUOUS
 62
    7
 10
211.47273350994243
 20
51.730574587578531
 11
209.0880769269159
 21
51.730574587578531
  0
LINE
  8
_0-0_
  6
CONTINUOUS
 62
    7
 10
209.0880769269159
 20
52.930574587578462
 11
211.47273350994243
 21
52.930574587578462
  0
ARC
  8
_0-0_
  6
CONTINUOUS
 62
    7
 10
203.64124011780342
 20
63.930462587537249
 40
0.2
 50
90
 51
270
  0
ARC
  8
_0-0_
  6
CONTINUOUS
 62
    7
 10
205.64124011780342
 20
61.130462587536272
 40
0.6
 50
90
 51
180
  0
ARC
  8
_0-0_
  6
CONTINUOUS
 62
    7
 10
208.94124011780337
 20
63.430462587537363
 40
0.3
 50
0
 51
90
  0
ARC
  8
_0-0_
  6
CONTINUOUS
 62
    7
 10
211.47273350994243
 20
56.680574587578462
 40
4.9499999999999993
 50
270
 51
349.99999999999903
  0
ARC
  8
_0-0_
  6
CONTINUOUS
 62
    7
 10
216.02539452473894
 20
57.449346630001287
 40
0.6000000000000113
 50
350.00000000000148
 51
169.99999999999613
  0
ARC
  8
_0-0_
  6
CONTINUOUS
 62
    7
 10
211.47273350994243
 20
56.680574587578462
 40
3.7499999999999996
 50
270
 51
349.9999999999996
  0
ARC
  8
_0-0_
  6
CONTINUOUS
 62
    7
 10
202.28429375836669
 20
69.830462587536886
 40
0.5
 50
89.999999999999943
 51
173.08877288097528
  0
ARC
  8
_0-0_
  6
CONTINUOUS
 62
    7
 10
209.0880769269159
 20
57.530574587578542
 40
5.7999999999999998
 50
194.99999999999818
 51
270
  0
ARC
  8
_0-0_
  6
CONTINUOUS
 62
    7
 10
203.29059751716028
 20
57.916694122261049
 40
0.3
 50
135.00000000000767
 51
194.99999999999926
  0
ARC
  8
_0-0_
  6
CONTINUOUS
 62
    7
 10
204.85209461747178
 20
57.498292235246197
 40
0.5
 50
135.00000000000216
 51
194.99999999999906
  0
ARC
  8
_0-0_
  6
CONTINUOUS
 62
    7
 10
209.0880769269159
 20
57.530574587578542
 40
4.5999999999999996
 50
190.73549920191618
 51
270
  0
ARC
  8
_0-0_
  6
CONTINUOUS
 62
    7
 10
203.04124011780328
 20
58.798707572798605
 40
0.5
 50
315.00000000000318
 51
0
  0
ARC
  8
_0-0_
  6
CONTINUOUS
 62
    7
 10
204.54124011780328
 20
58.60165129795098
 40
0.5
 50
315.00000000000301
 51
0
  0
LINE
  8
_0-2_
  6
CONTINUOUS
 62
  204
 10
246.54747358157573
 20
61.730462587536977
 11
245.98243019161708
 21
61.730462587536977
  0
LINE
  8
_0-2_
  6
CONTINUOUS
 62
  204
 10
245.98243019161708
 20
61.730462587536977
 11
245.30687001702353
 21
61.904042529982348
  0
LINE
  8
_0-2_
  6
CONTINUOUS
 62
  204
 10
245.30687001702353
 20
61.904042529982348
 11
244.58566388468734
 21
62.173980193801867
  0
LINE
  8
_0-2_
  6
CONTINUOUS
 62
  204
 10
244.58566388468734
 20
62.173980193801867
 11
243.84665378591097
 21
62.473125120612849
  0
LINE
  8
_0-2_
  6
CONTINUOUS
 62
  204
 10
246.84323918073636
 20
61.950438183947313
 11
246.8167645685059
 21
62.002377601139983
  0
LINE
  8
_0-2_
  6
CONTINUOUS
 62
  204
 10
246.8167645685059
 20
62.002377601139983
 11
246.62552075341313
 21
62.86590095773056
  0
LINE
  8
_0-2_
  6
CONTINUOUS
 62
  204
 10
246.62552075341313
 20
62.86590095773056
 11
246.59763532468736
 21
63.077469989049291
  0
LINE
  8
_0-2_
  6
CONTINUOUS
 62
  204
 10
246.00544133608531
 20
64.090372430263074
 11
245.35779176072577
 21
64.571102744737232
  0
LINE
  8
_0-2_
  6
CONTINUOUS
 62
  204
 10
245.35779176072577
 20
64.571102744737232
 11
244.21125375922287
 21
65.549985068758701
  0
LINE
  8
_0-2_
  6
CONTINUOUS
 62
  204
 10
242.84036602364034
 20
66.448784709123515
 11
240.51499479645389
 21
69.712140465984362
  0
LINE
  8
_0-2_
  6
CONTINUOUS
 62
  204
 10
239.32480633353811
 20
70.33046258754564
 11
236.41285819669559
 21
70.33046258754564
  0
LINE
  8
_0-2_
  6
CONTINUOUS
 62
  204
 10
236.11285819669541
 20
70.33046258754564
 11
234.91285819669559
 21
70.33046258754564
  0
LINE
  8
_0-2_
  6
CONTINUOUS
 62
  204
 10
234.81285819669569
 20
69.747619875071109
 11
234.81285819669569
 21
68.913305300020397
  0
LINE
  8
_0-2_
  6
CONTINUOUS
 62
  204
 10
234.81285819669569
 20
68.347619875071018
 11
234.81285819669569
 21
67.513305300020306
  0
LINE
  8
_0-2_
  6
CONTINUOUS
 62
  204
 10
234.81285819669569
 20
66.947619875071155
 11
234.81285819669569
 21
66.113305300020443
  0
LINE
  8
_0-2_
  6
CONTINUOUS
 62
  204
 10
234.81285819669569
 20
65.539041231320994
 11
234.81285819669569
 21
64.713305300020352
  0
LINE
  8
_0-2_
  6
CONTINUOUS
 62
  204
 10
234.91285819669559
 20
64.130462587545594
 11
236.11285819669541
 21
64.130462587545594
  0
LINE
  8
_0-2_
  6
CONTINUOUS
 62
  204
 10
236.11285819669541
 20
64.130462587545594
 11
236.11285819669541
 21
70.33046258754564
  0
LINE
  8
_0-2_
  6
CONTINUOUS
 62
  204
 10
236.31285819669569
 20
69.747619875071109
 11
236.31285819669569
 21
68.913305300020397
  0
LINE
  8
_0-2_
  6
CONTINUOUS
 62
  204
 10
236.31285819669569
 20
68.347619875071018
 11
236.31285819669569
 21
67.513305300020306
  0
LINE
  8
_0-2_
  6
CONTINUOUS
 62
  204
 10
236.31285819669569
 20
66.947619875071155
 11
236.31285819669569
 21
66.113305300020443
  0
LINE
  8
_0-2_
  6
CONTINUOUS
 62
  204
 10
236.31285819669569
 20
65.539041231320994
 11
236.31285819669569
 21
64.713305300020352
  0
LINE
  8
_0-2_
  6
CONTINUOUS
 62
  204
 10
236.41285819669559
 20
64.130462587545594
 11
238.99555050441535
 21
64.130462587545594
  0
LINE
  8
_0-2_
  6
CONTINUOUS
 62
  204
 10
238.11285819669541
 20
64.130462587545594
 11
238.11285819669541
 21
70.33046258754564
  0
LINE
  8
_0-2_
  6
CONTINUOUS
 62
  204
 10
238.11285819669541
 20
69.330462587439456
 11
239.01370674442245
 21
65.902528222798651
  0
LINE
  8
_0-2_
  6
CONTINUOUS
 62
  204
 10
238.88678586653162
 20
65.419565309654104
 11
238.11285819669541
 21
64.630462587492843
  0
LINE
  8
_0-2_
  6
CONTINUOUS
 62
  204
 10
238.90528798408212
 20
61.730462587536294
 11
238.11285819669541
 21
61.730462587536294
  0
LINE
  8
_0-2_
  6
CONTINUOUS
 62
  204
 10
238.11285819669291
 20
61.73046258754664
 11
238.81931478060795
 21
59.042234019892817
  0
LINE
  8
_0-2_
  6
CONTINUOUS
 62
  204
 10
239.9030158331729
 20
60.304719128722809
 11
239.44420348085958
 21
61.371437727636135
  0
LINE
  8
_0-2_
  6
CONTINUOUS
 62
  204
 10
240.46670435061554
 20
60.425206699204978
 11
240.46670435061554
 21
62.630462587545594
  0
LINE
  8
_0-2_
  6
CONTINUOUS
 62
  204
 10
243.18600025000927
 20
61.952991372937504
 11
243.21285819685562
 21
61.430462587536454
  0
LINE
  8
_0-2_
  6
CONTINUOUS
 62
  204
 10
243.21285819685562
 20
61.430462587536795
 11
243.21285819685562
 21
60.798411779978551
  0
LINE
  8
_0-2_
  6
CONTINUOUS
 62
  204
 10
240.24034027509691
 20
57.930462587546572
 11
241.17436763096015
 21
57.930462587546572
  0
LINE
  8
_0-2_
  6
CONTINUOUS
 62
  204
 10
242.0237387000829
 20
58.430462587546572
 11
243.0814600351784
 21
60.298411779978437
  0
LINE
  8
_0-2_
  6
CONTINUOUS
 62
  204
 10
239.91766226063854
 20
60.275206699204979
 11
239.91766226063854
 21
60.275206699204979
  0
LINE
  8
_0-2_
  6
CONTINUOUS
 62
  204
 10
239.91766226063854
 20
60.275206699204979
 11
239.94707973560449
 21
60.232370416299013
  0
LINE
  8
_0-2_
  6
CONTINUOUS
 62
  204
 10
239.94707973560449
 20
60.232370416299013
 11
239.98334568851939
 21
60.195393366269286
  0
LINE
  8
_0-2_
  6
CONTINUOUS
 62
  204
 10
239.98334568851939
 20
60.195393366269286
 11
240.02535819675541
 21
60.165399078069647
  0
LINE
  8
_0-2_
  6
CONTINUOUS
 62
  204
 10
240.02535819675541
 20
60.165399078069647
 11
240.07184073150913
 21
60.143298912969207
  0
LINE
  8
_0-2_
  6
CONTINUOUS
 62
  204
 10
240.07184073150913
 20
60.143298912969207
 11
240.12138094448335
 21
60.129764373301313
  0
LINE
  8
_0-2_
  6
CONTINUOUS
 62
  204
 10
240.12138094448335
 20
60.129764373301313
 11
240.17247358137541
 21
60.125206699204981
  0
LINE
  8
_0-2_
  6
CONTINUOUS
 62
  204
 10
240.17247358137541
 20
60.125206699204981
 11
240.22356621826748
 21
60.129764373301313
  0
LINE
  8
_0-2_
  6
CONTINUOUS
 62
  204
 10
240.22356621826748
 20
60.129764373301313
 11
240.2731064312417
 21
60.143298912969207
  0
LINE
  8
_0-2_
  6
CONTINUOUS
 62
  204
 10
240.2731064312417
 20
60.143298912969207
 11
240.31958896599542
 21
60.165399078069647
  0
LINE
  8
_0-2_
  6
CONTINUOUS
 62
  204
 10
240.31958896599542
 20
60.165399078069647
 11
240.36160147423143
 21
60.195393366269286
  0
LINE
  8
_0-2_
  6
CONTINUOUS
 62
  204
 10
240.36160147423143
 20
60.195393366269286
 11
240.39786742714634
 21
60.232370416299013
  0
LINE
  8
_0-2_
  6
CONTINUOUS
 62
  204
 10
240.39786742714634
 20
60.232370416299013
 11
240.42728490211229
 21
60.275206699204979
  0
LINE
  8
_0-2_
  6
CONTINUOUS
 62
  204
 10
240.42728490211229
 20
60.275206699204979
 11
240.4489600640384
 21
60.322600656207278
  0
LINE
  8
_0-2_
  6
CONTINUOUS
 62
  204
 10
240.4489600640384
 20
60.322600656207278
 11
240.46223432409772
 21
60.373112245904899
  0
LINE
  8
_0-2_
  6
CONTINUOUS
 62
  204
 10
240.46223432409772
 20
60.373112245904899
 11
240.4667043506154
 21
60.425206699204978
  0
LINE
  8
_0-2_
  6
CONTINUOUS
 62
  204
 10
240.4667043506154
 20
60.425206699204978
 11
240.4667043506154
 21
60.425206699204978
  0
LINE
  8
_0-2_
  6
CONTINUOUS
 62
  204
 10
238.81931478060784
 20
59.042234019892796
 11
238.81931478060784
 21
59.042234019892796
  0
LINE
  8
_0-2_
  6
CONTINUOUS
 62
  204
 10
238.81931478060784
 20
59.042234019892796
 11
238.90702208835694
 21
58.796535194935529
  0
LINE
  8
_0-2_
  6
CONTINUOUS
 62
  204
 10
238.90702208835694
 20
58.796535194935529
 11
239.03524159451857
 21
58.570097933020008
  0
LINE
  8
_0-2_
  6
CONTINUOUS
 62
  204
 10
239.03524159451857
 20
58.570097933020008
 11
239.2000774142802
 21
58.369802415766756
  0
LINE
  8
_0-2_
  6
CONTINUOUS
 62
  204
 10
239.2000774142802
 20
58.369802415766756
 11
239.39652109466937
 21
58.201734521113089
  0
LINE
  8
_0-2_
  6
CONTINUOUS
 62
  204
 10
239.39652109466937
 20
58.201734521113089
 11
239.61860379386272
 21
58.0710009069916
  0
LINE
  8
_0-2_
  6
CONTINUOUS
 62
  204
 10
239.61860379386272
 20
58.0710009069916
 11
239.85957764142452
 21
57.981573848112973
  0
LINE
  8
_0-2_
  6
CONTINUOUS
 62
  204
 10
239.85957764142452
 20
57.981573848112973
 11
240.11212076893526
 21
57.936170540408952
  0
LINE
  8
_0-2_
  6
CONTINUOUS
 62
  204
 10
240.11212076893526
 20
57.936170540408952
 11
240.24034027509691
 21
57.930462587546572
  0
LINE
  8
_0-2_
  6
CONTINUOUS
 62
  204
 10
243.08146003517831
 20
60.298411779978522
 11
243.08146003517831
 21
60.298411779978522
  0
LINE
  8
_0-2_
  6
CONTINUOUS
 62
  204
 10
243.08146003517831
 20
60.298411779978522
 11
243.15371057493203
 21
60.456391636652853
  0
LINE
  8
_0-2_
  6
CONTINUOUS
 62
  204
 10
243.15371057493203
 20
60.456391636652853
 11
243.19795810846307
 21
60.624763602311589
  0
LINE
  8
_0-2_
  6
CONTINUOUS
 62
  204
 10
243.19795810846307
 20
60.624763602311589
 11
243.21285819685542
 21
60.798411779978522
  0
LINE
  8
_0-2_
  6
CONTINUOUS
 62
  204
 10
243.21285819685542
 20
60.798411779978522
 11
243.21285819685542
 21
60.798411779978551
  0
LINE
  8
_0-2_
  6
CONTINUOUS
 62
  204
 10
241.17436763096015
 20
57.930462587546572
 11
241.17436763096015
 21
57.930462587546572
  0
LINE
  8
_0-2_
  6
CONTINUOUS
 62
  204
 10
241.17436763096015
 20
57.930462587546572
 11
241.34467642060036
 21
57.945654834534366
  0
LINE
  8
_0-2_
  6
CONTINUOUS
 62
  204
 10
241.34467642060036
 20
57.945654834534366
 11
241.50981046384777
 21
57.990769966760666
  0
LINE
  8
_0-2_
  6
CONTINUOUS
 62
  204
 10
241.50981046384777
 20
57.990769966760666
 11
241.66475224636014
 21
58.064437183762131
  0
LINE
  8
_0-2_
  6
CONTINUOUS
 62
  204
 10
241.66475224636014
 20
58.064437183762131
 11
241.80479394048018
 21
58.164418144427593
  0
LINE
  8
_0-2_
  6
CONTINUOUS
 62
  204
 10
241.80479394048018
 20
58.164418144427593
 11
241.92568045019655
 21
58.287674977860036
  0
LINE
  8
_0-2_
  6
CONTINUOUS
 62
  204
 10
241.92568045019655
 20
58.287674977860036
 11
242.02373870008304
 21
58.430462587546543
  0
LINE
  8
_0-2_
  6
CONTINUOUS
 62
  204
 10
240.46670435061534
 20
62.630462587545594
 11
240.46670435061534
 21
62.630462587545594
  0
LINE
  8
_0-2_
  6
CONTINUOUS
 62
  204
 10
240.46670435061534
 20
62.630462587545594
 11
240.44435421802683
 21
62.890934854045987
  0
LINE
  8
_0-2_
  6
CONTINUOUS
 62
  204
 10
240.44435421802683
 20
62.890934854045987
 11
240.37798291773029
 21
63.143492802534098
  0
LINE
  8
_0-2_
  6
CONTINUOUS
 62
  204
 10
240.37798291773029
 20
63.143492802534098
 11
240.26960710809973
 21
63.380462587545594
  0
LINE
  8
_0-2_
  6
CONTINUOUS
 62
  204
 10
240.26960710809973
 20
63.380462587545594
 11
240.12251973326997
 21
63.594644002075405
  0
LINE
  8
_0-2_
  6
CONTINUOUS
 62
  204
 10
240.12251973326997
 20
63.594644002075405
 11
239.9411899686954
 21
63.779529252224059
  0
LINE
  8
_0-2_
  6
CONTINUOUS
 62
  204
 10
239.9411899686954
 20
63.779529252224059
 11
239.73112742751536
 21
63.929500693222252
  0
LINE
  8
_0-2_
  6
CONTINUOUS
 62
  204
 10
239.73112742751536
 20
63.929500693222252
 11
239.49871475374678
 21
64.040001518724452
  0
LINE
  8
_0-2_
  6
CONTINUOUS
 62
  204
 10
239.49871475374678
 20
64.040001518724452
 11
239.25101368887567
 21
64.107674217063902
  0
LINE
  8
_0-2_
  6
CONTINUOUS
 62
  204
 10
239.25101368887567
 20
64.107674217063902
 11
238.99555050441535
 21
64.130462587545594
  0
LINE
  8
_0-2_
  6
CONTINUOUS
 62
  204
 10
238.88678586653162
 20
65.419565309653933
 11
238.88678586653162
 21
65.419565309653933
  0
LINE
  8
_0-2_
  6
CONTINUOUS
 62
  204
 10
238.88678586653162
 20
65.419565309653933
 11
238.9417311397855
 21
65.486330482071679
  0
LINE
  8
_0-2_
  6
CONTINUOUS
 62
  204
 10
238.9417311397855
 20
65.486330482071679
 11
238.98447097517271
 21
65.561809569376862
  0
LINE
  8
_0-2_
  6
CONTINUOUS
 62
  204
 10
238.98447097517271
 20
65.561809569376862
 11
239.01370674442242
 21
65.643709177695939
  0
LINE
  8
_0-2_
  6
CONTINUOUS
 62
  204
 10
239.01370674442242
 20
65.643709177695939
 11
239.02855013347997
 21
65.729540828873382
  0
LINE
  8
_0-2_
  6
CONTINUOUS
 62
  204
 10
239.02855013347997
 20
65.729540828873382
 11
239.02855013347997
 21
65.816696571621037
  0
LINE
  8
_0-2_
  6
CONTINUOUS
 62
  204
 10
239.02855013347997
 20
65.816696571621037
 11
239.01370674442242
 21
65.902528222798466
  0
LINE
  8
_0-2_
  6
CONTINUOUS
 62
  204
 10
239.01370674442242
 20
65.902528222798466
 11
239.01370674442242
 21
65.902528222798466
  0
LINE
  8
_0-2_
  6
CONTINUOUS
 62
  204
 10
243.84665378591313
 20
62.473125120612018
 11
243.84665378591313
 21
62.473125120612018
  0
LINE
  8
_0-2_
  6
CONTINUOUS
 62
  204
 10
243.84665378591313
 20
62.473125120612018
 11
243.76434391531043
 21
62.496639393464555
  0
LINE
  8
_0-2_
  6
CONTINUOUS
 62
  204
 10
243.76434391531043
 20
62.496639393464555
 11
243.67927982924266
 21
62.505223218543762
  0
LINE
  8
_0-2_
  6
CONTINUOUS
 62
  204
 10
243.67927982924266
 20
62.505223218543762
 11
243.59404615692051
 21
62.498615780668246
  0
LINE
  8
_0-2_
  6
CONTINUOUS
 62
  204
 10
243.59404615692051
 20
62.498615780668246
 11
243.51123268034715
 21
62.477017843494309
  0
LINE
  8
_0-2_
  6
CONTINUOUS
 62
  204
 10
243.51123268034715
 20
62.477017843494309
 11
243.43335564510264
 21
62.441085649413914
  0
LINE
  8
_0-2_
  6
CONTINUOUS
 62
  204
 10
243.43335564510264
 20
62.441085649413914
 11
243.36278130549519
 21
62.391910979961615
  0
LINE
  8
_0-2_
  6
CONTINUOUS
 62
  204
 10
243.36278130549519
 20
62.391910979961615
 11
243.30165402712143
 21
62.330987982585143
  0
LINE
  8
_0-2_
  6
CONTINUOUS
 62
  204
 10
243.30165402712143
 20
62.330987982585143
 11
243.25183113140284
 21
62.260167771731254
  0
LINE
  8
_0-2_
  6
CONTINUOUS
 62
  204
 10
243.25183113140284
 20
62.260167771731254
 11
243.21482646181425
 21
62.181602183669995
  0
LINE
  8
_0-2_
  6
CONTINUOUS
 62
  204
 10
243.21482646181425
 20
62.181602183669995
 11
243.19176438651587
 21
62.097678394038496
  0
LINE
  8
_0-2_
  6
CONTINUOUS
 62
  204
 10
243.19176438651587
 20
62.097678394038496
 11
243.18334563499559
 21
62.010946384717222
  0
LINE
  8
_0-2_
  6
CONTINUOUS
 62
  204
 10
243.18334563499559
 20
62.010946384717222
 11
243.18600025000924
 21
61.952991372937461
  0
LINE
  8
_0-2_
  6
CONTINUOUS
 62
  204
 10
240.51499479645398
 20
69.712140465984348
 11
240.51499479645398
 21
69.712140465984348
  0
LINE
  8
_0-2_
  6
CONTINUOUS
 62
  204
 10
240.51499479645398
 20
69.712140465984348
 11
240.34675566703388
 21
69.909472288053621
  0
LINE
  8
_0-2_
  6
CONTINUOUS
 62
  204
 10
240.34675566703388
 20
69.909472288053621
 11
240.14746512424685
 21
70.074018946378203
  0
LINE
  8
_0-2_
  6
CONTINUOUS
 62
  204
 10
240.14746512424685
 20
70.074018946378203
 11
239.92317851038953
 21
70.200780774009544
  0
LINE
  8
_0-2_
  6
CONTINUOUS
 62
  204
 10
239.92317851038953
 20
70.200780774009544
 11
239.68071066072955
 21
70.285906176959628
  0
LINE
  8
_0-2_
  6
CONTINUOUS
 62
  204
 10
239.68071066072955
 20
70.285906176959628
 11
239.42742883818411
 21
70.326808662935377
  0
LINE
  8
_0-2_
  6
CONTINUOUS
 62
  204
 10
239.42742883818411
 20
70.326808662935377
 11
239.32480633353811
 21
70.33046258754564
  0
LINE
  8
_0-2_
  6
CONTINUOUS
 62
  204
 10
239.44420348085956
 20
61.371437727636049
 11
239.44420348085956
 21
61.371437727636049
  0
LINE
  8
_0-2_
  6
CONTINUOUS
 62
  204
 10
239.44420348085956
 20
61.371437727636049
 11
239.39497595908321
 21
61.463193402893751
  0
LINE
  8
_0-2_
  6
CONTINUOUS
 62
  204
 10
239.39497595908321
 20
61.463193402893751
 11
239.33086951598051
 21
61.54483922069673
  0
LINE
  8
_0-2_
  6
CONTINUOUS
 62
  204
 10
239.33086951598051
 20
61.54483922069673
 11
239.25383199338572
 21
61.613894414185822
  0
LINE
  8
_0-2_
  6
CONTINUOUS
 62
  204
 10
239.25383199338572
 20
61.613894414185822
 11
239.16620413744002
 21
61.668260776250477
  0
LINE
  8
_0-2_
  6
CONTINUOUS
 62
  204
 10
239.16620413744002
 20
61.668260776250477
 11
239.07064847620447
 21
61.706286412490066
  0
LINE
  8
_0-2_
  6
CONTINUOUS
 62
  204
 10
239.07064847620447
 20
61.706286412490066
 11
238.97006842009225
 21
61.726815933189343
  0
LINE
  8
_0-2_
  6
CONTINUOUS
 62
  204
 10
238.97006842009225
 20
61.726815933189343
 11
238.90528798408212
 21
61.730462587536273
  0
LINE
  8
_0-2_
  6
CONTINUOUS
 62
  204
 10
246.74362742773545
 20
61.717069462268867
 11
246.74362742773545
 21
61.717069462268867
  0
LINE
  8
_0-2_
  6
CONTINUOUS
 62
  204
 10
246.74362742773545
 20
61.717069462268867
 11
246.54747358157573
 21
61.730462587536977
  0
LINE
  8
_0-2_
  6
CONTINUOUS
 62
  204
 10
246.7436274277355
 20
61.717069462268825
 11
246.7436274277355
 21
61.717069462268825
  0
LINE
  8
_0-2_
  6
CONTINUOUS
 62
  204
 10
246.7436274277355
 20
61.717069462268825
 11
246.76856846619134
 21
61.723149118982924
  0
LINE
  8
_0-2_
  6
CONTINUOUS
 62
  204
 10
246.76856846619134
 20
61.723149118982924
 11
246.79209517525439
 21
61.733552298827014
  0
LINE
  8
_0-2_
  6
CONTINUOUS
 62
  204
 10
246.79209517525439
 20
61.733552298827014
 11
246.81349270777491
 21
61.747962906445785
  0
LINE
  8
_0-2_
  6
CONTINUOUS
 62
  204
 10
246.81349270777491
 20
61.747962906445785
 11
246.83211091055492
 21
61.765943082818858
  0
LINE
  8
_0-2_
  6
CONTINUOUS
 62
  204
 10
246.83211091055492
 20
61.765943082818858
 11
246.84738407892422
 21
61.786946509385558
  0
LINE
  8
_0-2_
  6
CONTINUOUS
 62
  204
 10
246.84738407892422
 20
61.786946509385558
 11
246.85884814539048
 21
61.810335007657898
  0
LINE
  8
_0-2_
  6
CONTINUOUS
 62
  204
 10
246.85884814539048
 20
61.810335007657898
 11
246.86615478009526
 21
61.835397929951014
  0
LINE
  8
_0-2_
  6
CONTINUOUS
 62
  204
 10
246.86615478009526
 20
61.835397929951014
 11
246.86908197464032
 21
61.861373752053495
  0
LINE
  8
_0-2_
  6
CONTINUOUS
 62
  204
 10
246.86908197464032
 20
61.861373752053495
 11
246.86754078770073
 21
61.88747321175515
  0
LINE
  8
_0-2_
  6
CONTINUOUS
 62
  204
 10
246.86754078770073
 20
61.88747321175515
 11
246.86157804746171
 21
61.912903290179905
  0
LINE
  8
_0-2_
  6
CONTINUOUS
 62
  204
 10
246.86157804746171
 20
61.912903290179905
 11
246.85137492876817
 21
61.936891307263075
  0
LINE
  8
_0-2_
  6
CONTINUOUS
 62
  204
 10
246.85137492876817
 20
61.936891307263075
 11
246.84323918073642
 21
61.950438183947242
  0
LINE
  8
_0-2_
  6
CONTINUOUS
 62
  204
 10
242.84036602364029
 20
66.448784709123501
 11
242.84036602364029
 21
66.448784709123501
  0
LINE
  8
_0-2_
  6
CONTINUOUS
 62
  204
 10
242.84036602364029
 20
66.448784709123501
 11
243.00860515306036
 21
66.251452887054242
  0
LINE
  8
_0-2_
  6
CONTINUOUS
 62
  204
 10
243.00860515306036
 20
66.251452887054242
 11
243.20789569584741
 21
66.08690622872966
  0
LINE
  8
_0-2_
  6
CONTINUOUS
 62
  204
 10
243.20789569584741
 20
66.08690622872966
 11
243.4321823097047
 21
65.960144401098319
  0
LINE
  8
_0-2_
  6
CONTINUOUS
 62
  204
 10
243.4321823097047
 20
65.960144401098319
 11
243.59403633353037
 21
65.898014973123964
  0
LINE
  8
_0-2_
  6
CONTINUOUS
 62
  204
 10
243.59403633353037
 20
65.898014973123978
 11
243.59403633353037
 21
65.898014973123978
  0
LINE
  8
_0-2_
  6
CONTINUOUS
 62
  204
 10
243.59403633353037
 20
65.898014973123978
 11
243.83489667929399
 21
65.808270593903075
  0
LINE
  8
_0-2_
  6
CONTINUOUS
 62
  204
 10
243.83489667929399
 20
65.808270593903075
 11
244.05681355859303
 21
65.67724457608719
  0
LINE
  8
_0-2_
  6
CONTINUOUS
 62
  204
 10
244.05681355859303
 20
65.67724457608719
 11
244.21125375922287
 21
65.549985068758645
  0
LINE
  8
_0-2_
  6
CONTINUOUS
 62
  204
 10
246.59763532468739
 20
63.077469989049305
 11
246.59763532468739
 21
63.077469989049305
  0
LINE
  8
_0-2_
  6
CONTINUOUS
 62
  204
 10
246.59763532468739
 20
63.077469989049305
 11
246.54145917094996
 21
63.332586398959315
  0
LINE
  8
_0-2_
  6
CONTINUOUS
 62
  204
 10
246.54145917094996
 20
63.332586398959315
 11
246.44268789222579
 21
63.573880858346087
  0
LINE
  8
_0-2_
  6
CONTINUOUS
 62
  204
 10
246.44268789222579
 20
63.573880858346087
 11
246.30432260383824
 21
63.794021757162028
  0
LINE
  8
_0-2_
  6
CONTINUOUS
 62
  204
 10
246.30432260383824
 20
63.794021757162028
 11
246.13056746505879
 21
63.986320225593296
  0
LINE
  8
_0-2_
  6
CONTINUOUS
 62
  204
 10
246.13056746505879
 20
63.986320225593296
 11
246.00544133608534
 21
64.09037243026296
  0
ARC
  8
_0-2_
  6
CONTINUOUS
 62
  204
 10
234.91285819669559
 20
70.030462587545685
 40
0.3
 50
89.999999999999972
 51
250.52877936552841
  0
ARC
  8
_0-2_
  6
CONTINUOUS
 62
  204
 10
234.91285819669559
 20
68.630462587545594
 40
0.3
 50
109.47122063447162
 51
250.52877936552841
  0
ARC
  8
_0-2_
  6
CONTINUOUS
 62
  204
 10
234.91285819669559
 20
67.23046258754573
 40
0.3
 50
109.47122063447165
 51
250.52877936551633
  0
ARC
  8
_0-2_
  6
CONTINUOUS
 62
  204
 10
234.91285819669559
 20
65.83046258754564
 40
0.3
 50
109.47122063448369
 51
250.52877936552841
  0
ARC
  8
_0-2_
  6
CONTINUOUS
 62
  204
 10
234.91285819669559
 20
64.430462587545776
 40
0.3
 50
109.47122063447162
 51
270
  0
ARC
  8
_0-2_
  6
CONTINUOUS
 62
  204
 10
236.41285819669559
 20
68.630462587545594
 40
0.3
 50
109.47122063447162
 51
250.52877936552841
  0
ARC
  8
_0-2_
  6
CONTINUOUS
 62
  204
 10
236.41285819669559
 20
67.23046258754573
 40
0.3
 50
109.47122063447165
 51
250.52877936551633
  0
ARC
  8
_0-2_
  6
CONTINUOUS
 62
  204
 10
236.41285819669559
 20
65.83046258754564
 40
0.3
 50
109.47122063448369
 51
250.52877936552841
  0
ARC
  8
_0-2_
  6
CONTINUOUS
 62
  204
 10
236.41285819669559
 20
64.430462587545776
 40
0.3
 50
109.47122063447162
 51
270
  0
ARC
  8
_0-2_
  6
CONTINUOUS
 62
  204
 10
236.41285819669559
 20
70.030462587545685
 40
0.3
 50
90
 51
250.52877936552841
  0
TEXT
  8
_0-7_
 62
    7
 10
200.38511818122322
 20
87.41788667443376
 40
4.2999999999999998
 41
0.744186046511628
 50
0
  1
RR4B
  0
TEXT
  8
_0-7_
 62
    7
 10
234.39599836944711
 20
87.41788667443376
 40
4.2999999999999998
 41
0.744186046511628
 50
0
  1
RROP
  0
LINE
  8
_0-0_
  6
CONTINUOUS
 62
    7
 10
40.299373614355773
 20
69.890628271296578
 11
39.552686864809175
 21
63.730462587536863
  0
LINE
  8
_0-0_
  6
CONTINUOUS
 62
    7
 10
39.552686864809175
 20
63.730462587536863
 11
39.552686864809175
 21
61.730462587536863
  0
LINE
  8
_0-0_
  6
CONTINUOUS
 62
    7
 10
39.552686864809175
 20
61.730462587536863
 11
42.052686864809175
 21
61.730462587536863
  0
ARC
  8
_0-0_
  6
CONTINUOUS
 62
    7
 10
40.795740505372578
 20
69.830462587536999
 40
0.5
 50
89.999999999999943
 51
173.08877288097528
  0
ENDSEC
  0
EOF
