  0
SECTION
  2
HEADER
  9
$ACADVER
  1
AC1009
  9
$INSBASE
 10
0
 20
0
 30
0
  9
$EXTMIN
 10
0
 20
0
  9
$EXTMAX
 10
1189
 20
841
  9
$LIMMIN
 10
0
 20
0
  9
$LIMMAX
 10
1189
 20
841
  9
$LTSCALE
 40
1
  0
ENDSEC
  0
SECTION
  2
TABLES
  0
TABLE
  2
LTYPE
 70
     9
  0
LTYPE
  2
CONTINUOUS
 70
    64
  3
実線
 72
    65
 73
     0
 40
0.0
  0
LTYPE
  2
DASHED1
 70
    64
  3
--  --  --  --  --  --  --  --  
 72
    65
 73
     2
 40
2.5
 49
1.25
 49
-1.25
  0
LTYPE
  2
DASHED2
 70
    64
  3
----    ----    ----    ----    
 72
    65
 73
     2
 40
5.0
 49
2.5
 49
-2.5
  0
LTYPE
  2
DASHED3
 70
    64
  3
------  ------  ------  ------  
 72
    65
 73
     2
 40
5.0
 49
3.75
 49
-1.25
  0
LTYPE
  2
CENTER1
 70
    64
  3
----- - ----- - ----- - ----- - 
 72
    65
 73
     4
 40
10.0
 49
6.25
 49
-1.25
 49
1.25
 49
-1.25
  0
LTYPE
  2
CENTER2
 70
    64
  3
----------  --  ----------  --  
 72
    65
 73
     4
 40
20.0
 49
12.5
 49
-2.5
 49
2.5
 49
-2.5
  0
LTYPE
  2
PHANTOM1
 70
    64
  3
--- - - --- - - --- - - --- - - 
 72
    65
 73
     6
 40
10.0
 49
3.25
 49
-1.25
 49
1.25
 49
-1.25
 49
1.25
 49
-1.25
  0
LTYPE
  2
PHANTOM2
 70
    64
  3
--------  -  -  --------  -  -  
 72
    65
 73
     6
 40
20.0
 49
10.0
 49
-2.5
 49
1.25
 49
-2.5
 49
1.25
 49
-2.5
  0
LTYPE
  2
DOT
 70
    64
  3
-   -   -   -   -   -   -   -   
 72
    65
 73
     2
 40
2.5
 49
0.625
 49
-1.875
  0
LTYPE
  2
DUMMY
 70
    64
  3
ダミー
 72
    65
 73
     0
 40
0.0
  0
LTYPE
  2
RAND1
 70
    64
  3
ランダム線1
 72
    65
 73
     4
 40
10.0
 49
1.0
 49
-2.0
 49
3.0
 49
-4.0
  0
LTYPE
  2
RAND2
 70
    64
  3
ランダム線2
 72
    65
 73
     4
 40
14.0
 49
2.0
 49
-3.0
 49
4.0
 49
-5.0
  0
LTYPE
  2
RAND3
 70
    64
  3
ランダム線3
 72
    65
 73
     4
 40
18.0
 49
3.0
 49
-4.0
 49
5.0
 49
-6.0
  0
LTYPE
  2
RAND4
 70
    64
  3
ランダム線4
 72
    65
 73
     4
 40
22.0
 49
4.0
 49
-5.0
 49
6.0
 49
-7.0
  0
LTYPE
  2
RAND5
 70
    64
  3
ランダム線5
 72
    65
 73
     4
 40
26.0
 49
5.0
 49
-6.0
 49
7.0
 49
-8.0
  0
LTYPE
  2
LONG1
 70
    64
  3
----------  --  ----------  --  
 72
    65
 73
     4
 40
40.0
 49
32.5
 49
-2.5
 49
2.5
 49
-2.5
  0
LTYPE
  2
LONG2
 70
    64
  3
--------  -  -  --------  -  -  
 72
    65
 73
     6
 40
40.0
 49
30.0
 49
-2.5
 49
1.25
 49
-2.5
 49
1.25
 49
-2.5
  0
LTYPE
  2
LONG3
 70
    64
  3
+++++++++++++++..+++++++++++++++
 72
    65
 73
     2
 40
40.0
 49
37.5
 49
-2.5
  0
LTYPE
  2
LONG4
 70
    64
  3
+++++++++++++++..+++++++++++++++
 72
    65
 73
     2
 40
80.0
 49
75.0
 49
-5.0
  0
LTYPE
  2
LONG5
 70
    64
  3
----------  --  ----------  --  
 72
    65
 73
     4
 40
60.0
 49
37.5
 49
-7.5
 49
7.5
 49
-7.5
  0
LTYPE
  2
dashed
 70
   64
  3
-------   -------------   ------
 72
   65
 73
    2
 40
7.5
 49
6
 49
-1.5
  0
LTYPE
  2
dashed_spaced
 70
   64
  3
----        --------        ----
 72
   65
 73
    2
 40
12
 49
6
 49
-6
  0
LTYPE
  2
long_dashed_dotted
 70
   64
  3
------------- --- --------------
 72
   65
 73
    4
 40
15.25
 49
12
 49
-1.5
 49
0.25
 49
-1.5
  0
LTYPE
  2
long_dashed_double-dotted
 70
   64
  3
----------- --- --- ------------
 72
   65
 73
    6
 40
17
 49
12
 49
-1.5
 49
0.25
 49
-1.5
 49
0.25
 49
-1.5
  0
LTYPE
  2
long_dashed_triplicate-dotted
 70
   64
  3
--------- --- --- --- ----------
 72
   65
 73
    8
 40
18.75
 49
12
 49
-1.5
 49
0.25
 49
-1.5
 49
0.25
 49
-1.5
 49
0.25
 49
-1.5
  0
LTYPE
  2
dotted
 70
   64
  3
   -       -       -       -    
 72
   65
 73
    2
 40
1.75
 49
0.25
 49
-1.5
  0
LTYPE
  2
chain
 70
   64
  3
-------------- -- --------------
 72
   65
 73
    4
 40
18.5
 49
12
 49
-1.5
 49
3.5
 49
-1.5
  0
LTYPE
  2
chain_double_dash
 70
   64
  3
------------ -- -- -------------
 72
   65
 73
    6
 40
23.5
 49
12
 49
-1.5
 49
3.5
 49
-1.5
 49
3.5
 49
-1.5
  0
LTYPE
  2
dashed_dotted
 70
   64
  3
-----------     -     ----------
 72
   65
 73
    4
 40
9.25
 49
6
 49
-1.5
 49
0.25
 49
-1.5
  0
LTYPE
  2
double-dashed_dotted
 70
   64
  3
------   -----------   -   -----
 72
   65
 73
    6
 40
16.75
 49
6
 49
-1.5
 49
6
 49
-1.5
 49
0.25
 49
-1.5
  0
LTYPE
  2
dashed_double-dotted
 70
   64
  3
---------    -    -    ---------
 72
   65
 73
    6
 40
11
 49
6
 49
-1.5
 49
0.25
 49
-1.5
 49
0.25
 49
-1.5
  0
LTYPE
  2
double-dashed_double-dotted
 70
   64
  3
-----   ---------   -   -   ----
 72
   65
 73
    8
 40
18.5
 49
6
 49
-1.5
 49
6
 49
-1.5
 49
0.25
 49
-1.5
 49
0.25
 49
-1.5
  0
LTYPE
  2
dashed_triplicate-dotted
 70
   64
  3
-------    -    -    -    ------
 72
   65
 73
    8
 40
12.75
 49
6
 49
-1.5
 49
0.25
 49
-1.5
 49
0.25
 49
-1.5
 49
0.25
 49
-1.5
  0
LTYPE
  2
double-dashed_triplicate-dotted
 70
   64
  3
-----  ---------  -  -  -  -----
 72
   65
 73
   10
 40
20.25
 49
6
 49
-1.5
 49
6
 49
-1.5
 49
0.25
 49
-1.5
 49
0.25
 49
-1.5
 49
0.25
 49
-1.5
  0
LTYPE
  2
undefined
 70
   64
  3
--------------------------------
 72
   65
 73
    0
 40
0
  0
ENDTAB
  0
TABLE
  2
STYLE
  5
3
100
AcDbSymbolTable
 70
     1
  0
STYLE
  5
10
100
AcDbSymbolTableRecord
100
AcDbTextStyleTableRecord
  2
STANDARD
 70
     0
 40
0.0
 41
1.0
 50
0.0
 71
     0
 42
0.2
  3
txt
  4
bigfont.shx
  0
STYLE
  5
26
100
AcDbSymbolTableRecord
100
AcDbTextStyleTableRecord
  2
TATEGAKI
 70
    68
 40
0.0
 41
1.0
 50
0.0
 71
     0
 42
1.0
  3
txt
  4
bigfont.shx
  0
ENDTAB
  0
TABLE
  2
LAYER
 70
    6
  0
LAYER
  2
_0-0_
 70
   64
 62
    7
  6
CONTINUOUS
  0
LAYER
  2
_0-1_
 70
   64
 62
    7
  6
CONTINUOUS
  0
LAYER
  2
_0-2_
 70
   64
 62
    7
  6
CONTINUOUS
  0
LAYER
  2
_0-3_
 70
   64
 62
    7
  6
CONTINUOUS
  0
LAYER
  2
_0-7_
 70
   64
 62
    7
  6
CONTINUOUS
  0
LAYER
  2
ADD_LINE
 70
   64
 62
    7
  6
CONTINUOUS
  0
ENDTAB
  0
ENDSEC
  0
SECTION
  2
BLOCKS
  0
ENDSEC
  0
SECTION
  2
ENTITIES
  0
TEXT
  8
_0-7_
 62
    7
 10
155.18225351750942
 20
77.301270057817135
 40
4.2999999999999998
 41
0.744186046511628
 50
0
  1
t5用
  0
TEXT
  8
_0-7_
 62
    7
 10
99.849545146998707
 20
77.301270057817135
 40
4.2999999999999998
 41
0.744186046511628
 50
0
  1
t3用
  0
TEXT
  8
_0-7_
 62
    7
 10
42.369822368762357
 20
77.301270057817135
 40
4.2999999999999998
 41
0.744186046511628
 50
0
  1
t1.5用
  0
LINE
  8
_0-2_
  6
CONTINUOUS
 62
    7
 10
246.54747358157573
 20
61.730462587536977
 11
245.98243019161708
 21
61.730462587536977
  0
LINE
  8
_0-2_
  6
CONTINUOUS
 62
    7
 10
245.98243019161708
 20
61.730462587536977
 11
245.30687001702353
 21
61.904042529982348
  0
LINE
  8
_0-2_
  6
CONTINUOUS
 62
    7
 10
245.30687001702353
 20
61.904042529982348
 11
244.58566388468734
 21
62.173980193801867
  0
LINE
  8
_0-2_
  6
CONTINUOUS
 62
    7
 10
244.58566388468734
 20
62.173980193801867
 11
243.84665378591097
 21
62.473125120612849
  0
LINE
  8
_0-2_
  6
CONTINUOUS
 62
    7
 10
246.84323918073636
 20
61.950438183947313
 11
246.8167645685059
 21
62.002377601139983
  0
LINE
  8
_0-2_
  6
CONTINUOUS
 62
    7
 10
246.8167645685059
 20
62.002377601139983
 11
246.62552075341313
 21
62.86590095773056
  0
LINE
  8
_0-2_
  6
CONTINUOUS
 62
    7
 10
246.62552075341313
 20
62.86590095773056
 11
246.59763532468736
 21
63.077469989049291
  0
LINE
  8
_0-2_
  6
CONTINUOUS
 62
    7
 10
246.00544133608531
 20
64.090372430263074
 11
245.35779176072577
 21
64.571102744737232
  0
LINE
  8
_0-2_
  6
CONTINUOUS
 62
    7
 10
245.35779176072577
 20
64.571102744737232
 11
244.21125375922287
 21
65.549985068758701
  0
LINE
  8
_0-2_
  6
CONTINUOUS
 62
    7
 10
242.84036602364034
 20
66.448784709123515
 11
240.51499479645389
 21
69.712140465984362
  0
LINE
  8
_0-2_
  6
CONTINUOUS
 62
    7
 10
239.32480633353811
 20
70.33046258754564
 11
236.41285819669559
 21
70.33046258754564
  0
LINE
  8
_0-2_
  6
CONTINUOUS
 62
    7
 10
236.11285819669541
 20
70.33046258754564
 11
234.91285819669559
 21
70.33046258754564
  0
LINE
  8
_0-2_
  6
CONTINUOUS
 62
    7
 10
234.81285819669569
 20
69.747619875071109
 11
234.81285819669569
 21
68.913305300020397
  0
LINE
  8
_0-2_
  6
CONTINUOUS
 62
    7
 10
234.81285819669569
 20
68.347619875071018
 11
234.81285819669569
 21
67.513305300020306
  0
LINE
  8
_0-2_
  6
CONTINUOUS
 62
    7
 10
234.81285819669569
 20
66.947619875071155
 11
234.81285819669569
 21
66.113305300020443
  0
LINE
  8
_0-2_
  6
CONTINUOUS
 62
    7
 10
234.81285819669569
 20
65.539041231320994
 11
234.81285819669569
 21
64.713305300020352
  0
LINE
  8
_0-2_
  6
CONTINUOUS
 62
    7
 10
234.91285819669559
 20
64.130462587545594
 11
236.11285819669541
 21
64.130462587545594
  0
LINE
  8
_0-2_
  6
CONTINUOUS
 62
    7
 10
236.11285819669541
 20
64.130462587545594
 11
236.11285819669541
 21
70.33046258754564
  0
LINE
  8
_0-2_
  6
CONTINUOUS
 62
    7
 10
236.31285819669569
 20
69.747619875071109
 11
236.31285819669569
 21
68.913305300020397
  0
LINE
  8
_0-2_
  6
CONTINUOUS
 62
    7
 10
236.31285819669569
 20
68.347619875071018
 11
236.31285819669569
 21
67.513305300020306
  0
LINE
  8
_0-2_
  6
CONTINUOUS
 62
    7
 10
236.31285819669569
 20
66.947619875071155
 11
236.31285819669569
 21
66.113305300020443
  0
LINE
  8
_0-2_
  6
CONTINUOUS
 62
    7
 10
236.31285819669569
 20
65.539041231320994
 11
236.31285819669569
 21
64.713305300020352
  0
LINE
  8
_0-2_
  6
CONTINUOUS
 62
    7
 10
236.41285819669559
 20
64.130462587545594
 11
238.99555050441535
 21
64.130462587545594
  0
LINE
  8
_0-2_
  6
CONTINUOUS
 62
    7
 10
238.11285819669541
 20
64.130462587545594
 11
238.11285819669541
 21
70.33046258754564
  0
LINE
  8
_0-2_
  6
CONTINUOUS
 62
    7
 10
238.11285819669541
 20
69.330462587439456
 11
239.01370674442245
 21
65.902528222798651
  0
LINE
  8
_0-2_
  6
CONTINUOUS
 62
    7
 10
238.88678586653162
 20
65.419565309654104
 11
238.11285819669541
 21
64.630462587492843
  0
LINE
  8
_0-2_
  6
CONTINUOUS
 62
    7
 10
238.90528798408212
 20
61.730462587536294
 11
238.11285819669541
 21
61.730462587536294
  0
LINE
  8
_0-2_
  6
CONTINUOUS
 62
    7
 10
238.11285819669291
 20
61.73046258754664
 11
238.81931478060795
 21
59.042234019892817
  0
LINE
  8
_0-2_
  6
CONTINUOUS
 62
    7
 10
239.9030158331729
 20
60.304719128722809
 11
239.44420348085958
 21
61.371437727636135
  0
LINE
  8
_0-2_
  6
CONTINUOUS
 62
    7
 10
240.46670435061554
 20
60.425206699204978
 11
240.46670435061554
 21
62.630462587545594
  0
LINE
  8
_0-2_
  6
CONTINUOUS
 62
    7
 10
243.18600025000927
 20
61.952991372937504
 11
243.21285819685562
 21
61.430462587536454
  0
LINE
  8
_0-2_
  6
CONTINUOUS
 62
    7
 10
243.21285819685562
 20
61.430462587536795
 11
243.21285819685562
 21
60.798411779978551
  0
LINE
  8
_0-2_
  6
CONTINUOUS
 62
    7
 10
240.24034027509691
 20
57.930462587546572
 11
241.17436763096015
 21
57.930462587546572
  0
LINE
  8
_0-2_
  6
CONTINUOUS
 62
    7
 10
242.0237387000829
 20
58.430462587546572
 11
243.0814600351784
 21
60.298411779978437
  0
LINE
  8
_0-2_
  6
CONTINUOUS
 62
    7
 10
239.91766226063851
 20
60.275206699205
 11
239.94707973560446
 21
60.232370416299034
  0
LINE
  8
_0-2_
  6
CONTINUOUS
 62
    7
 10
239.94707973560446
 20
60.232370416299034
 11
239.98334568851942
 21
60.195393366269286
  0
LINE
  8
_0-2_
  6
CONTINUOUS
 62
    7
 10
239.98334568851942
 20
60.195393366269286
 11
240.02535819675541
 21
60.16539907806964
  0
LINE
  8
_0-2_
  6
CONTINUOUS
 62
    7
 10
240.02535819675541
 20
60.16539907806964
 11
240.07184073150916
 21
60.143298912969215
  0
LINE
  8
_0-2_
  6
CONTINUOUS
 62
    7
 10
240.07184073150916
 20
60.143298912969215
 11
240.12138094448335
 21
60.129764373301327
  0
LINE
  8
_0-2_
  6
CONTINUOUS
 62
    7
 10
240.12138094448335
 20
60.129764373301327
 11
240.17247358137541
 21
60.125206699204966
  0
LINE
  8
_0-2_
  6
CONTINUOUS
 62
    7
 10
240.17247358137541
 20
60.125206699204966
 11
240.22356621826748
 21
60.129764373301327
  0
LINE
  8
_0-2_
  6
CONTINUOUS
 62
    7
 10
240.22356621826748
 20
60.129764373301327
 11
240.27310643124167
 21
60.143298912969215
  0
LINE
  8
_0-2_
  6
CONTINUOUS
 62
    7
 10
240.27310643124167
 20
60.143298912969215
 11
240.31958896599542
 21
60.16539907806964
  0
LINE
  8
_0-2_
  6
CONTINUOUS
 62
    7
 10
240.31958896599542
 20
60.16539907806964
 11
240.36160147423141
 21
60.195393366269286
  0
LINE
  8
_0-2_
  6
CONTINUOUS
 62
    7
 10
240.36160147423141
 20
60.195393366269286
 11
240.39786742714637
 21
60.232370416299034
  0
LINE
  8
_0-2_
  6
CONTINUOUS
 62
    7
 10
240.39786742714637
 20
60.232370416299034
 11
240.42728490211232
 21
60.275206699205
  0
LINE
  8
_0-2_
  6
CONTINUOUS
 62
    7
 10
240.42728490211232
 20
60.275206699205
 11
240.44896006403837
 21
60.322600656207271
  0
LINE
  8
_0-2_
  6
CONTINUOUS
 62
    7
 10
240.44896006403837
 20
60.322600656207271
 11
240.46223432409772
 21
60.373112245904906
  0
LINE
  8
_0-2_
  6
CONTINUOUS
 62
    7
 10
240.46223432409772
 20
60.373112245904906
 11
240.46670435061537
 21
60.425206699204978
  0
LINE
  8
_0-2_
  6
CONTINUOUS
 62
    7
 10
238.81931478060784
 20
59.042234019892817
 11
238.90702208835694
 21
58.796535194935529
  0
LINE
  8
_0-2_
  6
CONTINUOUS
 62
    7
 10
238.90702208835694
 20
58.796535194935529
 11
239.03524159451854
 21
58.570097933020008
  0
LINE
  8
_0-2_
  6
CONTINUOUS
 62
    7
 10
239.03524159451854
 20
58.570097933020008
 11
239.2000774142802
 21
58.369802415766742
  0
LINE
  8
_0-2_
  6
CONTINUOUS
 62
    7
 10
239.2000774142802
 20
58.369802415766742
 11
239.39652109466937
 21
58.20173452111311
  0
LINE
  8
_0-2_
  6
CONTINUOUS
 62
    7
 10
239.39652109466937
 20
58.20173452111311
 11
239.61860379386269
 21
58.071000906991571
  0
LINE
  8
_0-2_
  6
CONTINUOUS
 62
    7
 10
239.61860379386269
 20
58.071000906991571
 11
239.85957764142449
 21
57.981573848112987
  0
LINE
  8
_0-2_
  6
CONTINUOUS
 62
    7
 10
239.85957764142449
 20
57.981573848112987
 11
240.11212076893526
 21
57.936170540408966
  0
LINE
  8
_0-2_
  6
CONTINUOUS
 62
    7
 10
240.11212076893526
 20
57.936170540408966
 11
240.24034027509691
 21
57.930462587546572
  0
LINE
  8
_0-2_
  6
CONTINUOUS
 62
    7
 10
243.08146003517834
 20
60.298411779978551
 11
243.15371057493201
 21
60.456391636652825
  0
LINE
  8
_0-2_
  6
CONTINUOUS
 62
    7
 10
243.15371057493201
 20
60.456391636652825
 11
243.19795810846307
 21
60.624763602311589
  0
LINE
  8
_0-2_
  6
CONTINUOUS
 62
    7
 10
243.19795810846307
 20
60.624763602311589
 11
243.21285819685545
 21
60.798411779978551
  0
LINE
  8
_0-2_
  6
CONTINUOUS
 62
    7
 10
241.17436763096015
 20
57.930462587546572
 11
241.34467642060036
 21
57.945654834534366
  0
LINE
  8
_0-2_
  6
CONTINUOUS
 62
    7
 10
241.34467642060036
 20
57.945654834534366
 11
241.50981046384777
 21
57.990769966760695
  0
LINE
  8
_0-2_
  6
CONTINUOUS
 62
    7
 10
241.50981046384777
 20
57.990769966760695
 11
241.66475224636014
 21
58.064437183762152
  0
LINE
  8
_0-2_
  6
CONTINUOUS
 62
    7
 10
241.66475224636014
 20
58.064437183762152
 11
241.80479394048018
 21
58.1644181444276
  0
LINE
  8
_0-2_
  6
CONTINUOUS
 62
    7
 10
241.80479394048018
 20
58.1644181444276
 11
241.92568045019652
 21
58.287674977860036
  0
LINE
  8
_0-2_
  6
CONTINUOUS
 62
    7
 10
241.92568045019652
 20
58.287674977860036
 11
242.02373870008307
 21
58.430462587546572
  0
LINE
  8
_0-2_
  6
CONTINUOUS
 62
    7
 10
240.46670435061537
 20
62.630462587545594
 11
240.44435421802683
 21
62.890934854046009
  0
LINE
  8
_0-2_
  6
CONTINUOUS
 62
    7
 10
240.44435421802683
 20
62.890934854046009
 11
240.37798291773026
 21
63.14349280253407
  0
LINE
  8
_0-2_
  6
CONTINUOUS
 62
    7
 10
240.37798291773026
 20
63.14349280253407
 11
240.26960710809976
 21
63.380462587545594
  0
LINE
  8
_0-2_
  6
CONTINUOUS
 62
    7
 10
240.26960710809976
 20
63.380462587545594
 11
240.12251973327
 21
63.594644002075427
  0
LINE
  8
_0-2_
  6
CONTINUOUS
 62
    7
 10
240.12251973327
 20
63.594644002075427
 11
239.94118996869543
 21
63.779529252224052
  0
LINE
  8
_0-2_
  6
CONTINUOUS
 62
    7
 10
239.94118996869543
 20
63.779529252224052
 11
239.73112742751539
 21
63.92950069322228
  0
LINE
  8
_0-2_
  6
CONTINUOUS
 62
    7
 10
239.73112742751539
 20
63.92950069322228
 11
239.49871475374675
 21
64.040001518724466
  0
LINE
  8
_0-2_
  6
CONTINUOUS
 62
    7
 10
239.49871475374675
 20
64.040001518724466
 11
239.25101368887567
 21
64.107674217063902
  0
LINE
  8
_0-2_
  6
CONTINUOUS
 62
    7
 10
239.25101368887567
 20
64.107674217063902
 11
238.99555050441535
 21
64.130462587545594
  0
LINE
  8
_0-2_
  6
CONTINUOUS
 62
    7
 10
238.88678586653162
 20
65.419565309653933
 11
238.94173113978547
 21
65.486330482071708
  0
LINE
  8
_0-2_
  6
CONTINUOUS
 62
    7
 10
238.94173113978547
 20
65.486330482071708
 11
238.98447097517271
 21
65.561809569376862
  0
LINE
  8
_0-2_
  6
CONTINUOUS
 62
    7
 10
238.98447097517271
 20
65.561809569376862
 11
239.01370674442239
 21
65.643709177695939
  0
LINE
  8
_0-2_
  6
CONTINUOUS
 62
    7
 10
239.01370674442239
 20
65.643709177695939
 11
239.02855013347994
 21
65.729540828873382
  0
LINE
  8
_0-2_
  6
CONTINUOUS
 62
    7
 10
239.02855013347994
 20
65.729540828873382
 11
239.02855013347994
 21
65.816696571621037
  0
LINE
  8
_0-2_
  6
CONTINUOUS
 62
    7
 10
239.02855013347994
 20
65.816696571621037
 11
239.01370674442239
 21
65.90252822279848
  0
LINE
  8
_0-2_
  6
CONTINUOUS
 62
    7
 10
243.84665378591313
 20
62.473125120611996
 11
243.76434391531041
 21
62.496639393464534
  0
LINE
  8
_0-2_
  6
CONTINUOUS
 62
    7
 10
243.76434391531041
 20
62.496639393464534
 11
243.67927982924266
 21
62.505223218543733
  0
LINE
  8
_0-2_
  6
CONTINUOUS
 62
    7
 10
243.67927982924266
 20
62.505223218543733
 11
243.59404615692051
 21
62.498615780668274
  0
LINE
  8
_0-2_
  6
CONTINUOUS
 62
    7
 10
243.59404615692051
 20
62.498615780668274
 11
243.51123268034712
 21
62.477017843494309
  0
LINE
  8
_0-2_
  6
CONTINUOUS
 62
    7
 10
243.51123268034712
 20
62.477017843494309
 11
243.43335564510267
 21
62.441085649413935
  0
LINE
  8
_0-2_
  6
CONTINUOUS
 62
    7
 10
243.43335564510267
 20
62.441085649413935
 11
243.36278130549522
 21
62.391910979961608
  0
LINE
  8
_0-2_
  6
CONTINUOUS
 62
    7
 10
243.36278130549522
 20
62.391910979961608
 11
243.30165402712146
 21
62.330987982585157
  0
LINE
  8
_0-2_
  6
CONTINUOUS
 62
    7
 10
243.30165402712146
 20
62.330987982585157
 11
243.25183113140281
 21
62.260167771731233
  0
LINE
  8
_0-2_
  6
CONTINUOUS
 62
    7
 10
243.25183113140281
 20
62.260167771731233
 11
243.21482646181425
 21
62.181602183670009
  0
LINE
  8
_0-2_
  6
CONTINUOUS
 62
    7
 10
243.21482646181425
 20
62.181602183670009
 11
243.19176438651584
 21
62.097678394038496
  0
LINE
  8
_0-2_
  6
CONTINUOUS
 62
    7
 10
243.19176438651584
 20
62.097678394038496
 11
243.18334563499559
 21
62.010946384717215
  0
LINE
  8
_0-2_
  6
CONTINUOUS
 62
    7
 10
243.18334563499559
 20
62.010946384717215
 11
243.18600025000922
 21
61.952991372937447
  0
LINE
  8
_0-2_
  6
CONTINUOUS
 62
    7
 10
240.51499479645395
 20
69.712140465984362
 11
240.3467556670339
 21
69.909472288053621
  0
LINE
  8
_0-2_
  6
CONTINUOUS
 62
    7
 10
240.3467556670339
 20
69.909472288053621
 11
240.14746512424688
 21
70.074018946378203
  0
LINE
  8
_0-2_
  6
CONTINUOUS
 62
    7
 10
240.14746512424688
 20
70.074018946378203
 11
239.92317851038956
 21
70.200780774009559
  0
LINE
  8
_0-2_
  6
CONTINUOUS
 62
    7
 10
239.92317851038956
 20
70.200780774009559
 11
239.68071066072957
 21
70.285906176959656
  0
LINE
  8
_0-2_
  6
CONTINUOUS
 62
    7
 10
239.68071066072957
 20
70.285906176959656
 11
239.42742883818414
 21
70.326808662935377
  0
LINE
  8
_0-2_
  6
CONTINUOUS
 62
    7
 10
239.42742883818414
 20
70.326808662935377
 11
239.32480633353811
 21
70.33046258754564
  0
LINE
  8
_0-2_
  6
CONTINUOUS
 62
    7
 10
239.44420348085953
 20
61.371437727636021
 11
239.39497595908324
 21
61.463193402893751
  0
LINE
  8
_0-2_
  6
CONTINUOUS
 62
    7
 10
239.39497595908324
 20
61.463193402893751
 11
239.33086951598051
 21
61.544839220696758
  0
LINE
  8
_0-2_
  6
CONTINUOUS
 62
    7
 10
239.33086951598051
 20
61.544839220696758
 11
239.25383199338569
 21
61.613894414185836
  0
LINE
  8
_0-2_
  6
CONTINUOUS
 62
    7
 10
239.25383199338569
 20
61.613894414185836
 11
239.16620413743999
 21
61.668260776250463
  0
LINE
  8
_0-2_
  6
CONTINUOUS
 62
    7
 10
239.16620413743999
 20
61.668260776250463
 11
239.0706484762045
 21
61.706286412490044
  0
LINE
  8
_0-2_
  6
CONTINUOUS
 62
    7
 10
239.0706484762045
 20
61.706286412490044
 11
238.97006842009228
 21
61.726815933189357
  0
LINE
  8
_0-2_
  6
CONTINUOUS
 62
    7
 10
238.97006842009228
 20
61.726815933189357
 11
238.90528798408212
 21
61.730462587536294
  0
LINE
  8
_0-2_
  6
CONTINUOUS
 62
    7
 10
246.74362742773542
 20
61.717069462268853
 11
246.54747358157573
 21
61.730462587536977
  0
LINE
  8
_0-2_
  6
CONTINUOUS
 62
    7
 10
246.74362742773553
 20
61.717069462268796
 11
246.76856846619137
 21
61.723149118982917
  0
LINE
  8
_0-2_
  6
CONTINUOUS
 62
    7
 10
246.76856846619137
 20
61.723149118982917
 11
246.79209517525442
 21
61.733552298827021
  0
LINE
  8
_0-2_
  6
CONTINUOUS
 62
    7
 10
246.79209517525442
 20
61.733552298827021
 11
246.81349270777491
 21
61.747962906445764
  0
LINE
  8
_0-2_
  6
CONTINUOUS
 62
    7
 10
246.81349270777491
 20
61.747962906445764
 11
246.83211091055489
 21
61.765943082818865
  0
LINE
  8
_0-2_
  6
CONTINUOUS
 62
    7
 10
246.83211091055489
 20
61.765943082818865
 11
246.84738407892422
 21
61.78694650938553
  0
LINE
  8
_0-2_
  6
CONTINUOUS
 62
    7
 10
246.84738407892422
 20
61.78694650938553
 11
246.85884814539048
 21
61.810335007657898
  0
LINE
  8
_0-2_
  6
CONTINUOUS
 62
    7
 10
246.85884814539048
 20
61.810335007657898
 11
246.86615478009526
 21
61.835397929951
  0
LINE
  8
_0-2_
  6
CONTINUOUS
 62
    7
 10
246.86615478009526
 20
61.835397929951
 11
246.86908197464032
 21
61.86137375205351
  0
LINE
  8
_0-2_
  6
CONTINUOUS
 62
    7
 10
246.86908197464032
 20
61.86137375205351
 11
246.8675407877007
 21
61.88747321175515
  0
LINE
  8
_0-2_
  6
CONTINUOUS
 62
    7
 10
246.8675407877007
 20
61.88747321175515
 11
246.86157804746171
 21
61.912903290179884
  0
LINE
  8
_0-2_
  6
CONTINUOUS
 62
    7
 10
246.86157804746171
 20
61.912903290179884
 11
246.85137492876817
 21
61.936891307263068
  0
LINE
  8
_0-2_
  6
CONTINUOUS
 62
    7
 10
246.85137492876817
 20
61.936891307263068
 11
246.84323918073642
 21
61.950438183947256
  0
LINE
  8
_0-2_
  6
CONTINUOUS
 62
    7
 10
242.84036602364029
 20
66.448784709123515
 11
243.00860515306033
 21
66.251452887054256
  0
LINE
  8
_0-2_
  6
CONTINUOUS
 62
    7
 10
243.00860515306033
 20
66.251452887054256
 11
243.20789569584741
 21
66.086906228729674
  0
LINE
  8
_0-2_
  6
CONTINUOUS
 62
    7
 10
243.20789569584741
 20
66.086906228729674
 11
243.43218230970467
 21
65.960144401098319
  0
LINE
  8
_0-2_
  6
CONTINUOUS
 62
    7
 10
243.43218230970467
 20
65.960144401098319
 11
243.59403633353037
 21
65.898014973123964
  0
LINE
  8
_0-2_
  6
CONTINUOUS
 62
    7
 10
243.59403633353037
 20
65.898014973123964
 11
243.83489667929399
 21
65.808270593903103
  0
LINE
  8
_0-2_
  6
CONTINUOUS
 62
    7
 10
243.83489667929399
 20
65.808270593903103
 11
244.05681355859303
 21
65.677244576087219
  0
LINE
  8
_0-2_
  6
CONTINUOUS
 62
    7
 10
244.05681355859303
 20
65.677244576087219
 11
244.21125375922287
 21
65.549985068758645
  0
LINE
  8
_0-2_
  6
CONTINUOUS
 62
    7
 10
246.59763532468742
 20
63.077469989049291
 11
246.54145917094996
 21
63.332586398959336
  0
LINE
  8
_0-2_
  6
CONTINUOUS
 62
    7
 10
246.54145917094996
 20
63.332586398959336
 11
246.44268789222576
 21
63.573880858346115
  0
LINE
  8
_0-2_
  6
CONTINUOUS
 62
    7
 10
246.44268789222576
 20
63.573880858346115
 11
246.30432260383827
 21
63.794021757162
  0
LINE
  8
_0-2_
  6
CONTINUOUS
 62
    7
 10
246.30432260383827
 20
63.794021757162
 11
246.13056746505879
 21
63.986320225593317
  0
LINE
  8
_0-2_
  6
CONTINUOUS
 62
    7
 10
246.13056746505879
 20
63.986320225593317
 11
246.00544133608537
 21
64.09037243026296
  0
ARC
  8
_0-2_
  6
CONTINUOUS
 62
    7
 10
234.91285819669559
 20
70.030462587545685
 40
0.2999999999999999
 50
89.999999999999972
 51
250.52877936552841
  0
ARC
  8
_0-2_
  6
CONTINUOUS
 62
    7
 10
234.91285819669559
 20
68.630462587545594
 40
0.2999999999999999
 50
109.47122063447162
 51
250.52877936552841
  0
ARC
  8
_0-2_
  6
CONTINUOUS
 62
    7
 10
234.91285819669559
 20
67.23046258754573
 40
0.2999999999999999
 50
109.47122063447165
 51
250.52877936551633
  0
ARC
  8
_0-2_
  6
CONTINUOUS
 62
    7
 10
234.91285819669559
 20
65.83046258754564
 40
0.2999999999999999
 50
109.47122063448369
 51
250.52877936552841
  0
ARC
  8
_0-2_
  6
CONTINUOUS
 62
    7
 10
234.91285819669559
 20
64.430462587545776
 40
0.2999999999999999
 50
109.47122063447162
 51
270
  0
ARC
  8
_0-2_
  6
CONTINUOUS
 62
    7
 10
236.41285819669559
 20
68.630462587545594
 40
0.2999999999999999
 50
109.47122063447162
 51
250.52877936552841
  0
ARC
  8
_0-2_
  6
CONTINUOUS
 62
    7
 10
236.41285819669559
 20
67.23046258754573
 40
0.2999999999999999
 50
109.47122063447165
 51
250.52877936551633
  0
ARC
  8
_0-2_
  6
CONTINUOUS
 62
    7
 10
236.41285819669559
 20
65.83046258754564
 40
0.2999999999999999
 50
109.47122063448369
 51
250.52877936552841
  0
ARC
  8
_0-2_
  6
CONTINUOUS
 62
    7
 10
236.41285819669559
 20
64.430462587545776
 40
0.2999999999999999
 50
109.47122063447162
 51
270
  0
ARC
  8
_0-2_
  6
CONTINUOUS
 62
    7
 10
236.41285819669559
 20
70.030462587545685
 40
0.2999999999999999
 50
90
 51
250.52877936552841
  0
TEXT
  8
_0-7_
 62
    7
 10
234.39599836944711
 20
87.41788667443376
 40
4.2999999999999998
 41
0.744186046511628
 50
0
  1
RROP
  0
LINE
  8
_0-2_
  6
CONTINUOUS
 62
    7
 10
161.25254033373108
 20
69.279072039309199
 11
162.15338888145811
 21
65.851137674668394
  0
LINE
  8
_0-2_
  6
CONTINUOUS
 62
    7
 10
162.02646800356706
 20
65.368174761523846
 11
161.25254033373108
 21
64.5790720393627
  0
LINE
  8
_0-2_
  6
CONTINUOUS
 62
    7
 10
161.25254033372835
 20
61.679072039416496
 11
161.95899691764339
 21
58.990843471762673
  0
LINE
  8
_0-2_
  6
CONTINUOUS
 62
    7
 10
163.04269797020834
 20
60.253328580592608
 11
162.58388561789525
 21
61.320047179505934
  0
LINE
  8
_0-2_
  6
CONTINUOUS
 62
    7
 10
162.04497012111767
 20
61.679072039406151
 11
161.25254033373108
 21
61.679072039406151
  0
LINE
  8
_0-2_
  6
CONTINUOUS
 62
    7
 10
166.35254033389106
 20
61.379072039406651
 11
166.35254033389106
 21
60.747021231848407
  0
LINE
  8
_0-2_
  6
CONTINUOUS
 62
    7
 10
166.22114217221383
 20
60.247021231848294
 11
165.16342083711834
 21
58.379072039416428
  0
LINE
  8
_0-2_
  6
CONTINUOUS
 62
    7
 10
164.31404976799558
 20
57.879072039416428
 11
163.38002241213235
 21
57.879072039416428
  0
LINE
  8
_0-2_
  6
CONTINUOUS
 62
    7
 10
163.60638648765098
 20
60.373816151074834
 11
163.60638648765098
 21
62.57907203941545
  0
LINE
  8
_0-2_
  6
CONTINUOUS
 62
    7
 10
166.32568238704494
 20
61.901600824807304
 11
166.35254033389128
 21
61.379072039406196
  0
LINE
  8
_0-2_
  6
CONTINUOUS
 62
    7
 10
169.9829213177718
 20
61.899047635817112
 11
169.95644670554157
 21
61.950987053009783
  0
LINE
  8
_0-2_
  6
CONTINUOUS
 62
    7
 10
169.95644670554157
 20
61.950987053009783
 11
169.76520289044879
 21
62.814510409600359
  0
LINE
  8
_0-2_
  6
CONTINUOUS
 62
    7
 10
169.76520289044879
 20
62.814510409600359
 11
169.73731746172291
 21
63.026079440919148
  0
LINE
  8
_0-2_
  6
CONTINUOUS
 62
    7
 10
169.68715571861117
 20
61.679072039406776
 11
169.12211232865275
 21
61.679072039406776
  0
LINE
  8
_0-2_
  6
CONTINUOUS
 62
    7
 10
169.12211232865275
 20
61.679072039406776
 11
168.44655215405919
 21
61.852651981852148
  0
LINE
  8
_0-2_
  6
CONTINUOUS
 62
    7
 10
168.44655215405919
 20
61.852651981852148
 11
167.725346021723
 21
62.122589645671724
  0
LINE
  8
_0-2_
  6
CONTINUOUS
 62
    7
 10
167.725346021723
 20
62.122589645671724
 11
166.98633592294652
 21
62.421734572482649
  0
LINE
  8
_0-2_
  6
CONTINUOUS
 62
    7
 10
167.35093589625853
 20
65.498594520628501
 11
168.49747389776132
 21
64.519712196607031
  0
LINE
  8
_0-2_
  6
CONTINUOUS
 62
    7
 10
168.49747389776132
 20
64.519712196607031
 11
169.14512347312086
 21
64.038981882132816
  0
LINE
  8
_0-2_
  6
CONTINUOUS
 62
    7
 10
165.98004816067578
 20
66.397394160993315
 11
163.65467693348933
 21
69.660749917854218
  0
LINE
  8
_0-2_
  6
CONTINUOUS
 62
    7
 10
163.05734439767411
 20
60.223816151074857
 11
163.08676187264007
 21
60.18097986816889
  0
LINE
  8
_0-2_
  6
CONTINUOUS
 62
    7
 10
163.08676187264007
 20
60.18097986816889
 11
163.12302782555491
 21
60.144002818139143
  0
LINE
  8
_0-2_
  6
CONTINUOUS
 62
    7
 10
163.12302782555491
 20
60.144002818139143
 11
163.16504033379096
 21
60.114008529939497
  0
LINE
  8
_0-2_
  6
CONTINUOUS
 62
    7
 10
163.16504033379096
 20
60.114008529939497
 11
163.21152286854465
 21
60.091908364839071
  0
LINE
  8
_0-2_
  6
CONTINUOUS
 62
    7
 10
163.21152286854465
 20
60.091908364839071
 11
163.2610630815189
 21
60.078373825171184
  0
LINE
  8
_0-2_
  6
CONTINUOUS
 62
    7
 10
163.2610630815189
 20
60.078373825171184
 11
163.31215571841096
 21
60.073816151074823
  0
LINE
  8
_0-2_
  6
CONTINUOUS
 62
    7
 10
163.31215571841096
 20
60.073816151074823
 11
163.36324835530303
 21
60.078373825171184
  0
LINE
  8
_0-2_
  6
CONTINUOUS
 62
    7
 10
163.36324835530303
 20
60.078373825171184
 11
163.41278856827728
 21
60.091908364839071
  0
LINE
  8
_0-2_
  6
CONTINUOUS
 62
    7
 10
163.41278856827728
 20
60.091908364839071
 11
163.45927110303097
 21
60.114008529939497
  0
LINE
  8
_0-2_
  6
CONTINUOUS
 62
    7
 10
163.45927110303097
 20
60.114008529939497
 11
163.50128361126701
 21
60.144002818139143
  0
LINE
  8
_0-2_
  6
CONTINUOUS
 62
    7
 10
163.50128361126701
 20
60.144002818139143
 11
163.53754956418186
 21
60.18097986816889
  0
LINE
  8
_0-2_
  6
CONTINUOUS
 62
    7
 10
163.53754956418186
 20
60.18097986816889
 11
163.56696703914781
 21
60.223816151074857
  0
LINE
  8
_0-2_
  6
CONTINUOUS
 62
    7
 10
163.56696703914781
 20
60.223816151074857
 11
163.58864220107398
 21
60.271210108077128
  0
LINE
  8
_0-2_
  6
CONTINUOUS
 62
    7
 10
163.58864220107398
 20
60.271210108077128
 11
163.60191646113327
 21
60.321721697774763
  0
LINE
  8
_0-2_
  6
CONTINUOUS
 62
    7
 10
163.60191646113327
 20
60.321721697774763
 11
163.60638648765098
 21
60.373816151074834
  0
LINE
  8
_0-2_
  6
CONTINUOUS
 62
    7
 10
161.95899691764328
 20
58.990843471762673
 11
162.04670422539238
 21
58.745144646805386
  0
LINE
  8
_0-2_
  6
CONTINUOUS
 62
    7
 10
162.04670422539238
 20
58.745144646805386
 11
162.17492373155403
 21
58.518707384889865
  0
LINE
  8
_0-2_
  6
CONTINUOUS
 62
    7
 10
162.17492373155403
 20
58.518707384889865
 11
162.33975955131564
 21
58.318411867636598
  0
LINE
  8
_0-2_
  6
CONTINUOUS
 62
    7
 10
162.33975955131564
 20
58.318411867636598
 11
162.5362032317048
 21
58.150343972982967
  0
LINE
  8
_0-2_
  6
CONTINUOUS
 62
    7
 10
162.5362032317048
 20
58.150343972982967
 11
162.75828593089818
 21
58.019610358861428
  0
LINE
  8
_0-2_
  6
CONTINUOUS
 62
    7
 10
162.75828593089818
 20
58.019610358861428
 11
162.99925977845999
 21
57.930183299982843
  0
LINE
  8
_0-2_
  6
CONTINUOUS
 62
    7
 10
162.99925977845999
 20
57.930183299982843
 11
163.25180290597069
 21
57.884779992278823
  0
LINE
  8
_0-2_
  6
CONTINUOUS
 62
    7
 10
163.25180290597069
 20
57.884779992278823
 11
163.38002241213235
 21
57.879072039416428
  0
LINE
  8
_0-2_
  6
CONTINUOUS
 62
    7
 10
166.22114217221394
 20
60.247021231848407
 11
166.29339271196773
 21
60.405001088522681
  0
LINE
  8
_0-2_
  6
CONTINUOUS
 62
    7
 10
166.29339271196773
 20
60.405001088522681
 11
166.33764024549873
 21
60.573373054181445
  0
LINE
  8
_0-2_
  6
CONTINUOUS
 62
    7
 10
166.33764024549873
 20
60.573373054181445
 11
166.35254033389106
 21
60.747021231848407
  0
LINE
  8
_0-2_
  6
CONTINUOUS
 62
    7
 10
164.31404976799558
 20
57.879072039416428
 11
164.4843585576358
 21
57.894264286404223
  0
LINE
  8
_0-2_
  6
CONTINUOUS
 62
    7
 10
164.4843585576358
 20
57.894264286404223
 11
164.64949260088321
 21
57.939379418630551
  0
LINE
  8
_0-2_
  6
CONTINUOUS
 62
    7
 10
164.64949260088321
 20
57.939379418630551
 11
164.80443438339557
 21
58.013046635632008
  0
LINE
  8
_0-2_
  6
CONTINUOUS
 62
    7
 10
164.80443438339557
 20
58.013046635632008
 11
164.94447607751562
 21
58.113027596297457
  0
LINE
  8
_0-2_
  6
CONTINUOUS
 62
    7
 10
164.94447607751562
 20
58.113027596297457
 11
165.06536258723202
 21
58.236284429729892
  0
LINE
  8
_0-2_
  6
CONTINUOUS
 62
    7
 10
165.06536258723202
 20
58.236284429729892
 11
165.16342083711845
 21
58.379072039416428
  0
LINE
  8
_0-2_
  6
CONTINUOUS
 62
    7
 10
163.60638648765098
 20
62.57907203941545
 11
163.58403635506249
 21
62.839544305915865
  0
LINE
  8
_0-2_
  6
CONTINUOUS
 62
    7
 10
163.58403635506249
 20
62.839544305915865
 11
163.51766505476598
 21
63.092102254403926
  0
LINE
  8
_0-2_
  6
CONTINUOUS
 62
    7
 10
163.51766505476598
 20
63.092102254403926
 11
163.40928924513537
 21
63.32907203941545
  0
LINE
  8
_0-2_
  6
CONTINUOUS
 62
    7
 10
163.40928924513537
 20
63.32907203941545
 11
163.2622018703056
 21
63.543253453945283
  0
LINE
  8
_0-2_
  6
CONTINUOUS
 62
    7
 10
163.2622018703056
 20
63.543253453945283
 11
163.08087210573103
 21
63.728138704093908
  0
LINE
  8
_0-2_
  6
CONTINUOUS
 62
    7
 10
163.08087210573103
 20
63.728138704093908
 11
162.870809564551
 21
63.878110145092137
  0
LINE
  8
_0-2_
  6
CONTINUOUS
 62
    7
 10
162.870809564551
 20
63.878110145092137
 11
162.63839689078247
 21
63.988610970594323
  0
LINE
  8
_0-2_
  6
CONTINUOUS
 62
    7
 10
162.63839689078247
 20
63.988610970594323
 11
162.39069582591134
 21
64.056283668933759
  0
LINE
  8
_0-2_
  6
CONTINUOUS
 62
    7
 10
162.39069582591134
 20
64.056283668933759
 11
162.13523264145101
 21
64.07907203941545
  0
LINE
  8
_0-2_
  6
CONTINUOUS
 62
    7
 10
162.02646800356729
 20
65.36817476152379
 11
162.08141327682119
 21
65.434939933941564
  0
LINE
  8
_0-2_
  6
CONTINUOUS
 62
    7
 10
162.08141327682119
 20
65.434939933941564
 11
162.12415311220838
 21
65.510419021246719
  0
LINE
  8
_0-2_
  6
CONTINUOUS
 62
    7
 10
162.12415311220838
 20
65.510419021246719
 11
162.15338888145811
 21
65.592318629565796
  0
LINE
  8
_0-2_
  6
CONTINUOUS
 62
    7
 10
162.15338888145811
 20
65.592318629565796
 11
162.16823227051566
 21
65.678150280743239
  0
LINE
  8
_0-2_
  6
CONTINUOUS
 62
    7
 10
162.16823227051566
 20
65.678150280743239
 11
162.16823227051566
 21
65.765306023490893
  0
LINE
  8
_0-2_
  6
CONTINUOUS
 62
    7
 10
162.16823227051566
 20
65.765306023490893
 11
162.15338888145811
 21
65.851137674668337
  0
LINE
  8
_0-2_
  6
CONTINUOUS
 62
    7
 10
166.98633592294857
 20
62.421734572481853
 11
166.9040260523459
 21
62.44524884533439
  0
LINE
  8
_0-2_
  6
CONTINUOUS
 62
    7
 10
166.9040260523459
 20
62.44524884533439
 11
166.8189619662781
 21
62.45383267041359
  0
LINE
  8
_0-2_
  6
CONTINUOUS
 62
    7
 10
166.8189619662781
 20
62.45383267041359
 11
166.73372829395595
 21
62.447225232538131
  0
LINE
  8
_0-2_
  6
CONTINUOUS
 62
    7
 10
166.73372829395595
 20
62.447225232538131
 11
166.65091481738261
 21
62.425627295364166
  0
LINE
  8
_0-2_
  6
CONTINUOUS
 62
    7
 10
166.65091481738261
 20
62.425627295364166
 11
166.57303778213804
 21
62.389695101283792
  0
LINE
  8
_0-2_
  6
CONTINUOUS
 62
    7
 10
166.57303778213804
 20
62.389695101283792
 11
166.5024634425306
 21
62.340520431831465
  0
LINE
  8
_0-2_
  6
CONTINUOUS
 62
    7
 10
166.5024634425306
 20
62.340520431831465
 11
166.44133616415684
 21
62.279597434455013
  0
LINE
  8
_0-2_
  6
CONTINUOUS
 62
    7
 10
166.44133616415684
 20
62.279597434455013
 11
166.3915132684383
 21
62.208777223601089
  0
LINE
  8
_0-2_
  6
CONTINUOUS
 62
    7
 10
166.3915132684383
 20
62.208777223601089
 11
166.35450859884969
 21
62.130211635539865
  0
LINE
  8
_0-2_
  6
CONTINUOUS
 62
    7
 10
166.35450859884969
 20
62.130211635539865
 11
166.33144652355134
 21
62.046287845908353
  0
LINE
  8
_0-2_
  6
CONTINUOUS
 62
    7
 10
166.33144652355134
 20
62.046287845908353
 11
166.32302777203103
 21
61.959555836587072
  0
LINE
  8
_0-2_
  6
CONTINUOUS
 62
    7
 10
166.32302777203103
 20
61.959555836587072
 11
166.32568238704471
 21
61.901600824807304
  0
LINE
  8
_0-2_
  6
CONTINUOUS
 62
    7
 10
163.65467693348944
 20
69.660749917854218
 11
163.48643780406928
 21
69.858081739923477
  0
LINE
  8
_0-2_
  6
CONTINUOUS
 62
    7
 10
163.48643780406928
 20
69.858081739923477
 11
163.28714726128226
 21
70.02262839824806
  0
LINE
  8
_0-2_
  6
CONTINUOUS
 62
    7
 10
163.28714726128226
 20
70.02262839824806
 11
163.06286064742494
 21
70.149390225879415
  0
LINE
  8
_0-2_
  6
CONTINUOUS
 62
    7
 10
163.06286064742494
 20
70.149390225879415
 11
162.82039279776495
 21
70.234515628829513
  0
LINE
  8
_0-2_
  6
CONTINUOUS
 62
    7
 10
162.82039279776495
 20
70.234515628829513
 11
162.56711097521952
 21
70.275418114805234
  0
LINE
  8
_0-2_
  6
CONTINUOUS
 62
    7
 10
162.56711097521952
 20
70.275418114805234
 11
162.46448847057354
 21
70.279072039415496
  0
LINE
  8
_0-2_
  6
CONTINUOUS
 62
    7
 10
162.58388561789513
 20
61.320047179505877
 11
162.53465809611873
 21
61.411802854763607
  0
LINE
  8
_0-2_
  6
CONTINUOUS
 62
    7
 10
162.53465809611873
 20
61.411802854763607
 11
162.47055165301606
 21
61.493448672566615
  0
LINE
  8
_0-2_
  6
CONTINUOUS
 62
    7
 10
162.47055165301606
 20
61.493448672566615
 11
162.39351413042129
 21
61.562503866055692
  0
LINE
  8
_0-2_
  6
CONTINUOUS
 62
    7
 10
162.39351413042129
 20
61.562503866055692
 11
162.3058862744756
 21
61.61687022812032
  0
LINE
  8
_0-2_
  6
CONTINUOUS
 62
    7
 10
162.3058862744756
 20
61.61687022812032
 11
162.21033061323999
 21
61.654895864359901
  0
LINE
  8
_0-2_
  6
CONTINUOUS
 62
    7
 10
162.21033061323999
 20
61.654895864359901
 11
162.10975055712777
 21
61.675425385059214
  0
LINE
  8
_0-2_
  6
CONTINUOUS
 62
    7
 10
162.10975055712777
 20
61.675425385059214
 11
162.04497012111767
 21
61.679072039406151
  0
LINE
  8
_0-2_
  6
CONTINUOUS
 62
    7
 10
169.88330956477091
 20
61.665678914138653
 11
169.68715571861117
 21
61.679072039406776
  0
LINE
  8
_0-2_
  6
CONTINUOUS
 62
    7
 10
169.88330956477091
 20
61.665678914138653
 11
169.90825060322675
 21
61.671758570852774
  0
LINE
  8
_0-2_
  6
CONTINUOUS
 62
    7
 10
169.90825060322675
 20
61.671758570852774
 11
169.9317773122898
 21
61.682161750696878
  0
LINE
  8
_0-2_
  6
CONTINUOUS
 62
    7
 10
169.9317773122898
 20
61.682161750696878
 11
169.95317484481035
 21
61.69657235831562
  0
LINE
  8
_0-2_
  6
CONTINUOUS
 62
    7
 10
169.95317484481035
 20
61.69657235831562
 11
169.97179304759038
 21
61.714552534688721
  0
LINE
  8
_0-2_
  6
CONTINUOUS
 62
    7
 10
169.97179304759038
 20
61.714552534688721
 11
169.98706621595966
 21
61.735555961255386
  0
LINE
  8
_0-2_
  6
CONTINUOUS
 62
    7
 10
169.98706621595966
 20
61.735555961255386
 11
169.99853028242592
 21
61.758944459527754
  0
LINE
  8
_0-2_
  6
CONTINUOUS
 62
    7
 10
169.99853028242592
 20
61.758944459527754
 11
170.00583691713069
 21
61.784007381820857
  0
LINE
  8
_0-2_
  6
CONTINUOUS
 62
    7
 10
170.00583691713069
 20
61.784007381820857
 11
170.00876411167576
 21
61.809983203923366
  0
LINE
  8
_0-2_
  6
CONTINUOUS
 62
    7
 10
170.00876411167576
 20
61.809983203923366
 11
170.0072229247362
 21
61.836082663625007
  0
LINE
  8
_0-2_
  6
CONTINUOUS
 62
    7
 10
170.0072229247362
 20
61.836082663625007
 11
170.00126018449714
 21
61.86151274204974
  0
LINE
  8
_0-2_
  6
CONTINUOUS
 62
    7
 10
170.00126018449714
 20
61.86151274204974
 11
169.9910570658036
 21
61.885500759132924
  0
LINE
  8
_0-2_
  6
CONTINUOUS
 62
    7
 10
169.9910570658036
 20
61.885500759132924
 11
169.98292131777185
 21
61.899047635817112
  0
LINE
  8
_0-2_
  6
CONTINUOUS
 62
    7
 10
165.98004816067595
 20
66.397394160993372
 11
166.14828729009605
 21
66.200062338924113
  0
LINE
  8
_0-2_
  6
CONTINUOUS
 62
    7
 10
166.14828729009605
 20
66.200062338924113
 11
166.34757783288308
 21
66.035515680599531
  0
LINE
  8
_0-2_
  6
CONTINUOUS
 62
    7
 10
166.34757783288308
 20
66.035515680599531
 11
166.57186444674039
 21
65.908753852968175
  0
LINE
  8
_0-2_
  6
CONTINUOUS
 62
    7
 10
166.57186444674039
 20
65.908753852968175
 11
166.73371847056603
 21
65.84662442499382
  0
LINE
  8
_0-2_
  6
CONTINUOUS
 62
    7
 10
166.73371847056603
 20
65.846624424993763
 11
166.97457881632965
 21
65.756880045772846
  0
LINE
  8
_0-2_
  6
CONTINUOUS
 62
    7
 10
166.97457881632965
 20
65.756880045772846
 11
167.1964956956287
 21
65.625854027956962
  0
LINE
  8
_0-2_
  6
CONTINUOUS
 62
    7
 10
167.1964956956287
 20
65.625854027956962
 11
167.35093589625853
 21
65.498594520628444
  0
LINE
  8
_0-2_
  6
CONTINUOUS
 62
    7
 10
169.7373174617228
 20
63.026079440919148
 11
169.6811413079854
 21
63.281195850829192
  0
LINE
  8
_0-2_
  6
CONTINUOUS
 62
    7
 10
169.6811413079854
 20
63.281195850829192
 11
169.58237002926126
 21
63.522490310215971
  0
LINE
  8
_0-2_
  6
CONTINUOUS
 62
    7
 10
169.58237002926126
 20
63.522490310215971
 11
169.44400474087365
 21
63.742631209031856
  0
LINE
  8
_0-2_
  6
CONTINUOUS
 62
    7
 10
169.44400474087365
 20
63.742631209031856
 11
169.27024960209422
 21
63.934929677463174
  0
LINE
  8
_0-2_
  6
CONTINUOUS
 62
    7
 10
169.27024960209422
 20
63.934929677463174
 11
169.14512347312075
 21
64.038981882132816
  0
LINE
  8
_0-2_
  6
CONTINUOUS
 62
    7
 10
161.25254033373108
 20
69.279072039309199
 11
161.25254033373108
 21
70.279072039415496
  0
LINE
  8
_0-2_
  6
CONTINUOUS
 62
    7
 10
162.46448847057354
 20
70.279072039415496
 11
161.25254033373108
 21
70.279072039415496
  0
LINE
  8
_0-2_
  6
CONTINUOUS
 62
    7
 10
161.25254033373108
 20
64.5790720393627
 11
161.25254033373108
 21
64.07907203941545
  0
LINE
  8
_0-2_
  6
CONTINUOUS
 62
    7
 10
161.25254033373108
 20
64.07907203941545
 11
162.13523264145101
 21
64.07907203941545
  0
LINE
  8
_0-2_
  6
CONTINUOUS
 62
    7
 10
101.52451883958611
 20
69.696229326941364
 11
101.52451883958611
 21
68.861914751890652
  0
LINE
  8
_0-2_
  6
CONTINUOUS
 62
    7
 10
101.52451883958611
 20
68.296229326941273
 11
101.52451883958611
 21
67.461914751890674
  0
LINE
  8
_0-2_
  6
CONTINUOUS
 62
    7
 10
101.52451883958611
 20
66.896229326941409
 11
101.52451883958611
 21
66.061914751890697
  0
LINE
  8
_0-2_
  6
CONTINUOUS
 62
    7
 10
101.52451883958611
 20
65.487650683191362
 11
101.52451883958611
 21
64.66191475189072
  0
LINE
  8
_0-2_
  6
CONTINUOUS
 62
    7
 10
101.62451883958602
 20
64.079072039415962
 11
104.207211147306
 21
64.079072039415962
  0
LINE
  8
_0-2_
  6
CONTINUOUS
 62
    7
 10
103.32451883958606
 20
64.079072039415962
 11
103.32451883958606
 21
70.279072039416008
  0
LINE
  8
_0-2_
  6
CONTINUOUS
 62
    7
 10
103.32451883958606
 20
69.27907203930971
 11
104.2253673873131
 21
65.851137674668905
  0
LINE
  8
_0-2_
  6
CONTINUOUS
 62
    7
 10
104.09844650942205
 20
65.368174761524358
 11
103.32451883958606
 21
64.579072039363211
  0
LINE
  8
_0-2_
  6
CONTINUOUS
 62
    7
 10
103.32451883958333
 20
61.679072039417008
 11
104.03097542349838
 21
58.990843471763185
  0
LINE
  8
_0-2_
  6
CONTINUOUS
 62
    7
 10
105.11467647606332
 20
60.253328580593177
 11
104.65586412375023
 21
61.320047179506446
  0
LINE
  8
_0-2_
  6
CONTINUOUS
 62
    7
 10
104.11694862697266
 20
61.679072039406662
 11
103.32451883958606
 21
61.679072039406662
  0
LINE
  8
_0-2_
  6
CONTINUOUS
 62
    7
 10
108.42451883974604
 20
61.379072039407163
 11
108.42451883974604
 21
60.747021231848919
  0
LINE
  8
_0-2_
  6
CONTINUOUS
 62
    7
 10
108.29312067806882
 20
60.247021231848805
 11
107.23539934297332
 21
58.37907203941694
  0
LINE
  8
_0-2_
  6
CONTINUOUS
 62
    7
 10
106.38602827385057
 20
57.87907203941694
 11
105.45200091798733
 21
57.87907203941694
  0
LINE
  8
_0-2_
  6
CONTINUOUS
 62
    7
 10
105.67836499350597
 20
60.373816151075346
 11
105.67836499350597
 21
62.579072039415962
  0
LINE
  8
_0-2_
  6
CONTINUOUS
 62
    7
 10
108.39766089289992
 20
61.901600824807872
 11
108.42451883974627
 21
61.379072039406765
  0
LINE
  8
_0-2_
  6
CONTINUOUS
 62
    7
 10
112.05489982362678
 20
61.899047635817624
 11
112.02842521139655
 21
61.950987053010294
  0
LINE
  8
_0-2_
  6
CONTINUOUS
 62
    7
 10
112.02842521139655
 20
61.950987053010294
 11
111.83718139630378
 21
62.814510409600871
  0
LINE
  8
_0-2_
  6
CONTINUOUS
 62
    7
 10
111.83718139630378
 20
62.814510409600871
 11
111.8092959675779
 21
63.026079440919716
  0
LINE
  8
_0-2_
  6
CONTINUOUS
 62
    7
 10
111.75913422446615
 20
61.679072039407345
 11
111.19409083450773
 21
61.679072039407345
  0
LINE
  8
_0-2_
  6
CONTINUOUS
 62
    7
 10
111.19409083450773
 20
61.679072039407345
 11
110.51853065991418
 21
61.852651981852716
  0
LINE
  8
_0-2_
  6
CONTINUOUS
 62
    7
 10
110.51853065991418
 20
61.852651981852716
 11
109.79732452757798
 21
62.122589645672235
  0
LINE
  8
_0-2_
  6
CONTINUOUS
 62
    7
 10
109.79732452757798
 20
62.122589645672235
 11
109.05831442880151
 21
62.421734572483217
  0
LINE
  8
_0-2_
  6
CONTINUOUS
 62
    7
 10
109.42291440211352
 20
65.498594520629013
 11
110.56945240361631
 21
64.519712196607543
  0
LINE
  8
_0-2_
  6
CONTINUOUS
 62
    7
 10
110.56945240361631
 20
64.519712196607543
 11
111.21710197897585
 21
64.038981882133328
  0
LINE
  8
_0-2_
  6
CONTINUOUS
 62
    7
 10
108.05202666653076
 20
66.397394160993883
 11
105.72665543934431
 21
69.66074991785473
  0
LINE
  8
_0-2_
  6
CONTINUOUS
 62
    7
 10
104.53646697642853
 20
70.279072039416008
 11
101.62451883958602
 21
70.279072039416008
  0
LINE
  8
_0-2_
  6
CONTINUOUS
 62
    7
 10
105.1293229035291
 20
60.223816151075368
 11
105.15874037849505
 21
60.180979868169402
  0
LINE
  8
_0-2_
  6
CONTINUOUS
 62
    7
 10
105.15874037849505
 20
60.180979868169402
 11
105.19500633140996
 21
60.144002818139654
  0
LINE
  8
_0-2_
  6
CONTINUOUS
 62
    7
 10
105.19500633140996
 20
60.144002818139654
 11
105.23701883964594
 21
60.114008529940008
  0
LINE
  8
_0-2_
  6
CONTINUOUS
 62
    7
 10
105.23701883964594
 20
60.114008529940008
 11
105.28350137439963
 21
60.091908364839583
  0
LINE
  8
_0-2_
  6
CONTINUOUS
 62
    7
 10
105.28350137439963
 20
60.091908364839583
 11
105.33304158737388
 21
60.078373825171695
  0
LINE
  8
_0-2_
  6
CONTINUOUS
 62
    7
 10
105.33304158737388
 20
60.078373825171695
 11
105.38413422426595
 21
60.073816151075334
  0
LINE
  8
_0-2_
  6
CONTINUOUS
 62
    7
 10
105.38413422426595
 20
60.073816151075334
 11
105.43522686115801
 21
60.078373825171695
  0
LINE
  8
_0-2_
  6
CONTINUOUS
 62
    7
 10
105.43522686115801
 20
60.078373825171695
 11
105.48476707413226
 21
60.091908364839583
  0
LINE
  8
_0-2_
  6
CONTINUOUS
 62
    7
 10
105.48476707413226
 20
60.091908364839583
 11
105.53124960888596
 21
60.114008529940008
  0
LINE
  8
_0-2_
  6
CONTINUOUS
 62
    7
 10
105.53124960888596
 20
60.114008529940008
 11
105.57326211712194
 21
60.144002818139654
  0
LINE
  8
_0-2_
  6
CONTINUOUS
 62
    7
 10
105.57326211712194
 20
60.144002818139654
 11
105.60952807003684
 21
60.180979868169402
  0
LINE
  8
_0-2_
  6
CONTINUOUS
 62
    7
 10
105.60952807003684
 20
60.180979868169402
 11
105.6389455450028
 21
60.223816151075368
  0
LINE
  8
_0-2_
  6
CONTINUOUS
 62
    7
 10
105.6389455450028
 20
60.223816151075368
 11
105.66062070692897
 21
60.271210108077639
  0
LINE
  8
_0-2_
  6
CONTINUOUS
 62
    7
 10
105.66062070692897
 20
60.271210108077639
 11
105.67389496698826
 21
60.321721697775274
  0
LINE
  8
_0-2_
  6
CONTINUOUS
 62
    7
 10
105.67389496698826
 20
60.321721697775274
 11
105.67836499350597
 21
60.373816151075346
  0
LINE
  8
_0-2_
  6
CONTINUOUS
 62
    7
 10
104.03097542349826
 20
58.990843471763185
 11
104.11868273124736
 21
58.745144646805898
  0
LINE
  8
_0-2_
  6
CONTINUOUS
 62
    7
 10
104.11868273124736
 20
58.745144646805898
 11
104.24690223740902
 21
58.518707384890376
  0
LINE
  8
_0-2_
  6
CONTINUOUS
 62
    7
 10
104.24690223740902
 20
58.518707384890376
 11
104.41173805717062
 21
58.31841186763711
  0
LINE
  8
_0-2_
  6
CONTINUOUS
 62
    7
 10
104.41173805717062
 20
58.31841186763711
 11
104.60818173755979
 21
58.150343972983478
  0
LINE
  8
_0-2_
  6
CONTINUOUS
 62
    7
 10
104.60818173755979
 20
58.150343972983478
 11
104.83026443675317
 21
58.019610358861996
  0
LINE
  8
_0-2_
  6
CONTINUOUS
 62
    7
 10
104.83026443675317
 20
58.019610358861996
 11
105.07123828431497
 21
57.930183299983355
  0
LINE
  8
_0-2_
  6
CONTINUOUS
 62
    7
 10
105.07123828431497
 20
57.930183299983355
 11
105.32378141182568
 21
57.884779992279334
  0
LINE
  8
_0-2_
  6
CONTINUOUS
 62
    7
 10
105.32378141182568
 20
57.884779992279334
 11
105.45200091798733
 21
57.87907203941694
  0
LINE
  8
_0-2_
  6
CONTINUOUS
 62
    7
 10
108.29312067806899
 20
60.247021231848862
 11
108.36537121782271
 21
60.40500108852325
  0
LINE
  8
_0-2_
  6
CONTINUOUS
 62
    7
 10
108.36537121782271
 20
60.40500108852325
 11
108.40961875135372
 21
60.573373054181957
  0
LINE
  8
_0-2_
  6
CONTINUOUS
 62
    7
 10
108.40961875135372
 20
60.573373054181957
 11
108.42451883974604
 21
60.747021231848862
  0
LINE
  8
_0-2_
  6
CONTINUOUS
 62
    7
 10
106.38602827385057
 20
57.87907203941694
 11
106.55633706349079
 21
57.894264286404734
  0
LINE
  8
_0-2_
  6
CONTINUOUS
 62
    7
 10
106.55633706349079
 20
57.894264286404734
 11
106.72147110673819
 21
57.939379418631006
  0
LINE
  8
_0-2_
  6
CONTINUOUS
 62
    7
 10
106.72147110673819
 20
57.939379418631006
 11
106.87641288925056
 21
58.01304663563252
  0
LINE
  8
_0-2_
  6
CONTINUOUS
 62
    7
 10
106.87641288925056
 20
58.01304663563252
 11
107.0164545833706
 21
58.113027596297968
  0
LINE
  8
_0-2_
  6
CONTINUOUS
 62
    7
 10
107.0164545833706
 20
58.113027596297968
 11
107.137341093087
 21
58.236284429730404
  0
LINE
  8
_0-2_
  6
CONTINUOUS
 62
    7
 10
107.137341093087
 20
58.236284429730404
 11
107.23539934297349
 21
58.379072039416883
  0
LINE
  8
_0-2_
  6
CONTINUOUS
 62
    7
 10
105.67836499350597
 20
62.579072039415962
 11
105.65601486091748
 21
62.839544305916377
  0
LINE
  8
_0-2_
  6
CONTINUOUS
 62
    7
 10
105.65601486091748
 20
62.839544305916377
 11
105.58964356062097
 21
63.092102254404494
  0
LINE
  8
_0-2_
  6
CONTINUOUS
 62
    7
 10
105.58964356062097
 20
63.092102254404494
 11
105.48126775099036
 21
63.329072039415962
  0
LINE
  8
_0-2_
  6
CONTINUOUS
 62
    7
 10
105.48126775099036
 20
63.329072039415962
 11
105.33418037616059
 21
63.543253453945795
  0
LINE
  8
_0-2_
  6
CONTINUOUS
 62
    7
 10
105.33418037616059
 20
63.543253453945795
 11
105.15285061158608
 21
63.72813870409442
  0
LINE
  8
_0-2_
  6
CONTINUOUS
 62
    7
 10
105.15285061158608
 20
63.72813870409442
 11
104.94278807040598
 21
63.878110145092592
  0
LINE
  8
_0-2_
  6
CONTINUOUS
 62
    7
 10
104.94278807040598
 20
63.878110145092592
 11
104.71037539663746
 21
63.988610970594834
  0
LINE
  8
_0-2_
  6
CONTINUOUS
 62
    7
 10
104.71037539663746
 20
63.988610970594834
 11
104.46267433176632
 21
64.05628366893427
  0
LINE
  8
_0-2_
  6
CONTINUOUS
 62
    7
 10
104.46267433176632
 20
64.05628366893427
 11
104.207211147306
 21
64.079072039415962
  0
LINE
  8
_0-2_
  6
CONTINUOUS
 62
    7
 10
104.09844650942227
 20
65.368174761524301
 11
104.15339178267618
 21
65.434939933942019
  0
LINE
  8
_0-2_
  6
CONTINUOUS
 62
    7
 10
104.15339178267618
 20
65.434939933942019
 11
104.19613161806336
 21
65.51041902124723
  0
LINE
  8
_0-2_
  6
CONTINUOUS
 62
    7
 10
104.19613161806336
 20
65.51041902124723
 11
104.22536738731304
 21
65.592318629566307
  0
LINE
  8
_0-2_
  6
CONTINUOUS
 62
    7
 10
104.22536738731304
 20
65.592318629566307
 11
104.24021077637065
 21
65.67815028074375
  0
LINE
  8
_0-2_
  6
CONTINUOUS
 62
    7
 10
104.24021077637065
 20
65.67815028074375
 11
104.24021077637065
 21
65.765306023491405
  0
LINE
  8
_0-2_
  6
CONTINUOUS
 62
    7
 10
104.24021077637065
 20
65.765306023491405
 11
104.2253673873131
 21
65.851137674668848
  0
LINE
  8
_0-2_
  6
CONTINUOUS
 62
    7
 10
109.05831442880356
 20
62.421734572482364
 11
108.97600455820088
 21
62.445248845334902
  0
LINE
  8
_0-2_
  6
CONTINUOUS
 62
    7
 10
108.97600455820088
 20
62.445248845334902
 11
108.89094047213308
 21
62.453832670414158
  0
LINE
  8
_0-2_
  6
CONTINUOUS
 62
    7
 10
108.89094047213308
 20
62.453832670414158
 11
108.80570679981093
 21
62.447225232538585
  0
LINE
  8
_0-2_
  6
CONTINUOUS
 62
    7
 10
108.80570679981093
 20
62.447225232538585
 11
108.7228933232376
 21
62.425627295364677
  0
LINE
  8
_0-2_
  6
CONTINUOUS
 62
    7
 10
108.7228933232376
 20
62.425627295364677
 11
108.64501628799303
 21
62.389695101284303
  0
LINE
  8
_0-2_
  6
CONTINUOUS
 62
    7
 10
108.64501628799303
 20
62.389695101284303
 11
108.57444194838558
 21
62.340520431831976
  0
LINE
  8
_0-2_
  6
CONTINUOUS
 62
    7
 10
108.57444194838558
 20
62.340520431831976
 11
108.51331467001182
 21
62.279597434455525
  0
LINE
  8
_0-2_
  6
CONTINUOUS
 62
    7
 10
108.51331467001182
 20
62.279597434455525
 11
108.46349177429329
 21
62.208777223601601
  0
LINE
  8
_0-2_
  6
CONTINUOUS
 62
    7
 10
108.46349177429329
 20
62.208777223601601
 11
108.42648710470468
 21
62.130211635540377
  0
LINE
  8
_0-2_
  6
CONTINUOUS
 62
    7
 10
108.42648710470468
 20
62.130211635540377
 11
108.40342502940626
 21
62.046287845908864
  0
LINE
  8
_0-2_
  6
CONTINUOUS
 62
    7
 10
108.40342502940626
 20
62.046287845908864
 11
108.39500627788601
 21
61.959555836587583
  0
LINE
  8
_0-2_
  6
CONTINUOUS
 62
    7
 10
108.39500627788601
 20
61.959555836587583
 11
108.39766089289969
 21
61.901600824807815
  0
LINE
  8
_0-2_
  6
CONTINUOUS
 62
    7
 10
105.72665543934443
 20
69.66074991785473
 11
105.55841630992433
 21
69.858081739923989
  0
LINE
  8
_0-2_
  6
CONTINUOUS
 62
    7
 10
105.55841630992433
 20
69.858081739923989
 11
105.35912576713724
 21
70.022628398248571
  0
LINE
  8
_0-2_
  6
CONTINUOUS
 62
    7
 10
105.35912576713724
 20
70.022628398248571
 11
105.13483915327998
 21
70.149390225879927
  0
LINE
  8
_0-2_
  6
CONTINUOUS
 62
    7
 10
105.13483915327998
 20
70.149390225879927
 11
104.89237130362
 21
70.234515628829968
  0
LINE
  8
_0-2_
  6
CONTINUOUS
 62
    7
 10
104.89237130362
 20
70.234515628829968
 11
104.63908948107456
 21
70.275418114805746
  0
LINE
  8
_0-2_
  6
CONTINUOUS
 62
    7
 10
104.63908948107456
 20
70.275418114805746
 11
104.53646697642853
 21
70.279072039416008
  0
LINE
  8
_0-2_
  6
CONTINUOUS
 62
    7
 10
104.65586412375012
 20
61.320047179506446
 11
104.60663660197372
 21
61.411802854764176
  0
LINE
  8
_0-2_
  6
CONTINUOUS
 62
    7
 10
104.60663660197372
 20
61.411802854764176
 11
104.54253015887105
 21
61.493448672567183
  0
LINE
  8
_0-2_
  6
CONTINUOUS
 62
    7
 10
104.54253015887105
 20
61.493448672567183
 11
104.46549263627628
 21
61.562503866056261
  0
LINE
  8
_0-2_
  6
CONTINUOUS
 62
    7
 10
104.46549263627628
 20
61.562503866056261
 11
104.37786478033053
 21
61.616870228120888
  0
LINE
  8
_0-2_
  6
CONTINUOUS
 62
    7
 10
104.37786478033053
 20
61.616870228120888
 11
104.28230911909503
 21
61.654895864360469
  0
LINE
  8
_0-2_
  6
CONTINUOUS
 62
    7
 10
104.28230911909503
 20
61.654895864360469
 11
104.18172906298275
 21
61.675425385059782
  0
LINE
  8
_0-2_
  6
CONTINUOUS
 62
    7
 10
104.18172906298275
 20
61.675425385059782
 11
104.11694862697266
 21
61.679072039406719
  0
LINE
  8
_0-2_
  6
CONTINUOUS
 62
    7
 10
111.9552880706259
 20
61.665678914139221
 11
111.75913422446615
 21
61.679072039407345
  0
LINE
  8
_0-2_
  6
CONTINUOUS
 62
    7
 10
111.9552880706259
 20
61.665678914139221
 11
111.98022910908173
 21
61.671758570853285
  0
LINE
  8
_0-2_
  6
CONTINUOUS
 62
    7
 10
111.98022910908173
 20
61.671758570853285
 11
112.00375581814484
 21
61.682161750697389
  0
LINE
  8
_0-2_
  6
CONTINUOUS
 62
    7
 10
112.00375581814484
 20
61.682161750697389
 11
112.02515335066533
 21
61.696572358316132
  0
LINE
  8
_0-2_
  6
CONTINUOUS
 62
    7
 10
112.02515335066533
 20
61.696572358316132
 11
112.04377155344537
 21
61.714552534689233
  0
LINE
  8
_0-2_
  6
CONTINUOUS
 62
    7
 10
112.04377155344537
 20
61.714552534689233
 11
112.05904472181464
 21
61.735555961255955
  0
LINE
  8
_0-2_
  6
CONTINUOUS
 62
    7
 10
112.05904472181464
 20
61.735555961255955
 11
112.0705087882809
 21
61.758944459528266
  0
LINE
  8
_0-2_
  6
CONTINUOUS
 62
    7
 10
112.0705087882809
 20
61.758944459528266
 11
112.07781542298568
 21
61.784007381821368
  0
LINE
  8
_0-2_
  6
CONTINUOUS
 62
    7
 10
112.07781542298568
 20
61.784007381821368
 11
112.08074261753075
 21
61.809983203923878
  0
LINE
  8
_0-2_
  6
CONTINUOUS
 62
    7
 10
112.08074261753075
 20
61.809983203923878
 11
112.07920143059118
 21
61.836082663625518
  0
LINE
  8
_0-2_
  6
CONTINUOUS
 62
    7
 10
112.07920143059118
 20
61.836082663625518
 11
112.07323869035213
 21
61.861512742050252
  0
LINE
  8
_0-2_
  6
CONTINUOUS
 62
    7
 10
112.07323869035213
 20
61.861512742050252
 11
112.06303557165859
 21
61.885500759133436
  0
LINE
  8
_0-2_
  6
CONTINUOUS
 62
    7
 10
112.06303557165859
 20
61.885500759133436
 11
112.05489982362684
 21
61.899047635817624
  0
LINE
  8
_0-2_
  6
CONTINUOUS
 62
    7
 10
108.05202666653094
 20
66.397394160993883
 11
108.22026579595104
 21
66.200062338924624
  0
LINE
  8
_0-2_
  6
CONTINUOUS
 62
    7
 10
108.22026579595104
 20
66.200062338924624
 11
108.41955633873806
 21
66.035515680600042
  0
LINE
  8
_0-2_
  6
CONTINUOUS
 62
    7
 10
108.41955633873806
 20
66.035515680600042
 11
108.64384295259538
 21
65.908753852968687
  0
LINE
  8
_0-2_
  6
CONTINUOUS
 62
    7
 10
108.64384295259538
 20
65.908753852968687
 11
108.80569697642102
 21
65.846624424994332
  0
LINE
  8
_0-2_
  6
CONTINUOUS
 62
    7
 10
108.80569697642102
 20
65.846624424994332
 11
109.04655732218464
 21
65.756880045773414
  0
LINE
  8
_0-2_
  6
CONTINUOUS
 62
    7
 10
109.04655732218464
 20
65.756880045773414
 11
109.26847420148368
 21
65.62585402795753
  0
LINE
  8
_0-2_
  6
CONTINUOUS
 62
    7
 10
109.26847420148368
 20
65.62585402795753
 11
109.42291440211352
 21
65.498594520629013
  0
LINE
  8
_0-2_
  6
CONTINUOUS
 62
    7
 10
111.80929596757778
 20
63.026079440919716
 11
111.75311981384039
 21
63.281195850829761
  0
LINE
  8
_0-2_
  6
CONTINUOUS
 62
    7
 10
111.75311981384039
 20
63.281195850829761
 11
111.65434853511624
 21
63.52249031021654
  0
LINE
  8
_0-2_
  6
CONTINUOUS
 62
    7
 10
111.65434853511624
 20
63.52249031021654
 11
111.51598324672869
 21
63.742631209032425
  0
LINE
  8
_0-2_
  6
CONTINUOUS
 62
    7
 10
111.51598324672869
 20
63.742631209032425
 11
111.34222810794921
 21
63.934929677463742
  0
LINE
  8
_0-2_
  6
CONTINUOUS
 62
    7
 10
111.34222810794921
 20
63.934929677463742
 11
111.21710197897573
 21
64.038981882133385
  0
ARC
  8
_0-2_
  6
CONTINUOUS
 62
    7
 10
101.62451883958602
 20
68.579072039415962
 40
0.2999999999999999
 50
109.47122063447162
 51
250.52877936552841
  0
ARC
  8
_0-2_
  6
CONTINUOUS
 62
    7
 10
101.62451883958602
 20
67.179072039415985
 40
0.2999999999999999
 50
109.47122063447165
 51
250.52877936551633
  0
ARC
  8
_0-2_
  6
CONTINUOUS
 62
    7
 10
101.62451883958602
 20
65.779072039416008
 40
0.2999999999999999
 50
109.47122063448369
 51
250.52877936552841
  0
ARC
  8
_0-2_
  6
CONTINUOUS
 62
    7
 10
101.62451883958602
 20
64.37907203941603
 40
0.2999999999999999
 50
109.47122063447162
 51
270
  0
ARC
  8
_0-2_
  6
CONTINUOUS
 62
    7
 10
101.62451883958602
 20
69.979072039415939
 40
0.2999999999999999
 50
90
 51
250.52877936552841
  0
LINE
  8
_0-2_
  6
CONTINUOUS
 62
    7
 10
40.002254107026374
 20
70.27907203941669
 11
41.20225410702642
 21
70.27907203941669
  0
LINE
  8
_0-2_
  6
CONTINUOUS
 62
    7
 10
41.20225410702642
 20
70.27907203941669
 11
41.20225410702642
 21
64.079072039416644
  0
LINE
  8
_0-2_
  6
CONTINUOUS
 62
    7
 10
41.20225410702642
 20
64.079072039416644
 11
40.002254107026602
 21
64.079072039416644
  0
LINE
  8
_0-2_
  6
CONTINUOUS
 62
    7
 10
39.902254107026465
 20
64.661914751891402
 11
39.902254107026465
 21
65.487650683192044
  0
LINE
  8
_0-2_
  6
CONTINUOUS
 62
    7
 10
39.902254107026465
 20
66.061914751891379
 11
39.902254107026465
 21
66.896229326942091
  0
LINE
  8
_0-2_
  6
CONTINUOUS
 62
    7
 10
39.902254107026465
 20
67.461914751891356
 11
39.902254107026465
 21
68.296229326941955
  0
LINE
  8
_0-2_
  6
CONTINUOUS
 62
    7
 10
39.902254107026465
 20
68.861914751891334
 11
39.902254107026465
 21
69.696229326942046
  0
LINE
  8
_0-2_
  6
CONTINUOUS
 62
    7
 10
41.402254107026465
 20
69.696229326942046
 11
41.402254107026465
 21
68.861914751891334
  0
LINE
  8
_0-2_
  6
CONTINUOUS
 62
    7
 10
41.402254107026465
 20
68.296229326941955
 11
41.402254107026465
 21
67.461914751891356
  0
LINE
  8
_0-2_
  6
CONTINUOUS
 62
    7
 10
41.402254107026465
 20
66.896229326942091
 11
41.402254107026465
 21
66.061914751891379
  0
LINE
  8
_0-2_
  6
CONTINUOUS
 62
    7
 10
41.402254107026465
 20
65.487650683192044
 11
41.402254107026465
 21
64.661914751891402
  0
LINE
  8
_0-2_
  6
CONTINUOUS
 62
    7
 10
41.502254107026374
 20
64.079072039416644
 11
44.084946414746355
 21
64.079072039416644
  0
LINE
  8
_0-2_
  6
CONTINUOUS
 62
    7
 10
43.20225410702642
 20
64.079072039416644
 11
43.20225410702642
 21
70.27907203941669
  0
LINE
  8
_0-2_
  6
CONTINUOUS
 62
    7
 10
43.20225410702642
 20
69.279072039310392
 11
44.103102654753457
 21
65.851137674669587
  0
LINE
  8
_0-2_
  6
CONTINUOUS
 62
    7
 10
43.976181776862404
 20
65.36817476152504
 11
43.20225410702642
 21
64.579072039363894
  0
LINE
  8
_0-2_
  6
CONTINUOUS
 62
    7
 10
43.202254107023691
 20
61.679072039417576
 11
43.908710690938733
 21
58.990843471763753
  0
LINE
  8
_0-2_
  6
CONTINUOUS
 62
    7
 10
44.992411743503681
 20
60.253328580593859
 11
44.533599391190592
 21
61.320047179507071
  0
LINE
  8
_0-2_
  6
CONTINUOUS
 62
    7
 10
43.994683894413129
 20
61.679072039407345
 11
43.20225410702642
 21
61.679072039407345
  0
LINE
  8
_0-2_
  6
CONTINUOUS
 62
    7
 10
48.3022541071864
 20
61.379072039407845
 11
48.3022541071864
 21
60.747021231849601
  0
LINE
  8
_0-2_
  6
CONTINUOUS
 62
    7
 10
48.170855945509174
 20
60.247021231849374
 11
47.113134610413681
 21
58.379072039417622
  0
LINE
  8
_0-2_
  6
CONTINUOUS
 62
    7
 10
46.263763541290928
 20
57.879072039417622
 11
45.329736185427691
 21
57.879072039417622
  0
LINE
  8
_0-2_
  6
CONTINUOUS
 62
    7
 10
45.556100260946323
 20
60.373816151075914
 11
45.556100260946323
 21
62.579072039416531
  0
LINE
  8
_0-2_
  6
CONTINUOUS
 62
    7
 10
48.275396160340279
 20
61.901600824808554
 11
48.302254107186627
 21
61.37907203940739
  0
LINE
  8
_0-2_
  6
CONTINUOUS
 62
    7
 10
51.932635091067141
 20
61.899047635818249
 11
51.90616047883691
 21
61.95098705301092
  0
LINE
  8
_0-2_
  6
CONTINUOUS
 62
    7
 10
51.90616047883691
 20
61.95098705301092
 11
51.714916663744134
 21
62.814510409601496
  0
LINE
  8
_0-2_
  6
CONTINUOUS
 62
    7
 10
51.714916663744134
 20
62.814510409601496
 11
51.687031235018367
 21
63.026079440920341
  0
LINE
  8
_0-2_
  6
CONTINUOUS
 62
    7
 10
51.636869491906509
 20
61.679072039408027
 11
51.071826101948091
 21
61.679072039408027
  0
LINE
  8
_0-2_
  6
CONTINUOUS
 62
    7
 10
51.071826101948091
 20
61.679072039408027
 11
50.396265927354534
 21
61.852651981853285
  0
LINE
  8
_0-2_
  6
CONTINUOUS
 62
    7
 10
50.396265927354534
 20
61.852651981853285
 11
49.675059795018342
 21
62.122589645672804
  0
LINE
  8
_0-2_
  6
CONTINUOUS
 62
    7
 10
49.675059795018342
 20
62.122589645672804
 11
48.93604969624198
 21
62.421734572483899
  0
LINE
  8
_0-2_
  6
CONTINUOUS
 62
    7
 10
49.300649669553877
 20
65.498594520629638
 11
50.447187671056781
 21
64.519712196608168
  0
LINE
  8
_0-2_
  6
CONTINUOUS
 62
    7
 10
50.447187671056781
 20
64.519712196608168
 11
51.094837246416319
 21
64.03898188213401
  0
LINE
  8
_0-2_
  6
CONTINUOUS
 62
    7
 10
47.929761933971122
 20
66.397394160994452
 11
45.60439070678467
 21
69.660749917855412
  0
LINE
  8
_0-2_
  6
CONTINUOUS
 62
    7
 10
44.414202243868885
 20
70.27907203941669
 11
41.502254107026374
 21
70.27907203941669
  0
LINE
  8
_0-2_
  6
CONTINUOUS
 62
    7
 10
45.007058170969572
 20
60.223816151075937
 11
45.036475645935525
 21
60.18097986816997
  0
LINE
  8
_0-2_
  6
CONTINUOUS
 62
    7
 10
45.036475645935525
 20
60.18097986816997
 11
45.072741598850371
 21
60.144002818140223
  0
LINE
  8
_0-2_
  6
CONTINUOUS
 62
    7
 10
45.072741598850371
 20
60.144002818140223
 11
45.114754107086469
 21
60.114008529940577
  0
LINE
  8
_0-2_
  6
CONTINUOUS
 62
    7
 10
45.114754107086469
 20
60.114008529940577
 11
45.161236641840105
 21
60.091908364840151
  0
LINE
  8
_0-2_
  6
CONTINUOUS
 62
    7
 10
45.161236641840105
 20
60.091908364840151
 11
45.210776854814412
 21
60.078373825172264
  0
LINE
  8
_0-2_
  6
CONTINUOUS
 62
    7
 10
45.210776854814412
 20
60.078373825172264
 11
45.26186949170642
 21
60.073816151075903
  0
LINE
  8
_0-2_
  6
CONTINUOUS
 62
    7
 10
45.26186949170642
 20
60.073816151075903
 11
45.312962128598429
 21
60.078373825172264
  0
LINE
  8
_0-2_
  6
CONTINUOUS
 62
    7
 10
45.312962128598429
 20
60.078373825172264
 11
45.362502341572736
 21
60.091908364840151
  0
LINE
  8
_0-2_
  6
CONTINUOUS
 62
    7
 10
45.362502341572736
 20
60.091908364840151
 11
45.408984876326372
 21
60.114008529940577
  0
LINE
  8
_0-2_
  6
CONTINUOUS
 62
    7
 10
45.408984876326372
 20
60.114008529940577
 11
45.45099738456247
 21
60.144002818140223
  0
LINE
  8
_0-2_
  6
CONTINUOUS
 62
    7
 10
45.45099738456247
 20
60.144002818140223
 11
45.487263337477316
 21
60.18097986816997
  0
LINE
  8
_0-2_
  6
CONTINUOUS
 62
    7
 10
45.487263337477316
 20
60.18097986816997
 11
45.516680812443269
 21
60.223816151075937
  0
LINE
  8
_0-2_
  6
CONTINUOUS
 62
    7
 10
45.516680812443269
 20
60.223816151075937
 11
45.538355974369438
 21
60.271210108078208
  0
LINE
  8
_0-2_
  6
CONTINUOUS
 62
    7
 10
45.538355974369438
 20
60.271210108078208
 11
45.551630234428671
 21
60.321721697775843
  0
LINE
  8
_0-2_
  6
CONTINUOUS
 62
    7
 10
45.551630234428671
 20
60.321721697775843
 11
45.556100260946437
 21
60.373816151075914
  0
LINE
  8
_0-2_
  6
CONTINUOUS
 62
    7
 10
43.908710690938619
 20
58.990843471763867
 11
43.996417998687662
 21
58.74514464680658
  0
LINE
  8
_0-2_
  6
CONTINUOUS
 62
    7
 10
43.996417998687662
 20
58.74514464680658
 11
44.124637504849375
 21
58.518707384891059
  0
LINE
  8
_0-2_
  6
CONTINUOUS
 62
    7
 10
44.124637504849375
 20
58.518707384891059
 11
44.289473324610981
 21
58.318411867637792
  0
LINE
  8
_0-2_
  6
CONTINUOUS
 62
    7
 10
44.289473324610981
 20
58.318411867637792
 11
44.485917005000147
 21
58.15034397298416
  0
LINE
  8
_0-2_
  6
CONTINUOUS
 62
    7
 10
44.485917005000147
 20
58.15034397298416
 11
44.707999704193526
 21
58.019610358862678
  0
LINE
  8
_0-2_
  6
CONTINUOUS
 62
    7
 10
44.707999704193526
 20
58.019610358862678
 11
44.94897355175533
 21
57.930183299984037
  0
LINE
  8
_0-2_
  6
CONTINUOUS
 62
    7
 10
44.94897355175533
 20
57.930183299984037
 11
45.201516679266092
 21
57.884779992280016
  0
LINE
  8
_0-2_
  6
CONTINUOUS
 62
    7
 10
45.201516679266092
 20
57.884779992280016
 11
45.329736185427691
 21
57.879072039417622
  0
LINE
  8
_0-2_
  6
CONTINUOUS
 62
    7
 10
48.170855945509288
 20
60.247021231849544
 11
48.24310648526307
 21
60.405001088523932
  0
LINE
  8
_0-2_
  6
CONTINUOUS
 62
    7
 10
48.24310648526307
 20
60.405001088523932
 11
48.287354018794076
 21
60.573373054182639
  0
LINE
  8
_0-2_
  6
CONTINUOUS
 62
    7
 10
48.287354018794076
 20
60.573373054182639
 11
48.3022541071864
 21
60.747021231849544
  0
LINE
  8
_0-2_
  6
CONTINUOUS
 62
    7
 10
46.263763541290928
 20
57.879072039417622
 11
46.434072330931144
 21
57.894264286405416
  0
LINE
  8
_0-2_
  6
CONTINUOUS
 62
    7
 10
46.434072330931144
 20
57.894264286405416
 11
46.599206374178493
 21
57.939379418631688
  0
LINE
  8
_0-2_
  6
CONTINUOUS
 62
    7
 10
46.599206374178493
 20
57.939379418631688
 11
46.754148156690917
 21
58.013046635633202
  0
LINE
  8
_0-2_
  6
CONTINUOUS
 62
    7
 10
46.754148156690917
 20
58.013046635633202
 11
46.894189850811017
 21
58.11302759629865
  0
LINE
  8
_0-2_
  6
CONTINUOUS
 62
    7
 10
46.894189850811017
 20
58.11302759629865
 11
47.01507636052736
 21
58.236284429731086
  0
LINE
  8
_0-2_
  6
CONTINUOUS
 62
    7
 10
47.01507636052736
 20
58.236284429731086
 11
47.113134610413795
 21
58.379072039417565
  0
LINE
  8
_0-2_
  6
CONTINUOUS
 62
    7
 10
45.556100260946323
 20
62.579072039416531
 11
45.533750128357838
 21
62.839544305916945
  0
LINE
  8
_0-2_
  6
CONTINUOUS
 62
    7
 10
45.533750128357838
 20
62.839544305916945
 11
45.467378828061328
 21
63.092102254405063
  0
LINE
  8
_0-2_
  6
CONTINUOUS
 62
    7
 10
45.467378828061328
 20
63.092102254405063
 11
45.359003018430712
 21
63.329072039416531
  0
LINE
  8
_0-2_
  6
CONTINUOUS
 62
    7
 10
45.359003018430712
 20
63.329072039416531
 11
45.211915643600946
 21
63.543253453946363
  0
LINE
  8
_0-2_
  6
CONTINUOUS
 62
    7
 10
45.211915643600946
 20
63.543253453946363
 11
45.030585879026376
 21
63.728138704094988
  0
LINE
  8
_0-2_
  6
CONTINUOUS
 62
    7
 10
45.030585879026376
 20
63.728138704094988
 11
44.820523337846339
 21
63.87811014509316
  0
LINE
  8
_0-2_
  6
CONTINUOUS
 62
    7
 10
44.820523337846339
 20
63.87811014509316
 11
44.588110664077817
 21
63.988610970595403
  0
LINE
  8
_0-2_
  6
CONTINUOUS
 62
    7
 10
44.588110664077817
 20
63.988610970595403
 11
44.340409599206623
 21
64.056283668934839
  0
LINE
  8
_0-2_
  6
CONTINUOUS
 62
    7
 10
44.340409599206623
 20
64.056283668934839
 11
44.084946414746355
 21
64.079072039416531
  0
LINE
  8
_0-2_
  6
CONTINUOUS
 62
    7
 10
43.976181776862632
 20
65.368174761524983
 11
44.031127050116538
 21
65.434939933942701
  0
LINE
  8
_0-2_
  6
CONTINUOUS
 62
    7
 10
44.031127050116538
 20
65.434939933942701
 11
44.073866885503776
 21
65.510419021247912
  0
LINE
  8
_0-2_
  6
CONTINUOUS
 62
    7
 10
44.073866885503776
 20
65.510419021247912
 11
44.103102654753457
 21
65.592318629566989
  0
LINE
  8
_0-2_
  6
CONTINUOUS
 62
    7
 10
44.103102654753457
 20
65.592318629566989
 11
44.117946043811003
 21
65.678150280744433
  0
LINE
  8
_0-2_
  6
CONTINUOUS
 62
    7
 10
44.117946043811003
 20
65.678150280744433
 11
44.117946043811003
 21
65.765306023492087
  0
LINE
  8
_0-2_
  6
CONTINUOUS
 62
    7
 10
44.117946043811003
 20
65.765306023492087
 11
44.103102654753457
 21
65.85113767466953
  0
LINE
  8
_0-2_
  6
CONTINUOUS
 62
    7
 10
48.936049696243913
 20
62.421734572482933
 11
48.853739825641242
 21
62.44524884533547
  0
LINE
  8
_0-2_
  6
CONTINUOUS
 62
    7
 10
48.853739825641242
 20
62.44524884533547
 11
48.768675739573496
 21
62.453832670414727
  0
LINE
  8
_0-2_
  6
CONTINUOUS
 62
    7
 10
48.768675739573496
 20
62.453832670414727
 11
48.683442067251349
 21
62.447225232539154
  0
LINE
  8
_0-2_
  6
CONTINUOUS
 62
    7
 10
48.683442067251349
 20
62.447225232539154
 11
48.600628590677957
 21
62.425627295365246
  0
LINE
  8
_0-2_
  6
CONTINUOUS
 62
    7
 10
48.600628590677957
 20
62.425627295365246
 11
48.522751555433388
 21
62.389695101284872
  0
LINE
  8
_0-2_
  6
CONTINUOUS
 62
    7
 10
48.522751555433388
 20
62.389695101284872
 11
48.452177215825941
 21
62.340520431832545
  0
LINE
  8
_0-2_
  6
CONTINUOUS
 62
    7
 10
48.452177215825941
 20
62.340520431832545
 11
48.391049937452181
 21
62.279597434456093
  0
LINE
  8
_0-2_
  6
CONTINUOUS
 62
    7
 10
48.391049937452181
 20
62.279597434456093
 11
48.341227041733646
 21
62.208777223602169
  0
LINE
  8
_0-2_
  6
CONTINUOUS
 62
    7
 10
48.341227041733646
 20
62.208777223602169
 11
48.304222372145091
 21
62.130211635540945
  0
LINE
  8
_0-2_
  6
CONTINUOUS
 62
    7
 10
48.304222372145091
 20
62.130211635540945
 11
48.281160296846679
 21
62.046287845909433
  0
LINE
  8
_0-2_
  6
CONTINUOUS
 62
    7
 10
48.281160296846679
 20
62.046287845909433
 11
48.272741545326426
 21
61.959555836588152
  0
LINE
  8
_0-2_
  6
CONTINUOUS
 62
    7
 10
48.272741545326426
 20
61.959555836588152
 11
48.275396160340051
 21
61.901600824808384
  0
LINE
  8
_0-2_
  6
CONTINUOUS
 62
    7
 10
45.604390706784784
 20
69.660749917855412
 11
45.436151577364626
 21
69.858081739924671
  0
LINE
  8
_0-2_
  6
CONTINUOUS
 62
    7
 10
45.436151577364626
 20
69.858081739924671
 11
45.236861034577601
 21
70.022628398249253
  0
LINE
  8
_0-2_
  6
CONTINUOUS
 62
    7
 10
45.236861034577601
 20
70.022628398249253
 11
45.012574420720284
 21
70.149390225880609
  0
LINE
  8
_0-2_
  6
CONTINUOUS
 62
    7
 10
45.012574420720284
 20
70.149390225880609
 11
44.770106571060296
 21
70.23451562883065
  0
LINE
  8
_0-2_
  6
CONTINUOUS
 62
    7
 10
44.770106571060296
 20
70.23451562883065
 11
44.516824748514864
 21
70.275418114806428
  0
LINE
  8
_0-2_
  6
CONTINUOUS
 62
    7
 10
44.516824748514864
 20
70.275418114806428
 11
44.414202243868885
 21
70.27907203941669
  0
LINE
  8
_0-2_
  6
CONTINUOUS
 62
    7
 10
44.533599391190592
 20
61.320047179507128
 11
44.48437186941419
 21
61.411802854764801
  0
LINE
  8
_0-2_
  6
CONTINUOUS
 62
    7
 10
44.48437186941419
 20
61.411802854764801
 11
44.420265426311516
 21
61.493448672567752
  0
LINE
  8
_0-2_
  6
CONTINUOUS
 62
    7
 10
44.420265426311516
 20
61.493448672567752
 11
44.343227903716752
 21
61.562503866056886
  0
LINE
  8
_0-2_
  6
CONTINUOUS
 62
    7
 10
44.343227903716752
 20
61.562503866056886
 11
44.255600047771054
 21
61.616870228121513
  0
LINE
  8
_0-2_
  6
CONTINUOUS
 62
    7
 10
44.255600047771054
 20
61.616870228121513
 11
44.160044386535446
 21
61.654895864361094
  0
LINE
  8
_0-2_
  6
CONTINUOUS
 62
    7
 10
44.160044386535446
 20
61.654895864361094
 11
44.059464330423225
 21
61.675425385060407
  0
LINE
  8
_0-2_
  6
CONTINUOUS
 62
    7
 10
44.059464330423225
 20
61.675425385060407
 11
43.994683894413129
 21
61.679072039407345
  0
LINE
  8
_0-2_
  6
CONTINUOUS
 62
    7
 10
51.833023338066255
 20
61.665678914139903
 11
51.636869491906509
 21
61.679072039408027
  0
LINE
  8
_0-2_
  6
CONTINUOUS
 62
    7
 10
51.833023338066255
 20
61.665678914139903
 11
51.857964376522091
 21
61.671758570853967
  0
LINE
  8
_0-2_
  6
CONTINUOUS
 62
    7
 10
51.857964376522091
 20
61.671758570853967
 11
51.881491085585139
 21
61.682161750698072
  0
LINE
  8
_0-2_
  6
CONTINUOUS
 62
    7
 10
51.881491085585139
 20
61.682161750698072
 11
51.902888618105749
 21
61.696572358316814
  0
LINE
  8
_0-2_
  6
CONTINUOUS
 62
    7
 10
51.902888618105749
 20
61.696572358316814
 11
51.921506820885725
 21
61.714552534689915
  0
LINE
  8
_0-2_
  6
CONTINUOUS
 62
    7
 10
51.921506820885725
 20
61.714552534689915
 11
51.936779989255001
 21
61.735555961256637
  0
LINE
  8
_0-2_
  6
CONTINUOUS
 62
    7
 10
51.936779989255001
 20
61.735555961256637
 11
51.948244055721261
 21
61.758944459528948
  0
LINE
  8
_0-2_
  6
CONTINUOUS
 62
    7
 10
51.948244055721261
 20
61.758944459528948
 11
51.95555069042598
 21
61.78400738182205
  0
LINE
  8
_0-2_
  6
CONTINUOUS
 62
    7
 10
51.95555069042598
 20
61.78400738182205
 11
51.958477884971103
 21
61.80998320392456
  0
LINE
  8
_0-2_
  6
CONTINUOUS
 62
    7
 10
51.958477884971103
 20
61.80998320392456
 11
51.956936698031541
 21
61.8360826636262
  0
LINE
  8
_0-2_
  6
CONTINUOUS
 62
    7
 10
51.956936698031541
 20
61.8360826636262
 11
51.950973957792485
 21
61.861512742050934
  0
LINE
  8
_0-2_
  6
CONTINUOUS
 62
    7
 10
51.950973957792485
 20
61.861512742050934
 11
51.940770839098946
 21
61.885500759134118
  0
LINE
  8
_0-2_
  6
CONTINUOUS
 62
    7
 10
51.940770839098946
 20
61.885500759134118
 11
51.932635091067141
 21
61.899047635818306
  0
LINE
  8
_0-2_
  6
CONTINUOUS
 62
    7
 10
47.929761933971236
 20
66.397394160994565
 11
48.098001063391393
 21
66.200062338925306
  0
LINE
  8
_0-2_
  6
CONTINUOUS
 62
    7
 10
48.098001063391393
 20
66.200062338925306
 11
48.297291606178419
 21
66.035515680600724
  0
LINE
  8
_0-2_
  6
CONTINUOUS
 62
    7
 10
48.297291606178419
 20
66.035515680600724
 11
48.521578220035735
 21
65.908753852969369
  0
LINE
  8
_0-2_
  6
CONTINUOUS
 62
    7
 10
48.521578220035735
 20
65.908753852969369
 11
48.683432243861375
 21
65.846624424995014
  0
LINE
  8
_0-2_
  6
CONTINUOUS
 62
    7
 10
48.683432243861375
 20
65.8466244249949
 11
48.924292589624997
 21
65.756880045773983
  0
LINE
  8
_0-2_
  6
CONTINUOUS
 62
    7
 10
48.924292589624997
 20
65.756880045773983
 11
49.146209468924098
 21
65.625854027958098
  0
LINE
  8
_0-2_
  6
CONTINUOUS
 62
    7
 10
49.146209468924098
 20
65.625854027958098
 11
49.300649669553877
 21
65.498594520629581
  0
LINE
  8
_0-2_
  6
CONTINUOUS
 62
    7
 10
51.687031235018139
 20
63.026079440920341
 11
51.630855081280743
 21
63.281195850830386
  0
LINE
  8
_0-2_
  6
CONTINUOUS
 62
    7
 10
51.630855081280743
 20
63.281195850830386
 11
51.532083802556599
 21
63.522490310217108
  0
LINE
  8
_0-2_
  6
CONTINUOUS
 62
    7
 10
51.532083802556599
 20
63.522490310217108
 11
51.393718514168995
 21
63.742631209033107
  0
LINE
  8
_0-2_
  6
CONTINUOUS
 62
    7
 10
51.393718514168995
 20
63.742631209033107
 11
51.219963375389511
 21
63.934929677464368
  0
LINE
  8
_0-2_
  6
CONTINUOUS
 62
    7
 10
51.219963375389511
 20
63.934929677464368
 11
51.094837246416091
 21
64.03898188213401
  0
ARC
  8
_0-2_
  6
CONTINUOUS
 62
    7
 10
40.002254107026374
 20
69.979072039416621
 40
0.2999999999999999
 50
89.999999999999972
 51
250.52877936552841
  0
ARC
  8
_0-2_
  6
CONTINUOUS
 62
    7
 10
40.002254107026374
 20
68.579072039416644
 40
0.2999999999999999
 50
109.47122063447162
 51
250.52877936552841
  0
ARC
  8
_0-2_
  6
CONTINUOUS
 62
    7
 10
40.002254107026374
 20
67.179072039416667
 40
0.2999999999999999
 50
109.47122063447165
 51
250.52877936551633
  0
ARC
  8
_0-2_
  6
CONTINUOUS
 62
    7
 10
40.002254107026374
 20
65.77907203941669
 40
0.2999999999999999
 50
109.47122063448369
 51
250.52877936552841
  0
ARC
  8
_0-2_
  6
CONTINUOUS
 62
    7
 10
40.002254107026374
 20
64.379072039416712
 40
0.2999999999999999
 50
109.47122063447162
 51
270
  0
ARC
  8
_0-2_
  6
CONTINUOUS
 62
    7
 10
41.502254107026374
 20
68.579072039416644
 40
0.2999999999999999
 50
109.47122063447162
 51
250.52877936552841
  0
ARC
  8
_0-2_
  6
CONTINUOUS
 62
    7
 10
41.502254107026374
 20
67.179072039416667
 40
0.2999999999999999
 50
109.47122063447165
 51
250.52877936551633
  0
ARC
  8
_0-2_
  6
CONTINUOUS
 62
    7
 10
41.502254107026374
 20
65.77907203941669
 40
0.2999999999999999
 50
109.47122063448369
 51
250.52877936552841
  0
ARC
  8
_0-2_
  6
CONTINUOUS
 62
    7
 10
41.502254107026374
 20
64.379072039416712
 40
0.2999999999999999
 50
109.47122063447162
 51
270
  0
ARC
  8
_0-2_
  6
CONTINUOUS
 62
    7
 10
41.502254107026374
 20
69.979072039416621
 40
0.2999999999999999
 50
90
 51
250.52877936552841
  0
LINE
  8
_0-3_
  6
CONTINUOUS
 62
    5
 10
156.25254033389075
 20
64.179072039407345
 11
161.25254033389069
 21
64.179072039407345
  0
LINE
  8
_0-3_
  6
CONTINUOUS
 62
    7
 10
105.11279500517162
 20
59.012893197866731
 11
104.68222358979733
 21
59.012893197866731
  0
LINE
  8
_0-3_
  6
CONTINUOUS
 62
    5
 10
101.32451883974568
 20
64.179072039407856
 11
98.324518839745679
 21
64.179072039407856
  0
LINE
  8
_0-3_
  6
CONTINUOUS
 62
    5
 10
98.324518839745679
 20
64.179072039407856
 11
98.324518839745679
 21
73.417174208767449
  0
LINE
  8
_0-3_
  6
CONTINUOUS
 62
    5
 10
101.32451883974568
 20
73.417174208767449
 11
101.32451883974568
 21
64.179072039407856
  0
LINE
  8
_0-3_
  6
CONTINUOUS
 62
    7
 10
44.559958857237689
 20
59.012893197867413
 11
44.990530272611977
 21
59.012893197867413
  0
LINE
  8
_0-3_
  6
CONTINUOUS
 62
    5
 10
39.702254107186036
 20
64.179072039408481
 11
38.202254107186036
 21
64.179072039408481
  0
LINE
  8
_0-3_
  6
CONTINUOUS
 62
    5
 10
38.202254107186036
 20
64.179072039408481
 11
38.202254107186036
 21
73.417174208767449
  0
LINE
  8
_0-3_
  6
CONTINUOUS
 62
    5
 10
39.702254107186036
 20
73.417174208767449
 11
39.702254107186036
 21
64.179072039408481
  0
LINE
  8
_0-3_
  6
CONTINUOUS
 62
    5
 10
156.25254033389075
 20
73.417174208767449
 11
156.25254033389075
 21
64.179072039407345
  0
LINE
  8
_0-3_
  6
CONTINUOUS
 62
    5
 10
161.25254033389069
 20
64.179072039407345
 11
161.25254033389069
 21
73.417174208767449
  0
LINE
  8
_0-0_
  6
CONTINUOUS
 62
    7
 10
154.39922708343721
 20
69.839237723167003
 11
154.0525403338907
 21
66.97907203940764
  0
LINE
  8
_0-0_
  6
CONTINUOUS
 62
    7
 10
154.0525403338907
 20
66.97907203940764
 11
154.0525403338907
 21
62.679072039407401
  0
LINE
  8
_0-0_
  6
CONTINUOUS
 62
    7
 10
155.0525403338907
 20
61.679072039407401
 11
159.15254033389039
 21
61.679072039407401
  0
LINE
  8
_0-0_
  6
CONTINUOUS
 62
    7
 10
159.15254033389039
 20
61.679072039407401
 11
159.15254033389039
 21
59.890396904812917
  0
LINE
  8
_0-0_
  6
CONTINUOUS
 62
    7
 10
159.15254033389039
 20
59.890396904812917
 11
158.85254033389043
 21
59.717191824056044
  0
LINE
  8
_0-0_
  6
CONTINUOUS
 62
    7
 10
158.85254033389043
 20
59.717191824056044
 11
158.97659378292821
 21
58.299254413217511
  0
LINE
  8
_0-0_
  6
CONTINUOUS
 62
    7
 10
159.97278848101979
 20
58.38641015596528
 11
159.92349250815693
 21
58.94986570410299
  0
LINE
  8
_0-0_
  6
CONTINUOUS
 62
    7
 10
159.92349250815693
 20
58.94986570410299
 11
160.65254033389033
 21
59.370781662542186
  0
LINE
  8
_0-0_
  6
CONTINUOUS
 62
    7
 10
160.65254033389033
 20
59.370781662542186
 11
160.65254033389033
 21
61.179072039406833
  0
LINE
  8
_0-0_
  6
CONTINUOUS
 62
    7
 10
161.15254033389033
 20
61.679072039406833
 11
161.8525403338906
 21
61.679072039406833
  0
LINE
  8
_0-0_
  6
CONTINUOUS
 62
    7
 10
161.8525403338906
 20
61.679072039406833
 11
161.8525403338906
 21
63.379072039407902
  0
LINE
  8
_0-0_
  6
CONTINUOUS
 62
    7
 10
161.55254033389065
 20
63.679072039407288
 11
156.25254033389075
 21
63.679072039407288
  0
LINE
  8
_0-0_
  6
CONTINUOUS
 62
    7
 10
156.15254033389073
 20
63.779072039407254
 11
156.15254033389073
 21
63.879072039407276
  0
LINE
  8
_0-0_
  6
CONTINUOUS
 62
    7
 10
156.25254033389075
 20
64.052277120164206
 11
156.25254033389075
 21
70.279072039406799
  0
LINE
  8
_0-0_
  6
CONTINUOUS
 62
    7
 10
156.25254033389075
 20
70.279072039407367
 11
154.89559397445413
 21
70.279072039407367
  0
LINE
  8
_0-0_
  6
CONTINUOUS
 62
    7
 10
167.60100831083514
 20
58.395827580805133
 11
167.35101684445613
 21
57.304149557964593
  0
LINE
  8
_0-0_
  6
CONTINUOUS
 62
    7
 10
168.32578506794266
 20
57.080930135689186
 11
168.73361650150514
 21
58.861873379442329
  0
ARC
  8
_0-0_
  6
CONTINUOUS
 62
    7
 10
164.55580771122891
 20
107.99288361181192
 40
52.499999999999979
 50
267.00000000000011
 51
272.11452583200412
  0
ARC
  8
_0-0_
  6
CONTINUOUS
 62
    7
 10
164.55580771122891
 20
107.99288361181192
 40
51.499999999999979
 50
267.00000000000011
 51
272.11540838371081
  0
ARC
  8
_0-0_
  6
CONTINUOUS
 62
    7
 10
161.55254033389065
 20
63.379072039407902
 40
0.2999999999999999
 50
0
 51
90
  0
ARC
  8
_0-0_
  6
CONTINUOUS
 62
    7
 10
161.15254033389033
 20
61.179072039406833
 40
0.5
 50
90
 51
180
  0
ARC
  8
_0-0_
  6
CONTINUOUS
 62
    7
 10
161.96517787720336
 20
58.560721641460589
 40
3
 50
185.00000000000171
 51
267
  0
ARC
  8
_0-0_
  6
CONTINUOUS
 62
    7
 10
161.96517787720313
 20
58.560721641460589
 40
2
 50
184.9999999999996
 51
267.00000000000006
  0
ARC
  8
_0-0_
  6
CONTINUOUS
 62
    7
 10
168.00254033389024
 20
59.02928794614877
 40
0.75
 50
347.10180414975696
 51
237.63058351526001
  0
ARC
  8
_0-0_
  6
CONTINUOUS
 62
    7
 10
166.37624862096959
 20
57.527368980239771
 40
2
 50
272.03662491312815
 51
347.10180414975412
  0
ARC
  8
_0-0_
  6
CONTINUOUS
 62
    7
 10
166.37624862096959
 20
57.527368980239771
 40
1
 50
272.00417538692437
 51
347.10180414976065
  0
ARC
  8
_0-0_
  6
CONTINUOUS
 62
    7
 10
156.25254033389075
 20
63.779072039407254
 40
0.1
 50
180
 51
270
  0
ARC
  8
_0-0_
  6
CONTINUOUS
 62
    7
 10
156.25254033389075
 20
63.879072039407276
 40
0.1
 50
119.99999999999669
 51
180
  0
ARC
  8
_0-0_
  6
CONTINUOUS
 62
    7
 10
156.15254033389073
 20
64.052277120164206
 40
0.1
 50
299.99999999999369
 51
0.0000000000000127
  0
ARC
  8
_0-0_
  6
CONTINUOUS
 62
    7
 10
154.89559397445413
 20
69.779072039407367
 40
0.5
 50
89.999999999999929
 51
173.08877288097548
  0
ARC
  8
_0-0_
  6
CONTINUOUS
 62
    7
 10
155.0525403338907
 20
62.679072039407401
 40
1
 50
180
 51
270
  0
LINE
  8
_0-0_
  6
CONTINUOUS
 62
    7
 10
96.47120558929214
 20
69.839237723167571
 11
96.124518839745633
 21
66.979072039408209
  0
LINE
  8
_0-0_
  6
CONTINUOUS
 62
    7
 10
96.124518839745633
 20
66.979072039408209
 11
96.124518839745633
 21
62.679072039407913
  0
LINE
  8
_0-0_
  6
CONTINUOUS
 62
    7
 10
97.124518839745633
 20
61.679072039407913
 11
101.22451883974531
 21
61.679072039407913
  0
LINE
  8
_0-0_
  6
CONTINUOUS
 62
    7
 10
101.22451883974531
 20
61.679072039407913
 11
101.22451883974531
 21
59.890396904813429
  0
LINE
  8
_0-0_
  6
CONTINUOUS
 62
    7
 10
101.22451883974531
 20
59.890396904813429
 11
100.92451883974536
 21
59.717191824056556
  0
LINE
  8
_0-0_
  6
CONTINUOUS
 62
    7
 10
100.92451883974536
 20
59.717191824056556
 11
101.04857228878313
 21
58.299254413218023
  0
LINE
  8
_0-0_
  6
CONTINUOUS
 62
    7
 10
102.04476698687472
 20
58.386410155965791
 11
101.99547101401186
 21
58.949865704103502
  0
LINE
  8
_0-0_
  6
CONTINUOUS
 62
    7
 10
101.99547101401186
 20
58.949865704103502
 11
102.72451883974531
 21
59.370781662542697
  0
LINE
  8
_0-0_
  6
CONTINUOUS
 62
    7
 10
102.72451883974531
 20
59.370781662542697
 11
102.72451883974531
 21
61.179072039407345
  0
LINE
  8
_0-0_
  6
CONTINUOUS
 62
    7
 10
103.22451883974531
 20
61.679072039407345
 11
103.92451883974559
 21
61.679072039407345
  0
LINE
  8
_0-0_
  6
CONTINUOUS
 62
    7
 10
103.92451883974559
 20
61.679072039407345
 11
103.92451883974559
 21
63.379072039408413
  0
LINE
  8
_0-0_
  6
CONTINUOUS
 62
    7
 10
103.62451883974563
 20
63.679072039407799
 11
98.324518839745679
 21
63.679072039407799
  0
LINE
  8
_0-0_
  6
CONTINUOUS
 62
    7
 10
98.224518839745656
 20
63.779072039407822
 11
98.224518839745656
 21
63.879072039407845
  0
LINE
  8
_0-0_
  6
CONTINUOUS
 62
    7
 10
98.324518839745679
 20
64.052277120164717
 11
98.324518839745679
 21
70.279072039407367
  0
LINE
  8
_0-0_
  6
CONTINUOUS
 62
    7
 10
98.324518839745679
 20
70.279072039407936
 11
96.967572480309059
 21
70.279072039407936
  0
LINE
  8
_0-0_
  6
CONTINUOUS
 62
    7
 10
109.67298681669013
 20
58.395827580805644
 11
109.42299535031111
 21
57.304149557965104
  0
LINE
  8
_0-0_
  6
CONTINUOUS
 62
    7
 10
110.39776357379765
 20
57.080930135689698
 11
110.80559500736013
 21
58.861873379442841
  0
ARC
  8
_0-0_
  6
CONTINUOUS
 62
    7
 10
106.62778621708389
 20
107.99288361181243
 40
52.499999999999979
 50
267.00000000000011
 51
272.11452583200412
  0
ARC
  8
_0-0_
  6
CONTINUOUS
 62
    7
 10
106.62778621708389
 20
107.99288361181243
 40
51.499999999999979
 50
267.00000000000011
 51
272.11540838371081
  0
ARC
  8
_0-0_
  6
CONTINUOUS
 62
    7
 10
103.62451883974563
 20
63.379072039408413
 40
0.2999999999999999
 50
0
 51
90
  0
ARC
  8
_0-0_
  6
CONTINUOUS
 62
    7
 10
103.22451883974531
 20
61.179072039407345
 40
0.5
 50
90
 51
180
  0
ARC
  8
_0-0_
  6
CONTINUOUS
 62
    7
 10
104.03715638305835
 20
58.5607216414611
 40
3
 50
185.00000000000171
 51
267
  0
ARC
  8
_0-0_
  6
CONTINUOUS
 62
    7
 10
104.03715638305812
 20
58.5607216414611
 40
2
 50
184.9999999999996
 51
267.00000000000006
  0
ARC
  8
_0-0_
  6
CONTINUOUS
 62
    7
 10
110.07451883974522
 20
59.029287946149282
 40
0.75
 50
347.10180414975696
 51
237.63058351526001
  0
ARC
  8
_0-0_
  6
CONTINUOUS
 62
    7
 10
108.44822712682458
 20
57.52736898024034
 40
2
 50
272.03662491312815
 51
347.10180414975412
  0
ARC
  8
_0-0_
  6
CONTINUOUS
 62
    7
 10
108.44822712682458
 20
57.52736898024034
 40
1
 50
272.00417538692437
 51
347.10180414976065
  0
ARC
  8
_0-0_
  6
CONTINUOUS
 62
    7
 10
98.324518839745679
 20
63.779072039407822
 40
0.1
 50
180
 51
270
  0
ARC
  8
_0-0_
  6
CONTINUOUS
 62
    7
 10
98.324518839745679
 20
63.879072039407845
 40
0.1
 50
119.99999999999669
 51
180
  0
ARC
  8
_0-0_
  6
CONTINUOUS
 62
    7
 10
98.224518839745656
 20
64.052277120164717
 40
0.1
 50
299.99999999999369
 51
0.0000000000000127
  0
ARC
  8
_0-0_
  6
CONTINUOUS
 62
    7
 10
96.967572480309059
 20
69.779072039407936
 40
0.5
 50
89.999999999999929
 51
173.08877288097548
  0
ARC
  8
_0-0_
  6
CONTINUOUS
 62
    7
 10
97.124518839745633
 20
62.679072039407913
 40
1
 50
180
 51
270
  0
LINE
  8
_0-0_
  6
CONTINUOUS
 62
    7
 10
36.348940856732497
 20
69.839237723168196
 11
36.002254107185991
 21
66.979072039408891
  0
LINE
  8
_0-0_
  6
CONTINUOUS
 62
    7
 10
36.002254107185991
 20
66.979072039408891
 11
36.002254107185991
 21
62.679072039408481
  0
LINE
  8
_0-0_
  6
CONTINUOUS
 62
    7
 10
37.002254107185991
 20
61.679072039408481
 11
41.102254107185672
 21
61.679072039408481
  0
LINE
  8
_0-0_
  6
CONTINUOUS
 62
    7
 10
41.102254107185672
 20
61.679072039408481
 11
41.102254107185672
 21
59.890396904814054
  0
LINE
  8
_0-0_
  6
CONTINUOUS
 62
    7
 10
41.102254107185672
 20
59.890396904814054
 11
40.802254107185718
 21
59.717191824057124
  0
LINE
  8
_0-0_
  6
CONTINUOUS
 62
    7
 10
40.802254107185718
 20
59.717191824057124
 11
40.926307556223492
 21
58.299254413218648
  0
LINE
  8
_0-0_
  6
CONTINUOUS
 62
    7
 10
41.922502254315077
 20
58.386410155966416
 11
41.873206281452212
 21
58.949865704104184
  0
LINE
  8
_0-0_
  6
CONTINUOUS
 62
    7
 10
41.873206281452212
 20
58.949865704104184
 11
42.602254107185672
 21
59.370781662543266
  0
LINE
  8
_0-0_
  6
CONTINUOUS
 62
    7
 10
42.602254107185672
 20
59.370781662543266
 11
42.602254107185672
 21
61.179072039408027
  0
LINE
  8
_0-0_
  6
CONTINUOUS
 62
    7
 10
43.102254107185672
 20
61.679072039408027
 11
43.802254107185945
 21
61.679072039408027
  0
LINE
  8
_0-0_
  6
CONTINUOUS
 62
    7
 10
43.802254107185945
 20
61.679072039408027
 11
43.802254107185945
 21
63.379072039408982
  0
LINE
  8
_0-0_
  6
CONTINUOUS
 62
    7
 10
43.502254107185991
 20
63.679072039408481
 11
38.202254107186036
 21
63.679072039408481
  0
LINE
  8
_0-0_
  6
CONTINUOUS
 62
    7
 10
38.102254107186127
 20
63.779072039408391
 11
38.102254107186127
 21
63.879072039408527
  0
LINE
  8
_0-0_
  6
CONTINUOUS
 62
    7
 10
38.202254107186036
 20
64.052277120165343
 11
38.202254107186036
 21
70.279072039407936
  0
LINE
  8
_0-0_
  6
CONTINUOUS
 62
    7
 10
38.202254107186036
 20
70.279072039408618
 11
36.84530774774953
 21
70.279072039408618
  0
LINE
  8
_0-0_
  6
CONTINUOUS
 62
    7
 10
49.550722084130484
 20
58.395827580806269
 11
49.300730617751469
 21
57.304149557965673
  0
LINE
  8
_0-0_
  6
CONTINUOUS
 62
    7
 10
50.275498841238004
 20
57.080930135690267
 11
50.683330274800483
 21
58.861873379443466
  0
ARC
  8
_0-0_
  6
CONTINUOUS
 62
    7
 10
46.505521484524252
 20
107.99288361181317
 40
52.499999999999979
 50
267.00000000000011
 51
272.11452583200412
  0
ARC
  8
_0-0_
  6
CONTINUOUS
 62
    7
 10
46.505521484524252
 20
107.99288361181317
 40
51.499999999999979
 50
267.00000000000011
 51
272.11540838371081
  0
ARC
  8
_0-0_
  6
CONTINUOUS
 62
    7
 10
43.502254107185991
 20
63.379072039408982
 40
0.2999999999999999
 50
0
 51
90
  0
ARC
  8
_0-0_
  6
CONTINUOUS
 62
    7
 10
43.102254107185672
 20
61.179072039408027
 40
0.5
 50
90
 51
180
  0
ARC
  8
_0-0_
  6
CONTINUOUS
 62
    7
 10
43.914891650498703
 20
58.560721641461726
 40
3
 50
185.00000000000171
 51
267
  0
ARC
  8
_0-0_
  6
CONTINUOUS
 62
    7
 10
43.914891650498475
 20
58.560721641461726
 40
2
 50
184.9999999999996
 51
267.00000000000006
  0
ARC
  8
_0-0_
  6
CONTINUOUS
 62
    7
 10
49.952254107185581
 20
59.02928794614985
 40
0.75
 50
347.10180414975696
 51
237.63058351526001
  0
ARC
  8
_0-0_
  6
CONTINUOUS
 62
    7
 10
48.325962394264934
 20
57.527368980240965
 40
2
 50
272.03662491312815
 51
347.10180414975412
  0
ARC
  8
_0-0_
  6
CONTINUOUS
 62
    7
 10
48.325962394264934
 20
57.527368980240965
 40
1
 50
272.00417538692437
 51
347.10180414976065
  0
ARC
  8
_0-0_
  6
CONTINUOUS
 62
    7
 10
38.202254107186036
 20
63.779072039408391
 40
0.1
 50
180
 51
270
  0
ARC
  8
_0-0_
  6
CONTINUOUS
 62
    7
 10
38.202254107186036
 20
63.879072039408527
 40
0.1
 50
119.99999999999669
 51
180
  0
ARC
  8
_0-0_
  6
CONTINUOUS
 62
    7
 10
38.102254107186127
 20
64.052277120165343
 40
0.1
 50
299.99999999999369
 51
0.0000000000000127
  0
ARC
  8
_0-0_
  6
CONTINUOUS
 62
    7
 10
36.84530774774953
 20
69.779072039408618
 40
0.5
 50
89.999999999999929
 51
173.08877288097548
  0
ARC
  8
_0-0_
  6
CONTINUOUS
 62
    7
 10
37.002254107185991
 20
62.679072039408481
 40
1
 50
180
 51
270
  0
LINE
  8
_0-1_
  6
PHANTOM1
 62
    7
 10
33.202254107186263
 20
61.679072039408481
 11
40.802254107186172
 21
61.679072039408481
  0
ARC
  8
_0-1_
  6
PHANTOM1
 62
    7
 10
33.202254107186263
 20
60.679072039408481
 40
1
 50
90
 51
180
  0
LINE
  8
_0-1_
  6
PHANTOM1
 62
    7
 10
32.202254107186263
 20
53.079072039408118
 11
32.202254107186263
 21
60.679072039408481
  0
LINE
  8
_0-1_
  6
PHANTOM1
 62
    7
 10
33.702254107186263
 20
52.779072039408391
 11
32.502254107186218
 21
52.779072039408391
  0
ARC
  8
_0-1_
  6
PHANTOM1
 62
    7
 10
33.702254107186263
 20
53.079072039408118
 40
0.2999999999999998
 50
270
 51
0
  0
ARC
  8
_0-1_
  6
PHANTOM1
 62
    7
 10
32.502254107186218
 20
53.079072039408118
 40
0.2999999999999998
 50
180
 51
270
  0
LINE
  8
_0-1_
  6
PHANTOM1
 62
    7
 10
34.002254107185991
 20
54.8790720394083
 11
34.002254107185991
 21
53.079072039408118
  0
ARC
  8
_0-1_
  6
PHANTOM1
 62
    7
 10
34.302254107186172
 20
54.8790720394083
 40
0.2999999999999998
 50
90
 51
180
  0
LINE
  8
_0-1_
  6
PHANTOM1
 62
    7
 10
34.302254107186172
 20
55.179072039408481
 11
37.077990038474354
 21
55.179072039408481
  0
ARC
  8
_0-1_
  6
PHANTOM1
 62
    7
 10
37.077990038474354
 20
54.8790720394083
 40
0.2999999999999998
 50
45.000000000000014
 51
90.000000000000014
  0
LINE
  8
_0-1_
  6
PHANTOM1
 62
    7
 10
37.290122072830172
 20
55.091204073764118
 11
38.314386141542172
 21
54.066940005052118
  0
LINE
  8
_0-1_
  6
PHANTOM1
 62
    7
 10
38.314386141542172
 20
44.291204073764391
 11
37.290122072830172
 21
43.26694000505239
  0
ARC
  8
_0-1_
  6
PHANTOM1
 62
    7
 10
37.077990038474354
 20
43.479072039408209
 40
0.2999999999999998
 50
269.99999999999994
 51
315.00000000000034
  0
LINE
  8
_0-1_
  6
PHANTOM1
 62
    7
 10
37.077990038474354
 20
43.179072039408481
 11
34.302254107186172
 21
43.179072039408481
  0
ARC
  8
_0-1_
  6
PHANTOM1
 62
    7
 10
34.302254107186172
 20
43.479072039408209
 40
0.2999999999999998
 50
180
 51
270
  0
LINE
  8
_0-1_
  6
PHANTOM1
 62
    7
 10
34.002254107185991
 20
43.479072039408209
 11
34.002254107185991
 21
45.279072039408391
  0
ARC
  8
_0-1_
  6
PHANTOM1
 62
    7
 10
33.702254107186263
 20
45.279072039408391
 40
0.2999999999999998
 50
0.0000000000000127
 51
90.000000000000014
  0
LINE
  8
_0-1_
  6
PHANTOM1
 62
    7
 10
33.702254107186263
 20
45.579072039408118
 11
32.502254107186218
 21
45.579072039408118
  0
ARC
  8
_0-1_
  6
PHANTOM1
 62
    7
 10
32.502254107186218
 20
45.279072039408391
 40
0.2999999999999998
 50
90
 51
180
  0
LINE
  8
_0-1_
  6
PHANTOM1
 62
    7
 10
38.402254107186081
 20
53.854807970696299
 11
38.402254107186081
 21
44.503336108120209
  0
ARC
  8
_0-1_
  6
PHANTOM1
 62
    7
 10
38.1022541071859
 20
44.503336108120209
 40
0.2999999999999998
 50
315
 51
0
  0
LINE
  8
_0-1_
  6
PHANTOM1
 62
    7
 10
32.202254107186263
 20
37.679072039408481
 11
32.202254107186263
 21
45.279072039408391
  0
ARC
  8
_0-1_
  6
PHANTOM1
 62
    7
 10
33.202254107186263
 20
37.679072039408481
 40
1
 50
180
 51
270
  0
LINE
  8
_0-1_
  6
PHANTOM1
 62
    7
 10
40.802254107186627
 20
36.679072039408481
 11
33.202254107186263
 21
36.679072039408481
  0
LINE
  8
_0-1_
  6
PHANTOM1
 62
    7
 10
41.102254107186354
 20
38.179072039408481
 11
41.102254107186354
 21
36.979072039408436
  0
ARC
  8
_0-1_
  6
PHANTOM1
 62
    7
 10
40.802254107186627
 20
38.179072039408481
 40
0.2999999999999998
 50
0
 51
90
  0
ARC
  8
_0-1_
  6
PHANTOM1
 62
    7
 10
40.802254107186627
 20
36.979072039408436
 40
0.2999999999999998
 50
270
 51
0
  0
LINE
  8
_0-1_
  6
PHANTOM1
 62
    7
 10
39.002254107186445
 20
38.479072039408209
 11
40.802254107186627
 21
38.479072039408209
  0
ARC
  8
_0-1_
  6
PHANTOM1
 62
    7
 10
39.002254107186445
 20
38.779072039408391
 40
0.2999999999999998
 50
180
 51
270
  0
LINE
  8
_0-1_
  6
PHANTOM1
 62
    7
 10
38.702254107186263
 20
38.779072039408391
 11
38.702254107186263
 21
41.554807970696572
  0
ARC
  8
_0-1_
  6
PHANTOM1
 62
    7
 10
39.002254107186445
 20
41.554807970696572
 40
0.2999999999999998
 50
135
 51
180
  0
LINE
  8
_0-1_
  6
PHANTOM1
 62
    7
 10
38.790122072830627
 20
41.76694000505239
 11
39.814386141542627
 21
42.791204073764391
  0
LINE
  8
_0-1_
  6
PHANTOM1
 62
    7
 10
49.590122072830354
 20
42.791204073764391
 11
50.614386141542354
 21
41.76694000505239
  0
ARC
  8
_0-1_
  6
PHANTOM1
 62
    7
 10
50.402254107186536
 20
41.554807970696572
 40
0.2999999999999998
 50
359.99999999999994
 51
45.000000000000348
  0
LINE
  8
_0-1_
  6
PHANTOM1
 62
    7
 10
50.702254107186263
 20
41.554807970696572
 11
50.702254107186263
 21
38.779072039408391
  0
ARC
  8
_0-1_
  6
PHANTOM1
 62
    7
 10
50.402254107186536
 20
38.779072039408391
 40
0.2999999999999998
 50
270
 51
0
  0
LINE
  8
_0-1_
  6
PHANTOM1
 62
    7
 10
50.402254107186536
 20
38.479072039408209
 11
48.602254107186354
 21
38.479072039408209
  0
ARC
  8
_0-1_
  6
PHANTOM1
 62
    7
 10
48.602254107186354
 20
38.179072039408481
 40
0.2999999999999998
 50
90
 51
180
  0
LINE
  8
_0-1_
  6
PHANTOM1
 62
    7
 10
48.302254107186627
 20
38.179072039408481
 11
48.302254107186627
 21
36.979072039408436
  0
ARC
  8
_0-1_
  6
PHANTOM1
 62
    7
 10
48.602254107186354
 20
36.979072039408436
 40
0.2999999999999998
 50
180
 51
270
  0
LINE
  8
_0-1_
  6
PHANTOM1
 62
    7
 10
40.026518175898445
 20
42.8790720394083
 11
49.377990038474536
 21
42.8790720394083
  0
ARC
  8
_0-1_
  6
PHANTOM1
 62
    7
 10
49.377990038474536
 20
42.579072039408118
 40
0.2999999999999998
 50
45
 51
90
  0
LINE
  8
_0-1_
  6
PHANTOM1
 62
    7
 10
56.202254107186263
 20
36.679072039408481
 11
48.602254107186354
 21
36.679072039408481
  0
ARC
  8
_0-1_
  6
PHANTOM1
 62
    7
 10
56.202254107186263
 20
37.679072039408481
 40
1
 50
270
 51
0
  0
LINE
  8
_0-1_
  6
PHANTOM1
 62
    7
 10
57.202254107186263
 20
45.279072039408845
 11
57.202254107186263
 21
37.679072039408481
  0
LINE
  8
_0-1_
  6
PHANTOM1
 62
    7
 10
55.702254107186263
 20
45.579072039408572
 11
56.902254107186309
 21
45.579072039408572
  0
ARC
  8
_0-1_
  6
PHANTOM1
 62
    7
 10
55.702254107186263
 20
45.279072039408845
 40
0.2999999999999998
 50
90
 51
180
  0
ARC
  8
_0-1_
  6
PHANTOM1
 62
    7
 10
56.902254107186309
 20
45.279072039408845
 40
0.2999999999999998
 50
0
 51
90
  0
LINE
  8
_0-1_
  6
PHANTOM1
 62
    7
 10
55.402254107186536
 20
43.479072039408663
 11
55.402254107186536
 21
45.279072039408845
  0
ARC
  8
_0-1_
  6
PHANTOM1
 62
    7
 10
55.102254107186354
 20
43.479072039408663
 40
0.2999999999999998
 50
270
 51
0
  0
LINE
  8
_0-1_
  6
PHANTOM1
 62
    7
 10
55.102254107186354
 20
43.179072039408481
 11
52.326518175898173
 21
43.179072039408481
  0
ARC
  8
_0-1_
  6
PHANTOM1
 62
    7
 10
52.326518175898173
 20
43.479072039408663
 40
0.2999999999999998
 50
225
 51
270
  0
LINE
  8
_0-1_
  6
PHANTOM1
 62
    7
 10
52.114386141542354
 20
43.266940005052845
 11
51.090122072830354
 21
44.291204073764845
  0
LINE
  8
_0-1_
  6
PHANTOM1
 62
    7
 10
51.090122072830354
 20
54.066940005052572
 11
52.114386141542354
 21
55.091204073764573
  0
ARC
  8
_0-1_
  6
PHANTOM1
 62
    7
 10
52.326518175898173
 20
54.879072039408754
 40
0.2999999999999998
 50
89.999999999999886
 51
135.00000000000037
  0
LINE
  8
_0-1_
  6
PHANTOM1
 62
    7
 10
52.326518175898173
 20
55.179072039408481
 11
55.102254107186354
 21
55.179072039408481
  0
ARC
  8
_0-1_
  6
PHANTOM1
 62
    7
 10
55.102254107186354
 20
54.879072039408754
 40
0.2999999999999998
 50
0
 51
90
  0
LINE
  8
_0-1_
  6
PHANTOM1
 62
    7
 10
55.402254107186536
 20
54.879072039408754
 11
55.402254107186536
 21
53.079072039408572
  0
ARC
  8
_0-1_
  6
PHANTOM1
 62
    7
 10
55.702254107186263
 20
53.079072039408572
 40
0.2999999999999998
 50
180
 51
270
  0
LINE
  8
_0-1_
  6
PHANTOM1
 62
    7
 10
55.702254107186263
 20
52.779072039408845
 11
56.902254107186309
 21
52.779072039408845
  0
ARC
  8
_0-1_
  6
PHANTOM1
 62
    7
 10
56.902254107186309
 20
53.079072039408572
 40
0.2999999999999998
 50
270
 51
0
  0
LINE
  8
_0-1_
  6
PHANTOM1
 62
    7
 10
51.002254107186445
 20
44.503336108120664
 11
51.002254107186445
 21
53.854807970696754
  0
ARC
  8
_0-1_
  6
PHANTOM1
 62
    7
 10
51.302254107186627
 20
53.854807970696754
 40
0.2999999999999998
 50
135
 51
180
  0
LINE
  8
_0-1_
  6
PHANTOM1
 62
    7
 10
57.202254107186263
 20
60.679072039408481
 11
57.202254107186263
 21
53.079072039408572
  0
ARC
  8
_0-1_
  6
PHANTOM1
 62
    7
 10
56.202254107186263
 20
60.679072039408481
 40
1
 50
0
 51
90
  0
LINE
  8
_0-1_
  6
PHANTOM1
 62
    7
 10
48.6022541071859
 20
61.679072039408481
 11
56.202254107186263
 21
61.679072039408481
  0
LINE
  8
_0-1_
  6
PHANTOM1
 62
    7
 10
48.302254107186172
 20
60.179072039408481
 11
48.302254107186172
 21
61.379072039408527
  0
ARC
  8
_0-1_
  6
PHANTOM1
 62
    7
 10
48.6022541071859
 20
60.179072039408481
 40
0.2999999999999998
 50
180
 51
270
  0
ARC
  8
_0-1_
  6
PHANTOM1
 62
    7
 10
48.6022541071859
 20
61.379072039408527
 40
0.2999999999999998
 50
90
 51
180
  0
LINE
  8
_0-1_
  6
PHANTOM1
 62
    7
 10
50.402254107186081
 20
59.879072039408754
 11
48.6022541071859
 21
59.879072039408754
  0
ARC
  8
_0-1_
  6
PHANTOM1
 62
    7
 10
50.402254107186081
 20
59.579072039408572
 40
0.2999999999999998
 50
0
 51
90
  0
LINE
  8
_0-1_
  6
PHANTOM1
 62
    7
 10
50.702254107186263
 20
59.579072039408572
 11
50.702254107186263
 21
56.803336108120391
  0
ARC
  8
_0-1_
  6
PHANTOM1
 62
    7
 10
50.402254107186081
 20
56.803336108120391
 40
0.2999999999999998
 50
315
 51
0
  0
LINE
  8
_0-1_
  6
PHANTOM1
 62
    7
 10
50.6143861415419
 20
56.591204073764573
 11
49.590122072829899
 21
55.566940005052572
  0
LINE
  8
_0-1_
  6
PHANTOM1
 62
    7
 10
39.814386141542172
 20
55.566940005052572
 11
38.790122072830172
 21
56.591204073764573
  0
ARC
  8
_0-1_
  6
PHANTOM1
 62
    7
 10
39.002254107185991
 20
56.803336108120391
 40
0.2999999999999998
 50
179.99999999999991
 51
225.00000000000037
  0
LINE
  8
_0-1_
  6
PHANTOM1
 62
    7
 10
38.702254107186263
 20
56.803336108120391
 11
38.702254107186263
 21
59.579072039408572
  0
ARC
  8
_0-1_
  6
PHANTOM1
 62
    7
 10
39.002254107185991
 20
59.579072039408572
 40
0.2999999999999998
 50
90
 51
180
  0
LINE
  8
_0-1_
  6
PHANTOM1
 62
    7
 10
39.002254107185991
 20
59.879072039408754
 11
40.802254107186172
 21
59.879072039408754
  0
ARC
  8
_0-1_
  6
PHANTOM1
 62
    7
 10
40.802254107186172
 20
60.179072039408481
 40
0.2999999999999998
 50
270
 51
0
  0
LINE
  8
_0-1_
  6
PHANTOM1
 62
    7
 10
41.1022541071859
 20
60.179072039408481
 11
41.1022541071859
 21
61.379072039408527
  0
ARC
  8
_0-1_
  6
PHANTOM1
 62
    7
 10
40.802254107186172
 20
61.379072039408527
 40
0.2999999999999998
 50
0
 51
90
  0
LINE
  8
_0-1_
  6
PHANTOM1
 62
    7
 10
49.377990038474081
 20
55.479072039408663
 11
40.026518175897991
 21
55.479072039408663
  0
ARC
  8
_0-1_
  6
PHANTOM1
 62
    7
 10
40.026518175897991
 20
55.779072039408845
 40
0.2999999999999998
 50
225
 51
270
  0
LINE
  8
_0-1_
  6
PHANTOM1
 62
    7
 10
93.324518839745906
 20
61.679072039407913
 11
100.92451883974582
 21
61.679072039407913
  0
ARC
  8
_0-1_
  6
PHANTOM1
 62
    7
 10
93.324518839745906
 20
60.679072039407913
 40
1
 50
90
 51
180
  0
LINE
  8
_0-1_
  6
PHANTOM1
 62
    7
 10
92.324518839745906
 20
53.079072039407549
 11
92.324518839745906
 21
60.679072039407913
  0
LINE
  8
_0-1_
  6
PHANTOM1
 62
    7
 10
93.824518839745906
 20
52.779072039407822
 11
92.624518839745861
 21
52.779072039407822
  0
ARC
  8
_0-1_
  6
PHANTOM1
 62
    7
 10
93.824518839745906
 20
53.079072039407549
 40
0.2999999999999998
 50
270
 51
0
  0
ARC
  8
_0-1_
  6
PHANTOM1
 62
    7
 10
92.624518839745861
 20
53.079072039407549
 40
0.2999999999999998
 50
180
 51
270
  0
LINE
  8
_0-1_
  6
PHANTOM1
 62
    7
 10
94.124518839745633
 20
54.879072039407731
 11
94.124518839745633
 21
53.079072039407549
  0
ARC
  8
_0-1_
  6
PHANTOM1
 62
    7
 10
94.424518839745815
 20
54.879072039407731
 40
0.2999999999999998
 50
90
 51
180
  0
LINE
  8
_0-1_
  6
PHANTOM1
 62
    7
 10
94.424518839745815
 20
55.179072039407913
 11
97.200254771033997
 21
55.179072039407913
  0
ARC
  8
_0-1_
  6
PHANTOM1
 62
    7
 10
97.200254771033997
 20
54.879072039407731
 40
0.2999999999999998
 50
45.000000000000014
 51
90.000000000000014
  0
LINE
  8
_0-1_
  6
PHANTOM1
 62
    7
 10
97.412386805389815
 20
55.091204073763549
 11
98.436650874101815
 21
54.066940005051549
  0
LINE
  8
_0-1_
  6
PHANTOM1
 62
    7
 10
98.436650874101815
 20
44.291204073763822
 11
97.412386805389815
 21
43.266940005051822
  0
ARC
  8
_0-1_
  6
PHANTOM1
 62
    7
 10
97.200254771033997
 20
43.47907203940764
 40
0.2999999999999998
 50
269.99999999999994
 51
315.00000000000034
  0
LINE
  8
_0-1_
  6
PHANTOM1
 62
    7
 10
97.200254771033997
 20
43.179072039407913
 11
94.424518839745815
 21
43.179072039407913
  0
ARC
  8
_0-1_
  6
PHANTOM1
 62
    7
 10
94.424518839745815
 20
43.47907203940764
 40
0.2999999999999998
 50
180
 51
270
  0
LINE
  8
_0-1_
  6
PHANTOM1
 62
    7
 10
94.124518839745633
 20
43.47907203940764
 11
94.124518839745633
 21
45.279072039407822
  0
ARC
  8
_0-1_
  6
PHANTOM1
 62
    7
 10
93.824518839745906
 20
45.279072039407822
 40
0.2999999999999998
 50
0.0000000000000127
 51
90.000000000000014
  0
LINE
  8
_0-1_
  6
PHANTOM1
 62
    7
 10
93.824518839745906
 20
45.579072039407549
 11
92.624518839745861
 21
45.579072039407549
  0
ARC
  8
_0-1_
  6
PHANTOM1
 62
    7
 10
92.624518839745861
 20
45.279072039407822
 40
0.2999999999999998
 50
90
 51
180
  0
LINE
  8
_0-1_
  6
PHANTOM1
 62
    7
 10
98.524518839745724
 20
53.854807970695731
 11
98.524518839745724
 21
44.50333610811964
  0
ARC
  8
_0-1_
  6
PHANTOM1
 62
    7
 10
98.224518839745542
 20
44.50333610811964
 40
0.2999999999999998
 50
315
 51
0
  0
LINE
  8
_0-1_
  6
PHANTOM1
 62
    7
 10
92.324518839745906
 20
37.679072039407913
 11
92.324518839745906
 21
45.279072039407822
  0
ARC
  8
_0-1_
  6
PHANTOM1
 62
    7
 10
93.324518839745906
 20
37.679072039407913
 40
1
 50
180
 51
270
  0
LINE
  8
_0-1_
  6
PHANTOM1
 62
    7
 10
100.92451883974627
 20
36.679072039407913
 11
93.324518839745906
 21
36.679072039407913
  0
LINE
  8
_0-1_
  6
PHANTOM1
 62
    7
 10
101.224518839746
 20
38.179072039407913
 11
101.224518839746
 21
36.979072039407868
  0
ARC
  8
_0-1_
  6
PHANTOM1
 62
    7
 10
100.92451883974627
 20
38.179072039407913
 40
0.2999999999999998
 50
0
 51
90
  0
ARC
  8
_0-1_
  6
PHANTOM1
 62
    7
 10
100.92451883974627
 20
36.979072039407868
 40
0.2999999999999998
 50
270
 51
0
  0
LINE
  8
_0-1_
  6
PHANTOM1
 62
    7
 10
99.124518839746088
 20
38.47907203940764
 11
100.92451883974627
 21
38.47907203940764
  0
ARC
  8
_0-1_
  6
PHANTOM1
 62
    7
 10
99.124518839746088
 20
38.779072039407822
 40
0.2999999999999998
 50
180
 51
270
  0
LINE
  8
_0-1_
  6
PHANTOM1
 62
    7
 10
98.824518839745906
 20
38.779072039407822
 11
98.824518839745906
 21
41.554807970696004
  0
ARC
  8
_0-1_
  6
PHANTOM1
 62
    7
 10
99.124518839746088
 20
41.554807970696004
 40
0.2999999999999998
 50
135
 51
180
  0
LINE
  8
_0-1_
  6
PHANTOM1
 62
    7
 10
98.91238680539027
 20
41.766940005051822
 11
99.93665087410227
 21
42.791204073763822
  0
LINE
  8
_0-1_
  6
PHANTOM1
 62
    7
 10
109.71238680539
 20
42.791204073763822
 11
110.736650874102
 21
41.766940005051822
  0
ARC
  8
_0-1_
  6
PHANTOM1
 62
    7
 10
110.52451883974618
 20
41.554807970696004
 40
0.2999999999999998
 50
359.99999999999994
 51
45.000000000000348
  0
LINE
  8
_0-1_
  6
PHANTOM1
 62
    7
 10
110.82451883974591
 20
41.554807970696004
 11
110.82451883974591
 21
38.779072039407822
  0
ARC
  8
_0-1_
  6
PHANTOM1
 62
    7
 10
110.52451883974618
 20
38.779072039407822
 40
0.2999999999999998
 50
270
 51
0
  0
LINE
  8
_0-1_
  6
PHANTOM1
 62
    7
 10
110.52451883974618
 20
38.47907203940764
 11
108.724518839746
 21
38.47907203940764
  0
ARC
  8
_0-1_
  6
PHANTOM1
 62
    7
 10
108.724518839746
 20
38.179072039407913
 40
0.2999999999999998
 50
90
 51
180
  0
LINE
  8
_0-1_
  6
PHANTOM1
 62
    7
 10
108.42451883974627
 20
38.179072039407913
 11
108.42451883974627
 21
36.979072039407868
  0
ARC
  8
_0-1_
  6
PHANTOM1
 62
    7
 10
108.724518839746
 20
36.979072039407868
 40
0.2999999999999998
 50
180
 51
270
  0
LINE
  8
_0-1_
  6
PHANTOM1
 62
    7
 10
100.14878290845809
 20
42.879072039407731
 11
109.50025477103418
 21
42.879072039407731
  0
ARC
  8
_0-1_
  6
PHANTOM1
 62
    7
 10
109.50025477103418
 20
42.579072039407549
 40
0.2999999999999998
 50
45
 51
90
  0
LINE
  8
_0-1_
  6
PHANTOM1
 62
    7
 10
116.32451883974591
 20
36.679072039407913
 11
108.724518839746
 21
36.679072039407913
  0
ARC
  8
_0-1_
  6
PHANTOM1
 62
    7
 10
116.32451883974591
 20
37.679072039407913
 40
1
 50
270
 51
0
  0
LINE
  8
_0-1_
  6
PHANTOM1
 62
    7
 10
117.32451883974591
 20
45.279072039408277
 11
117.32451883974591
 21
37.679072039407913
  0
LINE
  8
_0-1_
  6
PHANTOM1
 62
    7
 10
115.82451883974591
 20
45.579072039408004
 11
117.02451883974595
 21
45.579072039408004
  0
ARC
  8
_0-1_
  6
PHANTOM1
 62
    7
 10
115.82451883974591
 20
45.279072039408277
 40
0.2999999999999998
 50
90
 51
180
  0
ARC
  8
_0-1_
  6
PHANTOM1
 62
    7
 10
117.02451883974595
 20
45.279072039408277
 40
0.2999999999999998
 50
0
 51
90
  0
LINE
  8
_0-1_
  6
PHANTOM1
 62
    7
 10
115.52451883974618
 20
43.479072039408095
 11
115.52451883974618
 21
45.279072039408277
  0
ARC
  8
_0-1_
  6
PHANTOM1
 62
    7
 10
115.224518839746
 20
43.479072039408095
 40
0.2999999999999998
 50
270
 51
0
  0
LINE
  8
_0-1_
  6
PHANTOM1
 62
    7
 10
115.224518839746
 20
43.179072039407913
 11
112.44878290845782
 21
43.179072039407913
  0
ARC
  8
_0-1_
  6
PHANTOM1
 62
    7
 10
112.44878290845782
 20
43.479072039408095
 40
0.2999999999999998
 50
225
 51
270
  0
LINE
  8
_0-1_
  6
PHANTOM1
 62
    7
 10
112.236650874102
 20
43.266940005052277
 11
111.21238680539
 21
44.291204073764277
  0
LINE
  8
_0-1_
  6
PHANTOM1
 62
    7
 10
111.21238680539
 20
54.066940005052004
 11
112.236650874102
 21
55.091204073764004
  0
ARC
  8
_0-1_
  6
PHANTOM1
 62
    7
 10
112.44878290845782
 20
54.879072039408186
 40
0.2999999999999998
 50
89.999999999999886
 51
135.00000000000037
  0
LINE
  8
_0-1_
  6
PHANTOM1
 62
    7
 10
112.44878290845782
 20
55.179072039407913
 11
115.224518839746
 21
55.179072039407913
  0
ARC
  8
_0-1_
  6
PHANTOM1
 62
    7
 10
115.224518839746
 20
54.879072039408186
 40
0.2999999999999998
 50
0
 51
90
  0
LINE
  8
_0-1_
  6
PHANTOM1
 62
    7
 10
115.52451883974618
 20
54.879072039408186
 11
115.52451883974618
 21
53.079072039408004
  0
ARC
  8
_0-1_
  6
PHANTOM1
 62
    7
 10
115.82451883974591
 20
53.079072039408004
 40
0.2999999999999998
 50
180
 51
270
  0
LINE
  8
_0-1_
  6
PHANTOM1
 62
    7
 10
115.82451883974591
 20
52.779072039408277
 11
117.02451883974595
 21
52.779072039408277
  0
ARC
  8
_0-1_
  6
PHANTOM1
 62
    7
 10
117.02451883974595
 20
53.079072039408004
 40
0.2999999999999998
 50
270
 51
0
  0
LINE
  8
_0-1_
  6
PHANTOM1
 62
    7
 10
111.12451883974609
 20
44.503336108120095
 11
111.12451883974609
 21
53.854807970696186
  0
ARC
  8
_0-1_
  6
PHANTOM1
 62
    7
 10
111.42451883974627
 20
53.854807970696186
 40
0.2999999999999998
 50
135
 51
180
  0
LINE
  8
_0-1_
  6
PHANTOM1
 62
    7
 10
117.32451883974591
 20
60.679072039407913
 11
117.32451883974591
 21
53.079072039408004
  0
ARC
  8
_0-1_
  6
PHANTOM1
 62
    7
 10
116.32451883974591
 20
60.679072039407913
 40
1
 50
0
 51
90
  0
LINE
  8
_0-1_
  6
PHANTOM1
 62
    7
 10
108.72451883974554
 20
61.679072039407913
 11
116.32451883974591
 21
61.679072039407913
  0
LINE
  8
_0-1_
  6
PHANTOM1
 62
    7
 10
108.42451883974582
 20
60.179072039407913
 11
108.42451883974582
 21
61.379072039407959
  0
ARC
  8
_0-1_
  6
PHANTOM1
 62
    7
 10
108.72451883974554
 20
60.179072039407913
 40
0.2999999999999998
 50
180
 51
270
  0
ARC
  8
_0-1_
  6
PHANTOM1
 62
    7
 10
108.72451883974554
 20
61.379072039407959
 40
0.2999999999999998
 50
90
 51
180
  0
LINE
  8
_0-1_
  6
PHANTOM1
 62
    7
 10
110.52451883974572
 20
59.879072039408186
 11
108.72451883974554
 21
59.879072039408186
  0
ARC
  8
_0-1_
  6
PHANTOM1
 62
    7
 10
110.52451883974572
 20
59.579072039408004
 40
0.2999999999999998
 50
0
 51
90
  0
LINE
  8
_0-1_
  6
PHANTOM1
 62
    7
 10
110.82451883974591
 20
59.579072039408004
 11
110.82451883974591
 21
56.803336108119822
  0
ARC
  8
_0-1_
  6
PHANTOM1
 62
    7
 10
110.52451883974572
 20
56.803336108119822
 40
0.2999999999999998
 50
315
 51
0
  0
LINE
  8
_0-1_
  6
PHANTOM1
 62
    7
 10
110.73665087410154
 20
56.591204073764004
 11
109.71238680538954
 21
55.566940005052004
  0
LINE
  8
_0-1_
  6
PHANTOM1
 62
    7
 10
99.936650874101815
 20
55.566940005052004
 11
98.912386805389815
 21
56.591204073764004
  0
ARC
  8
_0-1_
  6
PHANTOM1
 62
    7
 10
99.124518839745633
 20
56.803336108119822
 40
0.2999999999999998
 50
179.99999999999991
 51
225.00000000000037
  0
LINE
  8
_0-1_
  6
PHANTOM1
 62
    7
 10
98.824518839745906
 20
56.803336108119822
 11
98.824518839745906
 21
59.579072039408004
  0
ARC
  8
_0-1_
  6
PHANTOM1
 62
    7
 10
99.124518839745633
 20
59.579072039408004
 40
0.2999999999999998
 50
90
 51
180
  0
LINE
  8
_0-1_
  6
PHANTOM1
 62
    7
 10
99.124518839745633
 20
59.879072039408186
 11
100.92451883974582
 21
59.879072039408186
  0
ARC
  8
_0-1_
  6
PHANTOM1
 62
    7
 10
100.92451883974582
 20
60.179072039407913
 40
0.2999999999999998
 50
270
 51
0
  0
LINE
  8
_0-1_
  6
PHANTOM1
 62
    7
 10
101.22451883974554
 20
60.179072039407913
 11
101.22451883974554
 21
61.379072039407959
  0
ARC
  8
_0-1_
  6
PHANTOM1
 62
    7
 10
100.92451883974582
 20
61.379072039407959
 40
0.2999999999999998
 50
0
 51
90
  0
LINE
  8
_0-1_
  6
PHANTOM1
 62
    7
 10
109.50025477103372
 20
55.479072039408095
 11
100.14878290845763
 21
55.479072039408095
  0
ARC
  8
_0-1_
  6
PHANTOM1
 62
    7
 10
100.14878290845763
 20
55.779072039408277
 40
0.2999999999999998
 50
225
 51
270
  0
LINE
  8
_0-1_
  6
PHANTOM1
 62
    7
 10
151.25254033389098
 20
61.679072039407345
 11
158.85254033389089
 21
61.679072039407345
  0
ARC
  8
_0-1_
  6
PHANTOM1
 62
    7
 10
151.25254033389098
 20
60.679072039407345
 40
1
 50
90
 51
180
  0
LINE
  8
_0-1_
  6
PHANTOM1
 62
    7
 10
150.25254033389098
 20
53.079072039406981
 11
150.25254033389098
 21
60.679072039407345
  0
LINE
  8
_0-1_
  6
PHANTOM1
 62
    7
 10
151.75254033389098
 20
52.779072039407254
 11
150.55254033389093
 21
52.779072039407254
  0
ARC
  8
_0-1_
  6
PHANTOM1
 62
    7
 10
151.75254033389098
 20
53.079072039406981
 40
0.2999999999999998
 50
270
 51
0
  0
ARC
  8
_0-1_
  6
PHANTOM1
 62
    7
 10
150.55254033389093
 20
53.079072039406981
 40
0.2999999999999998
 50
180
 51
270
  0
LINE
  8
_0-1_
  6
PHANTOM1
 62
    7
 10
152.0525403338907
 20
54.879072039407163
 11
152.0525403338907
 21
53.079072039406981
  0
ARC
  8
_0-1_
  6
PHANTOM1
 62
    7
 10
152.35254033389089
 20
54.879072039407163
 40
0.2999999999999998
 50
90
 51
180
  0
LINE
  8
_0-1_
  6
PHANTOM1
 62
    7
 10
152.35254033389089
 20
55.179072039407345
 11
155.12827626517907
 21
55.179072039407345
  0
ARC
  8
_0-1_
  6
PHANTOM1
 62
    7
 10
155.12827626517907
 20
54.879072039407163
 40
0.2999999999999998
 50
45.000000000000014
 51
90.000000000000014
  0
LINE
  8
_0-1_
  6
PHANTOM1
 62
    7
 10
155.34040829953489
 20
55.091204073762981
 11
156.36467236824689
 21
54.066940005050981
  0
LINE
  8
_0-1_
  6
PHANTOM1
 62
    7
 10
156.36467236824689
 20
44.291204073763254
 11
155.34040829953489
 21
43.266940005051254
  0
ARC
  8
_0-1_
  6
PHANTOM1
 62
    7
 10
155.12827626517907
 20
43.479072039407072
 40
0.2999999999999998
 50
269.99999999999994
 51
315.00000000000034
  0
LINE
  8
_0-1_
  6
PHANTOM1
 62
    7
 10
155.12827626517907
 20
43.179072039407345
 11
152.35254033389089
 21
43.179072039407345
  0
ARC
  8
_0-1_
  6
PHANTOM1
 62
    7
 10
152.35254033389089
 20
43.479072039407072
 40
0.2999999999999998
 50
180
 51
270
  0
LINE
  8
_0-1_
  6
PHANTOM1
 62
    7
 10
152.0525403338907
 20
43.479072039407072
 11
152.0525403338907
 21
45.279072039407254
  0
ARC
  8
_0-1_
  6
PHANTOM1
 62
    7
 10
151.75254033389098
 20
45.279072039407254
 40
0.2999999999999998
 50
0.0000000000000127
 51
90.000000000000014
  0
LINE
  8
_0-1_
  6
PHANTOM1
 62
    7
 10
151.75254033389098
 20
45.579072039406981
 11
150.55254033389093
 21
45.579072039406981
  0
ARC
  8
_0-1_
  6
PHANTOM1
 62
    7
 10
150.55254033389093
 20
45.279072039407254
 40
0.2999999999999998
 50
90
 51
180
  0
LINE
  8
_0-1_
  6
PHANTOM1
 62
    7
 10
156.45254033389079
 20
53.854807970695163
 11
156.45254033389079
 21
44.503336108119072
  0
ARC
  8
_0-1_
  6
PHANTOM1
 62
    7
 10
156.15254033389061
 20
44.503336108119072
 40
0.2999999999999998
 50
315
 51
0
  0
LINE
  8
_0-1_
  6
PHANTOM1
 62
    7
 10
150.25254033389098
 20
37.679072039407345
 11
150.25254033389098
 21
45.279072039407254
  0
ARC
  8
_0-1_
  6
PHANTOM1
 62
    7
 10
151.25254033389098
 20
37.679072039407345
 40
1
 50
180
 51
270
  0
LINE
  8
_0-1_
  6
PHANTOM1
 62
    7
 10
158.85254033389134
 20
36.679072039407345
 11
151.25254033389098
 21
36.679072039407345
  0
LINE
  8
_0-1_
  6
PHANTOM1
 62
    7
 10
159.15254033389107
 20
38.179072039407345
 11
159.15254033389107
 21
36.979072039407299
  0
ARC
  8
_0-1_
  6
PHANTOM1
 62
    7
 10
158.85254033389134
 20
38.179072039407345
 40
0.2999999999999998
 50
0
 51
90
  0
ARC
  8
_0-1_
  6
PHANTOM1
 62
    7
 10
158.85254033389134
 20
36.979072039407299
 40
0.2999999999999998
 50
270
 51
0
  0
LINE
  8
_0-1_
  6
PHANTOM1
 62
    7
 10
157.05254033389116
 20
38.479072039407072
 11
158.85254033389134
 21
38.479072039407072
  0
ARC
  8
_0-1_
  6
PHANTOM1
 62
    7
 10
157.05254033389116
 20
38.779072039407254
 40
0.2999999999999998
 50
180
 51
270
  0
LINE
  8
_0-1_
  6
PHANTOM1
 62
    7
 10
156.75254033389098
 20
38.779072039407254
 11
156.75254033389098
 21
41.554807970695435
  0
ARC
  8
_0-1_
  6
PHANTOM1
 62
    7
 10
157.05254033389116
 20
41.554807970695435
 40
0.2999999999999998
 50
135
 51
180
  0
LINE
  8
_0-1_
  6
PHANTOM1
 62
    7
 10
156.84040829953534
 20
41.766940005051254
 11
157.86467236824734
 21
42.791204073763254
  0
LINE
  8
_0-1_
  6
PHANTOM1
 62
    7
 10
167.64040829953507
 20
42.791204073763254
 11
168.66467236824707
 21
41.766940005051254
  0
ARC
  8
_0-1_
  6
PHANTOM1
 62
    7
 10
168.45254033389125
 20
41.554807970695435
 40
0.2999999999999998
 50
359.99999999999994
 51
45.000000000000348
  0
LINE
  8
_0-1_
  6
PHANTOM1
 62
    7
 10
168.75254033389098
 20
41.554807970695435
 11
168.75254033389098
 21
38.779072039407254
  0
ARC
  8
_0-1_
  6
PHANTOM1
 62
    7
 10
168.45254033389125
 20
38.779072039407254
 40
0.2999999999999998
 50
270
 51
0
  0
LINE
  8
_0-1_
  6
PHANTOM1
 62
    7
 10
168.45254033389125
 20
38.479072039407072
 11
166.65254033389107
 21
38.479072039407072
  0
ARC
  8
_0-1_
  6
PHANTOM1
 62
    7
 10
166.65254033389107
 20
38.179072039407345
 40
0.2999999999999998
 50
90
 51
180
  0
LINE
  8
_0-1_
  6
PHANTOM1
 62
    7
 10
166.35254033389134
 20
38.179072039407345
 11
166.35254033389134
 21
36.979072039407299
  0
ARC
  8
_0-1_
  6
PHANTOM1
 62
    7
 10
166.65254033389107
 20
36.979072039407299
 40
0.2999999999999998
 50
180
 51
270
  0
LINE
  8
_0-1_
  6
PHANTOM1
 62
    7
 10
158.07680440260316
 20
42.879072039407163
 11
167.42827626517925
 21
42.879072039407163
  0
ARC
  8
_0-1_
  6
PHANTOM1
 62
    7
 10
167.42827626517925
 20
42.579072039406981
 40
0.2999999999999998
 50
45
 51
90
  0
LINE
  8
_0-1_
  6
PHANTOM1
 62
    7
 10
174.25254033389098
 20
36.679072039407345
 11
166.65254033389107
 21
36.679072039407345
  0
ARC
  8
_0-1_
  6
PHANTOM1
 62
    7
 10
174.25254033389098
 20
37.679072039407345
 40
1
 50
270
 51
0
  0
LINE
  8
_0-1_
  6
PHANTOM1
 62
    7
 10
175.25254033389098
 20
45.279072039407708
 11
175.25254033389098
 21
37.679072039407345
  0
LINE
  8
_0-1_
  6
PHANTOM1
 62
    7
 10
173.75254033389098
 20
45.579072039407436
 11
174.95254033389102
 21
45.579072039407436
  0
ARC
  8
_0-1_
  6
PHANTOM1
 62
    7
 10
173.75254033389098
 20
45.279072039407708
 40
0.2999999999999998
 50
90
 51
180
  0
ARC
  8
_0-1_
  6
PHANTOM1
 62
    7
 10
174.95254033389102
 20
45.279072039407708
 40
0.2999999999999998
 50
0
 51
90
  0
LINE
  8
_0-1_
  6
PHANTOM1
 62
    7
 10
173.45254033389125
 20
43.479072039407527
 11
173.45254033389125
 21
45.279072039407708
  0
ARC
  8
_0-1_
  6
PHANTOM1
 62
    7
 10
173.15254033389107
 20
43.479072039407527
 40
0.2999999999999998
 50
270
 51
0
  0
LINE
  8
_0-1_
  6
PHANTOM1
 62
    7
 10
173.15254033389107
 20
43.179072039407345
 11
170.37680440260289
 21
43.179072039407345
  0
ARC
  8
_0-1_
  6
PHANTOM1
 62
    7
 10
170.37680440260289
 20
43.479072039407527
 40
0.2999999999999998
 50
225
 51
270
  0
LINE
  8
_0-1_
  6
PHANTOM1
 62
    7
 10
170.16467236824707
 20
43.266940005051708
 11
169.14040829953507
 21
44.291204073763708
  0
LINE
  8
_0-1_
  6
PHANTOM1
 62
    7
 10
169.14040829953507
 20
54.066940005051435
 11
170.16467236824707
 21
55.091204073763436
  0
ARC
  8
_0-1_
  6
PHANTOM1
 62
    7
 10
170.37680440260289
 20
54.879072039407617
 40
0.2999999999999998
 50
89.999999999999886
 51
135.00000000000037
  0
LINE
  8
_0-1_
  6
PHANTOM1
 62
    7
 10
170.37680440260289
 20
55.179072039407345
 11
173.15254033389107
 21
55.179072039407345
  0
ARC
  8
_0-1_
  6
PHANTOM1
 62
    7
 10
173.15254033389107
 20
54.879072039407617
 40
0.2999999999999998
 50
0
 51
90
  0
LINE
  8
_0-1_
  6
PHANTOM1
 62
    7
 10
173.45254033389125
 20
54.879072039407617
 11
173.45254033389125
 21
53.079072039407436
  0
ARC
  8
_0-1_
  6
PHANTOM1
 62
    7
 10
173.75254033389098
 20
53.079072039407436
 40
0.2999999999999998
 50
180
 51
270
  0
LINE
  8
_0-1_
  6
PHANTOM1
 62
    7
 10
173.75254033389098
 20
52.779072039407708
 11
174.95254033389102
 21
52.779072039407708
  0
ARC
  8
_0-1_
  6
PHANTOM1
 62
    7
 10
174.95254033389102
 20
53.079072039407436
 40
0.2999999999999998
 50
270
 51
0
  0
LINE
  8
_0-1_
  6
PHANTOM1
 62
    7
 10
169.05254033389116
 20
44.503336108119527
 11
169.05254033389116
 21
53.854807970695617
  0
ARC
  8
_0-1_
  6
PHANTOM1
 62
    7
 10
169.35254033389134
 20
53.854807970695617
 40
0.2999999999999998
 50
135
 51
180
  0
LINE
  8
_0-1_
  6
PHANTOM1
 62
    7
 10
175.25254033389098
 20
60.679072039407345
 11
175.25254033389098
 21
53.079072039407436
  0
ARC
  8
_0-1_
  6
PHANTOM1
 62
    7
 10
174.25254033389098
 20
60.679072039407345
 40
1
 50
0
 51
90
  0
LINE
  8
_0-1_
  6
PHANTOM1
 62
    7
 10
166.65254033389061
 20
61.679072039407345
 11
174.25254033389098
 21
61.679072039407345
  0
LINE
  8
_0-1_
  6
PHANTOM1
 62
    7
 10
166.35254033389089
 20
60.179072039407345
 11
166.35254033389089
 21
61.37907203940739
  0
ARC
  8
_0-1_
  6
PHANTOM1
 62
    7
 10
166.65254033389061
 20
60.179072039407345
 40
0.2999999999999998
 50
180
 51
270
  0
ARC
  8
_0-1_
  6
PHANTOM1
 62
    7
 10
166.65254033389061
 20
61.37907203940739
 40
0.2999999999999998
 50
90
 51
180
  0
LINE
  8
_0-1_
  6
PHANTOM1
 62
    7
 10
168.45254033389079
 20
59.879072039407617
 11
166.65254033389061
 21
59.879072039407617
  0
ARC
  8
_0-1_
  6
PHANTOM1
 62
    7
 10
168.45254033389079
 20
59.579072039407436
 40
0.2999999999999998
 50
0
 51
90
  0
LINE
  8
_0-1_
  6
PHANTOM1
 62
    7
 10
168.75254033389098
 20
59.579072039407436
 11
168.75254033389098
 21
56.803336108119254
  0
ARC
  8
_0-1_
  6
PHANTOM1
 62
    7
 10
168.45254033389079
 20
56.803336108119254
 40
0.2999999999999998
 50
315
 51
0
  0
LINE
  8
_0-1_
  6
PHANTOM1
 62
    7
 10
168.66467236824661
 20
56.591204073763436
 11
167.64040829953461
 21
55.566940005051435
  0
LINE
  8
_0-1_
  6
PHANTOM1
 62
    7
 10
157.86467236824689
 20
55.566940005051435
 11
156.84040829953489
 21
56.591204073763436
  0
ARC
  8
_0-1_
  6
PHANTOM1
 62
    7
 10
157.0525403338907
 20
56.803336108119254
 40
0.2999999999999998
 50
179.99999999999991
 51
225.00000000000037
  0
LINE
  8
_0-1_
  6
PHANTOM1
 62
    7
 10
156.75254033389098
 20
56.803336108119254
 11
156.75254033389098
 21
59.579072039407436
  0
ARC
  8
_0-1_
  6
PHANTOM1
 62
    7
 10
157.0525403338907
 20
59.579072039407436
 40
0.2999999999999998
 50
90
 51
180
  0
LINE
  8
_0-1_
  6
PHANTOM1
 62
    7
 10
157.0525403338907
 20
59.879072039407617
 11
158.85254033389089
 21
59.879072039407617
  0
ARC
  8
_0-1_
  6
PHANTOM1
 62
    7
 10
158.85254033389089
 20
60.179072039407345
 40
0.2999999999999998
 50
270
 51
0
  0
LINE
  8
_0-1_
  6
PHANTOM1
 62
    7
 10
159.15254033389061
 20
60.179072039407345
 11
159.15254033389061
 21
61.37907203940739
  0
ARC
  8
_0-1_
  6
PHANTOM1
 62
    7
 10
158.85254033389089
 20
61.37907203940739
 40
0.2999999999999998
 50
0
 51
90
  0
LINE
  8
_0-1_
  6
PHANTOM1
 62
    7
 10
167.42827626517879
 20
55.479072039407527
 11
158.0768044026027
 21
55.479072039407527
  0
ARC
  8
_0-1_
  6
PHANTOM1
 62
    7
 10
158.0768044026027
 20
55.779072039407708
 40
0.2999999999999998
 50
225
 51
270
  0
LINE
  8
_0-0_
  6
CONTINUOUS
 62
    7
 10
199.30682315607231
 20
69.839237723167003
 11
198.96013640652581
 21
66.97907203940764
  0
LINE
  8
_0-0_
  6
CONTINUOUS
 62
    7
 10
198.96013640652581
 20
66.97907203940764
 11
198.96013640652581
 21
62.679072039407401
  0
LINE
  8
_0-0_
  6
CONTINUOUS
 62
    7
 10
199.96013640652581
 20
61.679072039407401
 11
204.06013640652549
 21
61.679072039407401
  0
LINE
  8
_0-0_
  6
CONTINUOUS
 62
    7
 10
204.06013640652549
 20
61.679072039407401
 11
204.06013640652549
 21
59.890396904812917
  0
LINE
  8
_0-0_
  6
CONTINUOUS
 62
    7
 10
204.06013640652549
 20
59.890396904812917
 11
203.76013640652553
 21
59.717191824056044
  0
LINE
  8
_0-0_
  6
CONTINUOUS
 62
    7
 10
203.76013640652553
 20
59.717191824056044
 11
203.88418985556331
 21
58.299254413217511
  0
LINE
  8
_0-0_
  6
CONTINUOUS
 62
    7
 10
204.88038455365489
 20
58.38641015596528
 11
204.83108858079203
 21
58.94986570410299
  0
LINE
  8
_0-0_
  6
CONTINUOUS
 62
    7
 10
204.83108858079203
 20
58.94986570410299
 11
205.56013640652543
 21
59.370781662542186
  0
LINE
  8
_0-0_
  6
CONTINUOUS
 62
    7
 10
205.56013640652543
 20
59.370781662542186
 11
205.56013640652543
 21
61.179072039406833
  0
LINE
  8
_0-0_
  6
CONTINUOUS
 62
    7
 10
206.06013640652543
 20
61.679072039406833
 11
206.7601364065257
 21
61.679072039406833
  0
LINE
  8
_0-0_
  6
CONTINUOUS
 62
    7
 10
206.7601364065257
 20
61.679072039406833
 11
206.7601364065257
 21
63.379072039407902
  0
LINE
  8
_0-0_
  6
CONTINUOUS
 62
    7
 10
206.46013640652575
 20
63.679072039407288
 11
201.16013640652585
 21
63.679072039407288
  0
LINE
  8
_0-0_
  6
CONTINUOUS
 62
    7
 10
201.06013640652583
 20
63.779072039407254
 11
201.06013640652583
 21
63.879072039407276
  0
LINE
  8
_0-0_
  6
CONTINUOUS
 62
    7
 10
201.16013640652585
 20
64.052277120164206
 11
201.16013640652585
 21
70.279072039406799
  0
LINE
  8
_0-0_
  6
CONTINUOUS
 62
    7
 10
201.16013640652585
 20
70.279072039407367
 11
199.80319004708923
 21
70.279072039407367
  0
LINE
  8
_0-0_
  6
CONTINUOUS
 62
    7
 10
212.50860438347024
 20
58.395827580805133
 11
212.25861291709123
 21
57.304149557964593
  0
LINE
  8
_0-0_
  6
CONTINUOUS
 62
    7
 10
213.23338114057776
 20
57.080930135689186
 11
213.64121257414024
 21
58.861873379442329
  0
ARC
  8
_0-0_
  6
CONTINUOUS
 62
    7
 10
209.46340378386401
 20
107.99288361181192
 40
52.499999999999979
 50
267.00000000000011
 51
272.11452583200412
  0
ARC
  8
_0-0_
  6
CONTINUOUS
 62
    7
 10
209.46340378386401
 20
107.99288361181192
 40
51.499999999999979
 50
267.00000000000011
 51
272.11540838371081
  0
ARC
  8
_0-0_
  6
CONTINUOUS
 62
    7
 10
206.46013640652575
 20
63.379072039407902
 40
0.2999999999999999
 50
0
 51
90
  0
ARC
  8
_0-0_
  6
CONTINUOUS
 62
    7
 10
206.06013640652543
 20
61.179072039406833
 40
0.5
 50
90
 51
180
  0
ARC
  8
_0-0_
  6
CONTINUOUS
 62
    7
 10
206.87277394983846
 20
58.560721641460589
 40
3
 50
185.00000000000171
 51
267
  0
ARC
  8
_0-0_
  6
CONTINUOUS
 62
    7
 10
206.87277394983823
 20
58.560721641460589
 40
2
 50
184.9999999999996
 51
267.00000000000006
  0
ARC
  8
_0-0_
  6
CONTINUOUS
 62
    7
 10
212.91013640652534
 20
59.02928794614877
 40
0.75
 50
347.10180414975696
 51
237.63058351526001
  0
ARC
  8
_0-0_
  6
CONTINUOUS
 62
    7
 10
211.28384469360469
 20
57.527368980239771
 40
2
 50
272.03662491312815
 51
347.10180414975412
  0
ARC
  8
_0-0_
  6
CONTINUOUS
 62
    7
 10
211.28384469360469
 20
57.527368980239771
 40
1
 50
272.00417538692437
 51
347.10180414976065
  0
ARC
  8
_0-0_
  6
CONTINUOUS
 62
    7
 10
201.16013640652585
 20
63.779072039407254
 40
0.1
 50
180
 51
270
  0
ARC
  8
_0-0_
  6
CONTINUOUS
 62
    7
 10
201.16013640652585
 20
63.879072039407276
 40
0.1
 50
119.99999999999669
 51
180
  0
ARC
  8
_0-0_
  6
CONTINUOUS
 62
    7
 10
201.06013640652583
 20
64.052277120164206
 40
0.1
 50
299.99999999999369
 51
0.0000000000000127
  0
ARC
  8
_0-0_
  6
CONTINUOUS
 62
    7
 10
199.80319004708923
 20
69.779072039407367
 40
0.5
 50
89.999999999999929
 51
173.08877288097548
  0
ARC
  8
_0-0_
  6
CONTINUOUS
 62
    7
 10
199.96013640652581
 20
62.679072039407401
 40
1
 50
180
 51
270
  0
TEXT
  8
_0-7_
 62
    7
 10
23.082277879731464
 20
87.41788667443376
 40
4.2999999999999998
 41
0.744186046511628
 50
0
  1
RR2S
  0
TEXT
  8
_0-7_
 62
    7
 10
200.38511818122322
 20
87.41788667443376
 40
4.2999999999999998
 41
0.744186046511628
 50
0
  1
RR2B
  0
ENDSEC
  0
EOF
