  0
SECTION
  2
HEADER
  9
$ACADVER
  1
AC1009
  9
$INSBASE
 10
0
 20
0
 30
0
  9
$EXTMIN
 10
0
 20
0
  9
$EXTMAX
 10
1189
 20
841
  9
$LIMMIN
 10
0
 20
0
  9
$LIMMAX
 10
1189
 20
841
  9
$LTSCALE
 40
1
  0
ENDSEC
  0
SECTION
  2
TABLES
  0
TABLE
  2
LTYPE
 70
     9
  0
LTYPE
  2
CONTINUOUS
 70
    64
  3
実線
 72
    65
 73
     0
 40
0.0
  0
LTYPE
  2
DASHED1
 70
    64
  3
--  --  --  --  --  --  --  --  
 72
    65
 73
     2
 40
2.5
 49
1.25
 49
-1.25
  0
LTYPE
  2
DASHED2
 70
    64
  3
----    ----    ----    ----    
 72
    65
 73
     2
 40
5.0
 49
2.5
 49
-2.5
  0
LTYPE
  2
DASHED3
 70
    64
  3
------  ------  ------  ------  
 72
    65
 73
     2
 40
5.0
 49
3.75
 49
-1.25
  0
LTYPE
  2
CENTER1
 70
    64
  3
----- - ----- - ----- - ----- - 
 72
    65
 73
     4
 40
10.0
 49
6.25
 49
-1.25
 49
1.25
 49
-1.25
  0
LTYPE
  2
CENTER2
 70
    64
  3
----------  --  ----------  --  
 72
    65
 73
     4
 40
20.0
 49
12.5
 49
-2.5
 49
2.5
 49
-2.5
  0
LTYPE
  2
PHANTOM1
 70
    64
  3
--- - - --- - - --- - - --- - - 
 72
    65
 73
     6
 40
10.0
 49
3.25
 49
-1.25
 49
1.25
 49
-1.25
 49
1.25
 49
-1.25
  0
LTYPE
  2
PHANTOM2
 70
    64
  3
--------  -  -  --------  -  -  
 72
    65
 73
     6
 40
20.0
 49
10.0
 49
-2.5
 49
1.25
 49
-2.5
 49
1.25
 49
-2.5
  0
LTYPE
  2
DOT
 70
    64
  3
-   -   -   -   -   -   -   -   
 72
    65
 73
     2
 40
2.5
 49
0.625
 49
-1.875
  0
LTYPE
  2
DUMMY
 70
    64
  3
ダミー
 72
    65
 73
     0
 40
0.0
  0
LTYPE
  2
RAND1
 70
    64
  3
ランダム線1
 72
    65
 73
     4
 40
10.0
 49
1.0
 49
-2.0
 49
3.0
 49
-4.0
  0
LTYPE
  2
RAND2
 70
    64
  3
ランダム線2
 72
    65
 73
     4
 40
14.0
 49
2.0
 49
-3.0
 49
4.0
 49
-5.0
  0
LTYPE
  2
RAND3
 70
    64
  3
ランダム線3
 72
    65
 73
     4
 40
18.0
 49
3.0
 49
-4.0
 49
5.0
 49
-6.0
  0
LTYPE
  2
RAND4
 70
    64
  3
ランダム線4
 72
    65
 73
     4
 40
22.0
 49
4.0
 49
-5.0
 49
6.0
 49
-7.0
  0
LTYPE
  2
RAND5
 70
    64
  3
ランダム線5
 72
    65
 73
     4
 40
26.0
 49
5.0
 49
-6.0
 49
7.0
 49
-8.0
  0
LTYPE
  2
LONG1
 70
    64
  3
----------  --  ----------  --  
 72
    65
 73
     4
 40
40.0
 49
32.5
 49
-2.5
 49
2.5
 49
-2.5
  0
LTYPE
  2
LONG2
 70
    64
  3
--------  -  -  --------  -  -  
 72
    65
 73
     6
 40
40.0
 49
30.0
 49
-2.5
 49
1.25
 49
-2.5
 49
1.25
 49
-2.5
  0
LTYPE
  2
LONG3
 70
    64
  3
+++++++++++++++..+++++++++++++++
 72
    65
 73
     2
 40
40.0
 49
37.5
 49
-2.5
  0
LTYPE
  2
LONG4
 70
    64
  3
+++++++++++++++..+++++++++++++++
 72
    65
 73
     2
 40
80.0
 49
75.0
 49
-5.0
  0
LTYPE
  2
LONG5
 70
    64
  3
----------  --  ----------  --  
 72
    65
 73
     4
 40
60.0
 49
37.5
 49
-7.5
 49
7.5
 49
-7.5
  0
LTYPE
  2
dashed
 70
   64
  3
-------   -------------   ------
 72
   65
 73
    2
 40
7.5
 49
6
 49
-1.5
  0
LTYPE
  2
dashed_spaced
 70
   64
  3
----        --------        ----
 72
   65
 73
    2
 40
12
 49
6
 49
-6
  0
LTYPE
  2
long_dashed_dotted
 70
   64
  3
------------- --- --------------
 72
   65
 73
    4
 40
15.25
 49
12
 49
-1.5
 49
0.25
 49
-1.5
  0
LTYPE
  2
long_dashed_double-dotted
 70
   64
  3
----------- --- --- ------------
 72
   65
 73
    6
 40
17
 49
12
 49
-1.5
 49
0.25
 49
-1.5
 49
0.25
 49
-1.5
  0
LTYPE
  2
long_dashed_triplicate-dotted
 70
   64
  3
--------- --- --- --- ----------
 72
   65
 73
    8
 40
18.75
 49
12
 49
-1.5
 49
0.25
 49
-1.5
 49
0.25
 49
-1.5
 49
0.25
 49
-1.5
  0
LTYPE
  2
dotted
 70
   64
  3
   -       -       -       -    
 72
   65
 73
    2
 40
1.75
 49
0.25
 49
-1.5
  0
LTYPE
  2
chain
 70
   64
  3
-------------- -- --------------
 72
   65
 73
    4
 40
18.5
 49
12
 49
-1.5
 49
3.5
 49
-1.5
  0
LTYPE
  2
chain_double_dash
 70
   64
  3
------------ -- -- -------------
 72
   65
 73
    6
 40
23.5
 49
12
 49
-1.5
 49
3.5
 49
-1.5
 49
3.5
 49
-1.5
  0
LTYPE
  2
dashed_dotted
 70
   64
  3
-----------     -     ----------
 72
   65
 73
    4
 40
9.25
 49
6
 49
-1.5
 49
0.25
 49
-1.5
  0
LTYPE
  2
double-dashed_dotted
 70
   64
  3
------   -----------   -   -----
 72
   65
 73
    6
 40
16.75
 49
6
 49
-1.5
 49
6
 49
-1.5
 49
0.25
 49
-1.5
  0
LTYPE
  2
dashed_double-dotted
 70
   64
  3
---------    -    -    ---------
 72
   65
 73
    6
 40
11
 49
6
 49
-1.5
 49
0.25
 49
-1.5
 49
0.25
 49
-1.5
  0
LTYPE
  2
double-dashed_double-dotted
 70
   64
  3
-----   ---------   -   -   ----
 72
   65
 73
    8
 40
18.5
 49
6
 49
-1.5
 49
6
 49
-1.5
 49
0.25
 49
-1.5
 49
0.25
 49
-1.5
  0
LTYPE
  2
dashed_triplicate-dotted
 70
   64
  3
-------    -    -    -    ------
 72
   65
 73
    8
 40
12.75
 49
6
 49
-1.5
 49
0.25
 49
-1.5
 49
0.25
 49
-1.5
 49
0.25
 49
-1.5
  0
LTYPE
  2
double-dashed_triplicate-dotted
 70
   64
  3
-----  ---------  -  -  -  -----
 72
   65
 73
   10
 40
20.25
 49
6
 49
-1.5
 49
6
 49
-1.5
 49
0.25
 49
-1.5
 49
0.25
 49
-1.5
 49
0.25
 49
-1.5
  0
LTYPE
  2
undefined
 70
   64
  3
--------------------------------
 72
   65
 73
    0
 40
0
  0
ENDTAB
  0
TABLE
  2
STYLE
  5
3
100
AcDbSymbolTable
 70
     1
  0
STYLE
  5
10
100
AcDbSymbolTableRecord
100
AcDbTextStyleTableRecord
  2
STANDARD
 70
     0
 40
0.0
 41
1.0
 50
0.0
 71
     0
 42
0.2
  3
txt
  4
bigfont.shx
  0
STYLE
  5
26
100
AcDbSymbolTableRecord
100
AcDbTextStyleTableRecord
  2
TATEGAKI
 70
    68
 40
0.0
 41
1.0
 50
0.0
 71
     0
 42
1.0
  3
txt
  4
bigfont.shx
  0
ENDTAB
  0
TABLE
  2
LAYER
 70
    3
  0
LAYER
  2
_0-0_
 70
   64
 62
    7
  6
CONTINUOUS
  0
LAYER
  2
_0-1_
 70
   64
 62
    7
  6
CONTINUOUS
  0
LAYER
  2
ADD_LINE
 70
   64
 62
    7
  6
CONTINUOUS
  0
ENDTAB
  0
ENDSEC
  0
SECTION
  2
BLOCKS
  0
ENDSEC
  0
SECTION
  2
ENTITIES
  0
LINE
  8
_0-0_
  6
CONTINUOUS
 62
    7
 10
29.958759334906404
 20
61.461761096858027
 11
29.958759334906404
 21
36.746393064439417
  0
LINE
  8
_0-0_
  6
CONTINUOUS
 62
    7
 10
29.958759334906404
 20
36.746393064439417
 11
31.458759334906404
 21
36.746393064439417
  0
LINE
  8
_0-0_
  6
CONTINUOUS
 62
    7
 10
31.458759334906404
 20
36.746393064439417
 11
31.458759334906404
 21
61.461761096858027
  0
LINE
  8
_0-0_
  6
CONTINUOUS
 62
    7
 10
31.458759334906404
 20
48.176827847048116
 11
40.788703759453369
 21
47.365528331870564
  0
LINE
  8
_0-0_
  6
CONTINUOUS
 62
    7
 10
40.158759334906222
 20
45.746393064439417
 11
40.158759334906222
 21
42.246393064439417
  0
LINE
  8
_0-0_
  6
CONTINUOUS
 62
    7
 10
40.158759334906222
 20
42.246393064439417
 11
40.910708418982153
 21
42.044908914612051
  0
LINE
  8
_0-0_
  6
CONTINUOUS
 62
    7
 10
38.158759334906222
 20
40.482643551700676
 11
38.158759334906222
 21
45.586671954767553
  0
LINE
  8
_0-0_
  6
CONTINUOUS
 62
    7
 10
38.158759334906222
 20
45.586671954767553
 11
35.158759334906222
 21
45.847541519984588
  0
LINE
  8
_0-0_
  6
CONTINUOUS
 62
    7
 10
35.158759334906222
 20
45.847541519984588
 11
35.158759334906222
 21
39.246393064439417
  0
LINE
  8
_0-0_
  6
CONTINUOUS
 62
    7
 10
35.158759334906222
 20
39.246393064439417
 11
37.29487327599702
 21
39.246393064439417
  0
LINE
  8
_0-0_
  6
CONTINUOUS
 62
    7
 10
37.741090245639157
 20
37.246393064439417
 11
33.509540394264263
 21
37.246393064439417
  0
LINE
  8
_0-0_
  6
CONTINUOUS
 62
    7
 10
32.884845346710222
 20
37.465524254996581
 11
31.458759334906404
 21
38.606393064439544
  0
LINE
  8
_0-0_
  6
CONTINUOUS
 62
    7
 10
31.458759334906404
 20
40.266393064439399
 11
33.158759334906222
 21
39.246393064439417
  0
LINE
  8
_0-0_
  6
CONTINUOUS
 62
    7
 10
33.158759334906222
 20
39.246393064439417
 11
33.158759334906222
 21
42.492546910593546
  0
LINE
  8
_0-0_
  6
CONTINUOUS
 62
    7
 10
33.158759334906222
 20
42.492546910593546
 11
31.458759334906404
 21
43.277162295208655
  0
LINE
  8
_0-0_
  6
CONTINUOUS
 62
    7
 10
31.458759334906404
 20
44.054393064439409
 11
33.158759334906222
 21
43.646393064439508
  0
LINE
  8
_0-0_
  6
CONTINUOUS
 62
    7
 10
33.158759334906222
 20
43.646393064439508
 11
33.158759334906222
 21
44.762923124789722
  0
LINE
  8
_0-0_
  6
CONTINUOUS
 62
    7
 10
32.25684850202822
 20
46.138528209169635
 11
31.458759334906404
 21
46.485523499221927
  0
LINE
  8
_0-0_
  6
CONTINUOUS
 62
    7
 10
40.158759334906222
 20
45.746393064439417
 11
42.158759334906222
 21
45.746393064439417
  0
LINE
  8
_0-0_
  6
CONTINUOUS
 62
    7
 10
42.158759334906222
 20
45.746393064439417
 11
42.158759334906222
 21
45.87116744957666
  0
ARC
  8
_0-0_
  6
CONTINUOUS
 62
    7
 10
40.658759334906222
 20
45.87116744957666
 40
1.5
 50
0
 51
85.030259271890003
  0
ARC
  8
_0-0_
  6
CONTINUOUS
 62
    7
 10
31.198449474635368
 20
44.426510518145733
 40
8
 50
319.64551944211701
 51
330.46314078127301
  0
ARC
  8
_0-0_
  6
CONTINUOUS
 62
    7
 10
37.741090245639157
 20
38.246393064439417
 40
1
 50
270
 51
316.63214901974499
  0
ARC
  8
_0-0_
  6
CONTINUOUS
 62
    7
 10
33.509540394264263
 20
38.246393064439417
 40
1
 50
231.34019174590998
 51
270
  0
ARC
  8
_0-0_
  6
CONTINUOUS
 62
    7
 10
31.658759334906222
 20
44.762923124789722
 40
1.5
 50
0
 51
66.501434324046997
  0
ARC
  8
_0-0_
  6
CONTINUOUS
 62
    7
 10
31.198449474635368
 20
44.426510518145733
 40
10
 50
316.63214901974499
 51
346.22202305785385
  0
LINE
  8
_0-0_
  6
CONTINUOUS
 62
    7
 10
144.94604549856535
 20
46.190087264439626
 11
144.94604549856535
 21
45.265156989388515
  0
LINE
  8
_0-0_
  6
CONTINUOUS
 62
    7
 10
144.94604549856535
 20
44.699471564439591
 11
144.94604549856535
 21
43.774541289388708
  0
LINE
  8
_0-0_
  6
CONTINUOUS
 62
    7
 10
144.94604549856535
 20
43.208855864439556
 11
144.94604549856535
 21
42.283925589388673
  0
LINE
  8
_0-0_
  6
CONTINUOUS
 62
    7
 10
144.94604549856535
 20
41.718240164439521
 11
144.94604549856535
 21
40.793309889388638
  0
LINE
  8
_0-0_
  6
CONTINUOUS
 62
    7
 10
144.94604549856535
 20
40.227624464439486
 11
144.94604549856535
 21
39.302694189388603
  0
LINE
  8
_0-0_
  6
CONTINUOUS
 62
    7
 10
144.94604549856535
 20
38.737008764439452
 11
144.94604549856535
 21
37.812078489388568
  0
LINE
  8
_0-0_
  6
CONTINUOUS
 62
    7
 10
144.94604549856535
 20
37.246393064439417
 11
145.74604549856554
 21
37.246393064439417
  0
LINE
  8
_0-0_
  6
CONTINUOUS
 62
    7
 10
145.74604549856554
 20
37.246393064439417
 11
145.74604549856554
 21
48.246393064439417
  0
LINE
  8
_0-0_
  6
CONTINUOUS
 62
    7
 10
145.74604549856554
 20
48.246393064439417
 11
144.94604549856535
 21
48.246393064439417
  0
LINE
  8
_0-0_
  6
CONTINUOUS
 62
    7
 10
144.94604549856535
 20
47.68070763949072
 11
144.94604549856535
 21
46.75577268938855
  0
LINE
  8
_0-0_
  6
CONTINUOUS
 62
    7
 10
145.94604549856535
 20
46.75577268938855
 11
145.94604549856535
 21
47.68070763949072
  0
LINE
  8
_0-0_
  6
CONTINUOUS
 62
    7
 10
145.94604549856535
 20
48.246393064439417
 11
146.74604549856554
 21
48.246393064439417
  0
LINE
  8
_0-0_
  6
CONTINUOUS
 62
    7
 10
146.74604549856554
 20
48.246393064439417
 11
146.74604549856554
 21
37.246393064439417
  0
LINE
  8
_0-0_
  6
CONTINUOUS
 62
    7
 10
146.74604549856554
 20
37.246393064439417
 11
145.94604549856535
 21
37.246393064439417
  0
LINE
  8
_0-0_
  6
CONTINUOUS
 62
    7
 10
145.94604549856535
 20
37.812078489388568
 11
145.94604549856535
 21
38.737008764439452
  0
LINE
  8
_0-0_
  6
CONTINUOUS
 62
    7
 10
145.94604549856535
 20
39.302694189388603
 11
145.94604549856535
 21
40.227624464439486
  0
LINE
  8
_0-0_
  6
CONTINUOUS
 62
    7
 10
145.94604549856535
 20
40.793309889388638
 11
145.94604549856535
 21
41.718240164439521
  0
LINE
  8
_0-0_
  6
CONTINUOUS
 62
    7
 10
145.94604549856535
 20
42.283925589388673
 11
145.94604549856535
 21
43.208855864439556
  0
LINE
  8
_0-0_
  6
CONTINUOUS
 62
    7
 10
145.94604549856535
 20
43.774541289388708
 11
145.94604549856535
 21
44.699471564439591
  0
LINE
  8
_0-0_
  6
CONTINUOUS
 62
    7
 10
145.94604549856535
 20
45.265156989388515
 11
145.94604549856535
 21
46.190087264439626
  0
LINE
  8
_0-0_
  6
CONTINUOUS
 62
    7
 10
147.099378831899
 20
46.479726397772765
 11
148.60397549032837
 21
46.009539942013589
  0
LINE
  8
_0-0_
  6
CONTINUOUS
 62
    7
 10
147.099378831899
 20
46.479726397772765
 11
146.76655831907806
 21
48.143828961875442
  0
LINE
  8
_0-0_
  6
CONTINUOUS
 62
    7
 10
146.76655831907806
 20
48.143828961875442
 11
152.6320976004497
 21
47.410636551704556
  0
LINE
  8
_0-0_
  6
CONTINUOUS
 62
    7
 10
151.94604549856535
 20
45.746393064439417
 11
153.94604549856535
 21
45.746393064439417
  0
LINE
  8
_0-0_
  6
CONTINUOUS
 62
    7
 10
153.94604549856535
 20
45.746393064439417
 11
153.94604549856535
 21
45.922219736633451
  0
LINE
  8
_0-0_
  6
CONTINUOUS
 62
    7
 10
151.94604549856535
 20
45.746393064439417
 11
151.94604549856535
 21
42.246393064439417
  0
LINE
  8
_0-0_
  6
CONTINUOUS
 62
    7
 10
151.94604549856535
 20
42.246393064439417
 11
152.24604549856554
 21
41.94639306443969
  0
LINE
  8
_0-0_
  6
CONTINUOUS
 62
    7
 10
148.94604549856535
 20
42.246393064439417
 11
146.74604549856554
 21
42.979726397772993
  0
LINE
  8
_0-0_
  6
CONTINUOUS
 62
    7
 10
146.74604549856554
 20
43.609250207296554
 11
149.44604549856535
 21
43.146393064439508
  0
LINE
  8
_0-0_
  6
CONTINUOUS
 62
    7
 10
149.44604549856535
 20
43.146393064439508
 11
149.44604549856535
 21
44.864163968371486
  0
LINE
  8
_0-0_
  6
CONTINUOUS
 62
    7
 10
144.74604549856554
 20
36.746393064439417
 11
144.74604549856554
 21
61.461761096858027
  0
LINE
  8
_0-0_
  6
CONTINUOUS
 62
    7
 10
141.74604549856554
 20
61.461761096858027
 11
141.74604549856554
 21
36.746393064439417
  0
LINE
  8
_0-0_
  6
CONTINUOUS
 62
    7
 10
141.74604549856554
 20
36.746393064439417
 11
144.74604549856554
 21
36.746393064439417
  0
ARC
  8
_0-0_
  6
CONTINUOUS
 62
    7
 10
152.44604549856535
 20
45.922219736633451
 40
1.5
 50
0
 51
82.874983651097992
  0
ARC
  8
_0-0_
  6
CONTINUOUS
 62
    7
 10
148.24604549856554
 20
44.864163968371486
 40
1.2
 50
0
 51
72.645975363738998
  0
ARC
  8
_0-0_
  6
CONTINUOUS
 62
    7
 10
146.04604549856572
 20
47.963550351964614
 40
0.2999999999999998
 50
109.47122063448899
 51
250.52877936551099
  0
ARC
  8
_0-0_
  6
CONTINUOUS
 62
    7
 10
146.04604549856572
 20
37.529235776914447
 40
0.2999999999999998
 50
109.47122063448899
 51
250.52877936551099
  0
ARC
  8
_0-0_
  6
CONTINUOUS
 62
    7
 10
146.04604549856572
 20
39.019851476914482
 40
0.2999999999999998
 50
109.47122063448899
 51
250.52877936551099
  0
ARC
  8
_0-0_
  6
CONTINUOUS
 62
    7
 10
146.04604549856572
 20
40.510467176914517
 40
0.2999999999999998
 50
109.47122063448899
 51
250.52877936551099
  0
ARC
  8
_0-0_
  6
CONTINUOUS
 62
    7
 10
146.04604549856572
 20
42.001082876914552
 40
0.2999999999999998
 50
109.47122063448899
 51
250.52877936551099
  0
ARC
  8
_0-0_
  6
CONTINUOUS
 62
    7
 10
146.04604549856572
 20
43.491698576914587
 40
0.2999999999999998
 50
109.47122063448899
 51
250.52877936551099
  0
ARC
  8
_0-0_
  6
CONTINUOUS
 62
    7
 10
146.04604549856572
 20
44.982314276914622
 40
0.2999999999999998
 50
109.47122063448899
 51
250.52877936551099
  0
ARC
  8
_0-0_
  6
CONTINUOUS
 62
    7
 10
146.04604549856572
 20
46.472929976914656
 40
0.2999999999999998
 50
109.47122063448899
 51
250.52877936551099
  0
ARC
  8
_0-0_
  6
CONTINUOUS
 62
    7
 10
145.04604549856572
 20
47.963550351964614
 40
0.2999999999999998
 50
109.47122063448899
 51
250.52877936551099
  0
ARC
  8
_0-0_
  6
CONTINUOUS
 62
    7
 10
145.04604549856572
 20
37.529235776914447
 40
0.2999999999999998
 50
109.47122063448899
 51
250.52877936551099
  0
ARC
  8
_0-0_
  6
CONTINUOUS
 62
    7
 10
145.04604549856572
 20
39.019851476914482
 40
0.2999999999999998
 50
109.47122063448899
 51
250.52877936551099
  0
ARC
  8
_0-0_
  6
CONTINUOUS
 62
    7
 10
145.04604549856572
 20
40.510467176914517
 40
0.2999999999999998
 50
109.47122063448899
 51
250.52877936551099
  0
ARC
  8
_0-0_
  6
CONTINUOUS
 62
    7
 10
145.04604549856572
 20
42.001082876914552
 40
0.2999999999999998
 50
109.47122063448899
 51
250.52877936551099
  0
ARC
  8
_0-0_
  6
CONTINUOUS
 62
    7
 10
145.04604549856572
 20
43.491698576914587
 40
0.2999999999999998
 50
109.47122063448899
 51
250.52877936551099
  0
ARC
  8
_0-0_
  6
CONTINUOUS
 62
    7
 10
145.04604549856572
 20
44.982314276914622
 40
0.2999999999999998
 50
109.47122063448899
 51
250.52877936551099
  0
ARC
  8
_0-0_
  6
CONTINUOUS
 62
    7
 10
145.04604549856572
 20
46.472929976914656
 40
0.2999999999999998
 50
109.47122063448899
 51
250.52877936551099
  0
ARC
  8
_0-0_
  6
CONTINUOUS
 62
    7
 10
140.59604549856499
 20
45.896393064439508
 40
9.1129029403369994
 50
312.44384441030667
 51
336.38862282781798
  0
ARC
  8
_0-0_
  6
CONTINUOUS
 62
    7
 10
142.06284745670359
 20
48.294816304916367
 40
12
 50
292.97108304055882
 51
328.05970494034949
  0
LINE
  8
_0-0_
  6
CONTINUOUS
 62
    7
 10
210.74604549856554
 20
36.746393064439417
 11
214.74604549856554
 21
36.746393064439417
  0
LINE
  8
_0-0_
  6
CONTINUOUS
 62
    7
 10
214.74604549856554
 20
36.746393064439417
 11
214.74604549856554
 21
61.461761096858027
  0
LINE
  8
_0-0_
  6
CONTINUOUS
 62
    7
 10
210.74604549856554
 20
61.461761096858027
 11
210.74604549856554
 21
36.746393064439417
  0
LINE
  8
_0-0_
  6
CONTINUOUS
 62
    7
 10
214.94604549856535
 20
37.246393064439417
 11
215.74604549856554
 21
37.246393064439417
  0
LINE
  8
_0-0_
  6
CONTINUOUS
 62
    7
 10
215.74604549856554
 20
37.246393064439417
 11
215.74604549856554
 21
48.246393064439417
  0
LINE
  8
_0-0_
  6
CONTINUOUS
 62
    7
 10
215.74604549856554
 20
48.246393064439417
 11
214.94604549856535
 21
48.246393064439417
  0
LINE
  8
_0-0_
  6
CONTINUOUS
 62
    7
 10
214.94604549856535
 20
47.680707639490493
 11
214.94604549856535
 21
46.75577268938855
  0
LINE
  8
_0-0_
  6
CONTINUOUS
 62
    7
 10
214.94604549856535
 20
46.190087264439626
 11
214.94604549856535
 21
45.265156989388515
  0
LINE
  8
_0-0_
  6
CONTINUOUS
 62
    7
 10
214.94604549856535
 20
44.699471564439591
 11
214.94604549856535
 21
43.77454128938848
  0
LINE
  8
_0-0_
  6
CONTINUOUS
 62
    7
 10
214.94604549856535
 20
43.208855864439556
 11
214.94604549856535
 21
42.283925589388673
  0
LINE
  8
_0-0_
  6
CONTINUOUS
 62
    7
 10
214.94604549856535
 20
41.718240164439521
 11
214.94604549856535
 21
40.793309889388638
  0
LINE
  8
_0-0_
  6
CONTINUOUS
 62
    7
 10
214.94604549856535
 20
40.227624464439486
 11
214.94604549856535
 21
39.302694189388603
  0
LINE
  8
_0-0_
  6
CONTINUOUS
 62
    7
 10
214.94604549856535
 20
38.737008764439452
 11
214.94604549856535
 21
37.812078489388568
  0
LINE
  8
_0-0_
  6
CONTINUOUS
 62
    7
 10
215.74604549856554
 20
42.979726397772765
 11
217.94604549856535
 21
42.246393064439417
  0
LINE
  8
_0-0_
  6
CONTINUOUS
 62
    7
 10
218.44604549856535
 20
43.146393064439508
 11
215.74604549856554
 21
43.609250207296554
  0
LINE
  8
_0-0_
  6
CONTINUOUS
 62
    7
 10
218.44604549856535
 20
43.146393064439508
 11
218.44604549856535
 21
44.864163968371486
  0
LINE
  8
_0-0_
  6
CONTINUOUS
 62
    7
 10
217.60397549032837
 20
46.009539942013589
 11
216.099378831899
 21
46.479726397772765
  0
LINE
  8
_0-0_
  6
CONTINUOUS
 62
    7
 10
216.099378831899
 20
46.479726397772765
 11
215.76655831907897
 21
48.143828961875442
  0
LINE
  8
_0-0_
  6
CONTINUOUS
 62
    7
 10
215.76655831907897
 20
48.143828961875442
 11
221.6320976004497
 21
47.410636551704556
  0
LINE
  8
_0-0_
  6
CONTINUOUS
 62
    7
 10
220.94604549856535
 20
45.746393064439417
 11
220.94604549856535
 21
42.246393064439417
  0
LINE
  8
_0-0_
  6
CONTINUOUS
 62
    7
 10
220.94604549856535
 20
42.246393064439417
 11
221.24604549856554
 21
41.94639306443969
  0
LINE
  8
_0-0_
  6
CONTINUOUS
 62
    7
 10
220.94604549856535
 20
45.746393064439417
 11
222.94604549856535
 21
45.746393064439417
  0
LINE
  8
_0-0_
  6
CONTINUOUS
 62
    7
 10
222.94604549856535
 20
45.746393064439417
 11
222.94604549856535
 21
45.922219736633451
  0
ARC
  8
_0-0_
  6
CONTINUOUS
 62
    7
 10
221.44604549856535
 20
45.922219736633451
 40
1.5
 50
0
 51
82.874983651097992
  0
ARC
  8
_0-0_
  6
CONTINUOUS
 62
    7
 10
217.24604549856554
 20
44.864163968371486
 40
1.2
 50
0
 51
72.645975363738998
  0
ARC
  8
_0-0_
  6
CONTINUOUS
 62
    7
 10
215.04604549856572
 20
47.963550351964614
 40
0.2999999999999998
 50
109.47122063448899
 51
250.52877936551099
  0
ARC
  8
_0-0_
  6
CONTINUOUS
 62
    7
 10
215.04604549856572
 20
37.529235776914447
 40
0.2999999999999998
 50
109.47122063448899
 51
250.52877936551099
  0
ARC
  8
_0-0_
  6
CONTINUOUS
 62
    7
 10
215.04604549856572
 20
39.019851476914482
 40
0.2999999999999998
 50
109.47122063448899
 51
250.52877936551099
  0
ARC
  8
_0-0_
  6
CONTINUOUS
 62
    7
 10
215.04604549856572
 20
40.510467176914517
 40
0.2999999999999998
 50
109.47122063448899
 51
250.52877936551099
  0
ARC
  8
_0-0_
  6
CONTINUOUS
 62
    7
 10
215.04604549856572
 20
42.001082876914552
 40
0.2999999999999998
 50
109.47122063448899
 51
250.52877936551099
  0
ARC
  8
_0-0_
  6
CONTINUOUS
 62
    7
 10
215.04604549856572
 20
43.491698576914587
 40
0.2999999999999998
 50
109.47122063448899
 51
250.52877936551099
  0
ARC
  8
_0-0_
  6
CONTINUOUS
 62
    7
 10
215.04604549856572
 20
44.982314276914622
 40
0.2999999999999998
 50
109.47122063448899
 51
250.52877936551099
  0
ARC
  8
_0-0_
  6
CONTINUOUS
 62
    7
 10
215.04604549856572
 20
46.472929976914656
 40
0.2999999999999998
 50
109.47122063448899
 51
250.52877936551099
  0
ARC
  8
_0-0_
  6
CONTINUOUS
 62
    7
 10
209.5960454985659
 20
45.896393064439508
 40
9.1129029403369994
 50
312.44384441030667
 51
336.38862282781798
  0
ARC
  8
_0-0_
  6
CONTINUOUS
 62
    7
 10
211.06284745670359
 20
48.294816304916367
 40
12
 50
292.97108304055882
 51
328.05970494034949
  0
LINE
  8
_0-0_
  6
CONTINUOUS
 62
    7
 10
279.74604549856554
 20
61.461761096858027
 11
279.74604549856554
 21
36.746393064439417
  0
LINE
  8
_0-0_
  6
CONTINUOUS
 62
    7
 10
279.74604549856554
 20
36.746393064439417
 11
284.74604549856554
 21
36.746393064439417
  0
LINE
  8
_0-0_
  6
CONTINUOUS
 62
    7
 10
284.74604549856554
 20
36.746393064439417
 11
284.74604549856554
 21
61.461761096858027
  0
LINE
  8
_0-0_
  6
CONTINUOUS
 62
    7
 10
284.76655831907897
 20
48.143828961875442
 11
290.6320976004497
 21
47.410636551704556
  0
LINE
  8
_0-0_
  6
CONTINUOUS
 62
    7
 10
289.94604549856535
 20
45.746393064439417
 11
289.94604549856535
 21
42.246393064439417
  0
LINE
  8
_0-0_
  6
CONTINUOUS
 62
    7
 10
289.94604549856535
 20
42.246393064439417
 11
290.24604549856554
 21
41.94639306443969
  0
LINE
  8
_0-0_
  6
CONTINUOUS
 62
    7
 10
286.94604549856535
 20
42.246393064439417
 11
284.74604549856554
 21
42.979726397772765
  0
LINE
  8
_0-0_
  6
CONTINUOUS
 62
    7
 10
284.74604549856554
 20
42.979726397772765
 11
284.74604549856554
 21
43.609250207296554
  0
LINE
  8
_0-0_
  6
CONTINUOUS
 62
    7
 10
284.74604549856554
 20
43.609250207296554
 11
287.44604549856535
 21
43.146393064439508
  0
LINE
  8
_0-0_
  6
CONTINUOUS
 62
    7
 10
287.44604549856535
 20
43.146393064439508
 11
287.44604549856535
 21
44.864163968371486
  0
LINE
  8
_0-0_
  6
CONTINUOUS
 62
    7
 10
286.60397549032837
 20
46.009539942013589
 11
285.099378831899
 21
46.479726397772765
  0
LINE
  8
_0-0_
  6
CONTINUOUS
 62
    7
 10
285.099378831899
 20
46.479726397772765
 11
284.76655831907897
 21
48.143828961875442
  0
LINE
  8
_0-0_
  6
CONTINUOUS
 62
    7
 10
289.94604549856535
 20
45.746393064439417
 11
291.94604549856535
 21
45.746393064439417
  0
LINE
  8
_0-0_
  6
CONTINUOUS
 62
    7
 10
291.94604549856535
 20
45.746393064439417
 11
291.94604549856535
 21
45.922219736633451
  0
LINE
  8
_0-0_
  6
CONTINUOUS
 62
    7
 10
284.74604549856554
 20
39.171625410460592
 11
284.74604549856554
 21
37.246393064439872
  0
ARC
  8
_0-0_
  6
CONTINUOUS
 62
    7
 10
290.44604549856535
 20
45.922219736633451
 40
1.5
 50
0
 51
82.874983651097992
  0
ARC
  8
_0-0_
  6
CONTINUOUS
 62
    7
 10
286.24604549856554
 20
44.864163968371486
 40
1.2
 50
0
 51
72.645975363738998
  0
ARC
  8
_0-0_
  6
CONTINUOUS
 62
    7
 10
278.5960454985659
 20
45.896393064439508
 40
9.1129029403369994
 50
312.44384441030667
 51
336.38862282781798
  0
ARC
  8
_0-0_
  6
CONTINUOUS
 62
    7
 10
280.0628474567045
 20
48.294816304916367
 40
12
 50
292.97108304055882
 51
328.05970494034949
  0
TEXT
  8
_0-1_
 62
    7
 10
13.808517830406004
 20
74.960909261376173
 40
5
 41
1
 50
0
  1
RP4S
  0
TEXT
  8
_0-1_
 62
    7
 10
26.691205106518396
 20
66.063513732550518
 40
5
 41
1
 50
0
  1
t1.5用
  0
LINE
  8
_0-1_
  6
PHANTOM1
 62
  152
 10
15.058759334906426
 20
20.14639268296969
 11
15.058759334906426
 21
7.2463930644394168
  0
LINE
  8
_0-1_
  6
PHANTOM1
 62
  152
 10
15.058759334906426
 20
31.346393445909143
 11
15.058759334906426
 21
44.246393064439417
  0
LINE
  8
_0-1_
  6
PHANTOM1
 62
  152
 10
29.4587589534367
 20
45.746393064439417
 11
16.558759334906426
 21
45.746393064439417
  0
LINE
  8
_0-1_
  6
PHANTOM1
 62
  152
 10
40.658759716376153
 20
45.746393064439417
 11
53.558759334906426
 21
45.746393064439417
  0
LINE
  8
_0-1_
  6
PHANTOM1
 62
  152
 10
55.058759334906426
 20
31.346393445909143
 11
55.058759334906426
 21
44.246393064439417
  0
LINE
  8
_0-1_
  6
PHANTOM1
 62
  152
 10
55.058759334906426
 20
20.14639268296969
 11
55.058759334906426
 21
7.2463930644394168
  0
LINE
  8
_0-1_
  6
PHANTOM1
 62
  152
 10
40.658759716376153
 20
5.7463930644394168
 11
53.558759334906426
 21
5.7463930644394168
  0
LINE
  8
_0-1_
  6
PHANTOM1
 62
  152
 10
29.4587589534367
 20
5.7463930644394168
 11
16.558759334906426
 21
5.7463930644394168
  0
LINE
  8
_0-1_
  6
PHANTOM1
 62
  152
 10
17.340725305899468
 20
20.64639268296969
 11
15.558759334906426
 21
20.64639268296969
  0
LINE
  8
_0-1_
  6
PHANTOM1
 62
  152
 10
17.564332130774346
 20
20.593606809556604
 11
18.382366064413873
 21
20.184589246690393
  0
LINE
  8
_0-1_
  6
PHANTOM1
 62
  152
 10
17.340725305899468
 20
30.846393445909143
 11
15.558759334906426
 21
30.846393445909143
  0
LINE
  8
_0-1_
  6
PHANTOM1
 62
  152
 10
17.564332130774346
 20
30.899179319322229
 11
18.382366064413873
 21
31.30819688218844
  0
LINE
  8
_0-1_
  6
PHANTOM1
 62
  152
 10
18.658759239538995
 20
33.246393064439417
 11
18.658759239538995
 21
31.755410055101038
  0
LINE
  8
_0-1_
  6
PHANTOM1
 62
  152
 10
18.658759239538995
 20
18.246393064439417
 11
18.658759239538995
 21
19.737375120103479
  0
LINE
  8
_0-1_
  6
PHANTOM1
 62
  152
 10
29.9587589534367
 20
43.464427093446375
 11
29.9587589534367
 21
45.246393064439417
  0
LINE
  8
_0-1_
  6
PHANTOM1
 62
  152
 10
29.905973080023614
 20
43.240820268571497
 11
29.496955517157403
 21
42.42278633493197
  0
LINE
  8
_0-1_
  6
PHANTOM1
 62
  152
 10
27.558759334906426
 20
42.146393159806848
 11
29.049742344244805
 21
42.146393159806848
  0
LINE
  8
_0-1_
  6
PHANTOM1
 62
  152
 10
42.558759334906426
 20
42.146393159806848
 11
41.067777279242364
 21
42.146393159806848
  0
LINE
  8
_0-1_
  6
PHANTOM1
 62
  152
 10
40.211545589789239
 20
43.240820268571497
 11
40.62056315265545
 21
42.42278633493197
  0
LINE
  8
_0-1_
  6
PHANTOM1
 62
  152
 10
40.158759716376153
 20
43.464427093446375
 11
40.158759716376153
 21
45.246393064439417
  0
LINE
  8
_0-1_
  6
PHANTOM1
 62
  152
 10
52.776792171820489
 20
20.64639268296969
 11
54.558759334906426
 21
20.64639268296969
  0
LINE
  8
_0-1_
  6
PHANTOM1
 62
  152
 10
52.553186062201348
 20
20.593606809556604
 11
51.735150936468926
 21
20.184589246690393
  0
LINE
  8
_0-1_
  6
PHANTOM1
 62
  152
 10
51.458760860785333
 20
18.246393064439417
 11
51.458760860785333
 21
19.737375120103479
  0
LINE
  8
_0-1_
  6
PHANTOM1
 62
  152
 10
51.458760860785333
 20
33.246393064439417
 11
51.458760860785333
 21
31.755410055101038
  0
LINE
  8
_0-1_
  6
PHANTOM1
 62
  152
 10
52.553186062201348
 20
30.899179319322229
 11
51.735150936468926
 21
31.30819688218844
  0
LINE
  8
_0-1_
  6
PHANTOM1
 62
  152
 10
52.776792171820489
 20
30.846393445909143
 11
54.558759334906426
 21
30.846393445909143
  0
LINE
  8
_0-1_
  6
PHANTOM1
 62
  152
 10
29.9587589534367
 20
8.0283602275253543
 11
29.9587589534367
 21
6.2463930644394168
  0
LINE
  8
_0-1_
  6
PHANTOM1
 62
  152
 10
29.905973080023614
 20
8.2519663371444949
 11
29.496955517157403
 21
9.0700014628769168
  0
LINE
  8
_0-1_
  6
PHANTOM1
 62
  152
 10
27.558759334906426
 20
9.3463915385605105
 11
29.049742344244805
 21
9.3463915385605105
  0
LINE
  8
_0-1_
  6
PHANTOM1
 62
  152
 10
42.558759334906426
 20
9.3463915385605105
 11
41.067777279242364
 21
9.3463915385605105
  0
LINE
  8
_0-1_
  6
PHANTOM1
 62
  152
 10
40.211545589789239
 20
8.2519663371444949
 11
40.62056315265545
 21
9.0700014628769168
  0
LINE
  8
_0-1_
  6
PHANTOM1
 62
  152
 10
40.158759716376153
 20
8.0283602275253543
 11
40.158759716376153
 21
6.2463930644394168
  0
LINE
  8
_0-1_
  6
PHANTOM1
 62
  152
 10
27.058759334906426
 20
14.039285520494104
 11
27.058759334906426
 21
9.8463915385605105
  0
LINE
  8
_0-1_
  6
PHANTOM1
 62
  152
 10
28.412313106879083
 20
15.599946836412073
 11
27.20520556293377
 21
14.392839292466761
  0
LINE
  8
_0-1_
  6
PHANTOM1
 62
  152
 10
41.351651790961114
 20
15.746393064439417
 11
28.765865925177422
 21
15.746393064439417
  0
LINE
  8
_0-1_
  6
PHANTOM1
 62
  152
 10
42.912313106879083
 20
14.392839292466761
 11
41.70520556293377
 21
15.599946836412073
  0
LINE
  8
_0-1_
  6
PHANTOM1
 62
  152
 10
43.058759334906426
 20
14.039285520494104
 11
43.058759334906426
 21
9.8463915385605105
  0
LINE
  8
_0-1_
  6
PHANTOM1
 62
  152
 10
46.765866878851739
 20
17.746393064439417
 11
50.958760860785333
 21
17.746393064439417
  0
LINE
  8
_0-1_
  6
PHANTOM1
 62
  152
 10
45.20520556293377
 20
19.099946836412073
 11
46.412313106879083
 21
17.892839292466761
  0
LINE
  8
_0-1_
  6
PHANTOM1
 62
  152
 10
46.412313106879083
 20
33.599946836412073
 11
45.20520556293377
 21
32.392839292466761
  0
LINE
  8
_0-1_
  6
PHANTOM1
 62
  152
 10
46.765866878851739
 20
33.746393064439417
 11
50.958760860785333
 21
33.746393064439417
  0
LINE
  8
_0-1_
  6
PHANTOM1
 62
  152
 10
43.058759334906426
 20
37.453499654710413
 11
43.058759334906426
 21
41.646393159806848
  0
LINE
  8
_0-1_
  6
PHANTOM1
 62
  152
 10
41.70520556293377
 20
35.892839292466761
 11
42.912313106879083
 21
37.099946836412073
  0
LINE
  8
_0-1_
  6
PHANTOM1
 62
  152
 10
28.765865925177422
 20
35.746393064439417
 11
41.351651790961114
 21
35.746393064439417
  0
LINE
  8
_0-1_
  6
PHANTOM1
 62
  152
 10
27.20520556293377
 20
37.099946836412073
 11
28.412313106879083
 21
35.892839292466761
  0
LINE
  8
_0-1_
  6
PHANTOM1
 62
  152
 10
27.058759334906426
 20
37.453499654710413
 11
27.058759334906426
 21
41.646393159806848
  0
LINE
  8
_0-1_
  6
PHANTOM1
 62
  152
 10
23.35165274463543
 20
17.746393064439417
 11
19.158759239538995
 21
17.746393064439417
  0
LINE
  8
_0-1_
  6
PHANTOM1
 62
  152
 10
24.912313106879083
 20
19.099946836412073
 11
23.70520556293377
 21
17.892839292466761
  0
LINE
  8
_0-1_
  6
PHANTOM1
 62
  152
 10
23.70520556293377
 20
33.599946836412073
 11
24.912313106879083
 21
32.392839292466761
  0
LINE
  8
_0-1_
  6
PHANTOM1
 62
  152
 10
23.35165274463543
 20
33.746393064439417
 11
19.158759239538995
 21
33.746393064439417
  0
ARC
  8
_0-1_
  6
PHANTOM1
 62
  152
 10
29.049742344244805
 20
42.646393159806848
 40
0.5
 50
270
 51
333.4349365234375
  0
ARC
  8
_0-1_
  6
PHANTOM1
 62
  152
 10
41.067777279242364
 20
42.646393159806848
 40
0.5
 50
206.56504821777344
 51
270
  0
ARC
  8
_0-1_
  6
PHANTOM1
 62
  152
 10
41.067777279242364
 20
8.8463915385605105
 40
0.5
 50
90
 51
153.43493652343753
  0
ARC
  8
_0-1_
  6
PHANTOM1
 62
  152
 10
29.049742344244805
 20
8.8463915385605105
 40
0.5
 50
26.56504821777343
 51
90
  0
ARC
  8
_0-1_
  6
PHANTOM1
 62
  152
 10
51.958760860785333
 20
31.755410055101038
 40
0.5
 50
180
 51
243.43493652343753
  0
ARC
  8
_0-1_
  6
PHANTOM1
 62
  152
 10
51.958760860785333
 20
19.737375120103479
 40
0.5
 50
116.56504821777345
 51
180.00000000000003
  0
ARC
  8
_0-1_
  6
PHANTOM1
 62
  152
 10
18.158759239538995
 20
19.737375120103479
 40
0.5
 50
0
 51
63.434936523437493
  0
ARC
  8
_0-1_
  6
PHANTOM1
 62
  152
 10
18.158759239538995
 20
31.755410055101038
 40
0.5
 50
296.56504821777344
 51
0
  0
ARC
  8
_0-1_
  6
PHANTOM1
 62
  152
 10
16.558759334906426
 20
7.2463930644394168
 40
1.5
 50
180
 51
270
  0
ARC
  8
_0-1_
  6
PHANTOM1
 62
  152
 10
16.558759334906426
 20
44.246393064439417
 40
1.5
 50
90
 51
180
  0
ARC
  8
_0-1_
  6
PHANTOM1
 62
  152
 10
53.558759334906426
 20
44.246393064439417
 40
1.5
 50
0
 51
90
  0
ARC
  8
_0-1_
  6
PHANTOM1
 62
  152
 10
53.558759334906426
 20
7.2463930644394168
 40
1.5
 50
270
 51
0
  0
ARC
  8
_0-1_
  6
PHANTOM1
 62
  152
 10
15.558759334906426
 20
20.14639268296969
 40
0.5
 50
90
 51
180
  0
ARC
  8
_0-1_
  6
PHANTOM1
 62
  152
 10
15.558759334906426
 20
31.346393445909143
 40
0.5
 50
180
 51
270
  0
ARC
  8
_0-1_
  6
PHANTOM1
 62
  152
 10
29.4587589534367
 20
45.246393064439417
 40
0.5
 50
0
 51
90
  0
ARC
  8
_0-1_
  6
PHANTOM1
 62
  152
 10
40.658759716376153
 20
45.246393064439417
 40
0.5
 50
90
 51
180
  0
ARC
  8
_0-1_
  6
PHANTOM1
 62
  152
 10
54.558759334906426
 20
31.346393445909143
 40
0.5
 50
270
 51
0
  0
ARC
  8
_0-1_
  6
PHANTOM1
 62
  152
 10
54.558759334906426
 20
20.14639268296969
 40
0.5
 50
0
 51
90
  0
ARC
  8
_0-1_
  6
PHANTOM1
 62
  152
 10
40.658759716376153
 20
6.2463930644394168
 40
0.5
 50
180
 51
270
  0
ARC
  8
_0-1_
  6
PHANTOM1
 62
  152
 10
29.4587589534367
 20
6.2463930644394168
 40
0.5
 50
270
 51
359.99998474121094
  0
ARC
  8
_0-1_
  6
PHANTOM1
 62
  152
 10
17.340725305899468
 20
20.14639268296969
 40
0.5
 50
63.434936523437521
 51
90.000000000000028
  0
ARC
  8
_0-1_
  6
PHANTOM1
 62
  152
 10
17.340725305899468
 20
31.346393445909143
 40
0.5
 50
270
 51
296.56504821777344
  0
ARC
  8
_0-1_
  6
PHANTOM1
 62
  152
 10
19.158759239538995
 20
33.246393064439417
 40
0.5
 50
90
 51
180
  0
ARC
  8
_0-1_
  6
PHANTOM1
 62
  152
 10
19.158759239538995
 20
18.246393064439417
 40
0.5
 50
180
 51
270
  0
ARC
  8
_0-1_
  6
PHANTOM1
 62
  152
 10
29.4587589534367
 20
43.464427093446375
 40
0.5
 50
333.4349365234375
 51
0.000000000000019
  0
ARC
  8
_0-1_
  6
PHANTOM1
 62
  152
 10
27.558759334906426
 20
41.646393159806848
 40
0.5
 50
90
 51
180
  0
ARC
  8
_0-1_
  6
PHANTOM1
 62
  152
 10
42.558759334906426
 20
41.646393159806848
 40
0.5
 50
0
 51
90
  0
ARC
  8
_0-1_
  6
PHANTOM1
 62
  152
 10
40.658759716376153
 20
43.464427093446375
 40
0.5
 50
180
 51
206.56504821777344
  0
ARC
  8
_0-1_
  6
PHANTOM1
 62
  152
 10
52.776792171820489
 20
20.14639268296969
 40
0.5
 50
90
 51
116.56504821777344
  0
ARC
  8
_0-1_
  6
PHANTOM1
 62
  152
 10
50.958760860785333
 20
18.246393064439417
 40
0.5
 50
270
 51
0
  0
ARC
  8
_0-1_
  6
PHANTOM1
 62
  152
 10
50.958760860785333
 20
33.246393064439417
 40
0.5
 50
0
 51
90
  0
ARC
  8
_0-1_
  6
PHANTOM1
 62
  152
 10
52.776792171820489
 20
31.346393445909143
 40
0.5
 50
243.43493652343753
 51
270
  0
ARC
  8
_0-1_
  6
PHANTOM1
 62
  152
 10
29.4587589534367
 20
8.0283602275253543
 40
0.5
 50
359.99998474121088
 51
26.565048217773398
  0
ARC
  8
_0-1_
  6
PHANTOM1
 62
  152
 10
27.558759334906426
 20
9.8463915385605105
 40
0.5
 50
180
 51
270
  0
ARC
  8
_0-1_
  6
PHANTOM1
 62
  152
 10
42.558759334906426
 20
9.8463915385605105
 40
0.5
 50
270
 51
0
  0
ARC
  8
_0-1_
  6
PHANTOM1
 62
  152
 10
40.658759716376153
 20
8.0283602275253543
 40
0.5
 50
153.43493652343753
 51
180.00000000000003
  0
ARC
  8
_0-1_
  6
PHANTOM1
 62
  152
 10
27.558759334906426
 20
14.039285520494104
 40
0.5
 50
135
 51
180
  0
ARC
  8
_0-1_
  6
PHANTOM1
 62
  152
 10
28.765865925177422
 20
15.246393064439417
 40
0.5
 50
90
 51
135
  0
ARC
  8
_0-1_
  6
PHANTOM1
 62
  152
 10
41.351651790961114
 20
15.246393064439417
 40
0.5
 50
45.00000000000005
 51
90.000000000000057
  0
ARC
  8
_0-1_
  6
PHANTOM1
 62
  152
 10
42.558759334906426
 20
14.039285520494104
 40
0.5
 50
0
 51
45
  0
ARC
  8
_0-1_
  6
PHANTOM1
 62
  152
 10
46.765866878851739
 20
18.246393064439417
 40
0.5
 50
225
 51
270
  0
ARC
  8
_0-1_
  6
PHANTOM1
 62
  152
 10
45.558759334906426
 20
19.453500608384729
 40
0.5
 50
180
 51
224.99998474121097
  0
ARC
  8
_0-1_
  6
PHANTOM1
 62
  152
 10
45.558759334906426
 20
32.039286474168421
 40
0.5
 50
135
 51
180
  0
ARC
  8
_0-1_
  6
PHANTOM1
 62
  152
 10
46.765866878851739
 20
33.246393064439417
 40
0.5
 50
90
 51
135
  0
ARC
  8
_0-1_
  6
PHANTOM1
 62
  152
 10
42.558759334906426
 20
37.453499654710413
 40
0.5
 50
315
 51
0
  0
ARC
  8
_0-1_
  6
PHANTOM1
 62
  152
 10
41.351651790961114
 20
36.246393064439417
 40
0.5
 50
270
 51
315
  0
ARC
  8
_0-1_
  6
PHANTOM1
 62
  152
 10
28.765865925177422
 20
36.246393064439417
 40
0.5
 50
225
 51
270
  0
ARC
  8
_0-1_
  6
PHANTOM1
 62
  152
 10
27.558759334906426
 20
37.453499654710413
 40
0.5
 50
180
 51
225
  0
ARC
  8
_0-1_
  6
PHANTOM1
 62
  152
 10
23.35165274463543
 20
18.246393064439417
 40
0.5
 50
270
 51
315
  0
ARC
  8
_0-1_
  6
PHANTOM1
 62
  152
 10
24.558759334906426
 20
19.453500608384729
 40
0.5
 50
315
 51
0
  0
ARC
  8
_0-1_
  6
PHANTOM1
 62
  152
 10
24.558759334906426
 20
32.039286474168421
 40
0.5
 50
0
 51
45
  0
ARC
  8
_0-1_
  6
PHANTOM1
 62
  152
 10
23.35165274463543
 20
33.246393064439417
 40
0.5
 50
45.00000000000005
 51
90.000000000000057
  0
LINE
  8
_0-1_
  6
PHANTOM1
 62
  152
 10
45.058759334906426
 20
19.453500608384729
 11
45.058759334906426
 21
32.039286474168421
  0
LINE
  8
_0-1_
  6
PHANTOM1
 62
  152
 10
25.058759334906426
 20
19.453500608384729
 11
25.058759334906426
 21
32.039286474168421
  0
TEXT
  8
_0-1_
 62
    7
 10
135.23442680277708
 20
66.132872385527207
 40
5
 41
1
 50
0
  1
t3用
  0
TEXT
  8
_0-1_
 62
    7
 10
123.1687677267887
 20
74.960909261376173
 40
5
 41
1
 50
0
  1
RP4M
  0
TEXT
  8
_0-1_
 62
    7
 10
208.14043218126676
 20
66.936218789667237
 40
5
 41
1
 50
0
  1
t4用
  0
TEXT
  8
_0-1_
 62
    7
 10
275.18871514299349
 20
67.300126243494788
 40
5
 41
1
 50
0
  1
t5用
  0
LINE
  8
_0-1_
  6
PHANTOM1
 62
  152
 10
126.84604549856556
 20
20.14639268296969
 11
126.84604549856556
 21
7.2463930644394168
  0
LINE
  8
_0-1_
  6
PHANTOM1
 62
  152
 10
126.84604549856556
 20
31.346393445909143
 11
126.84604549856556
 21
44.246393064439417
  0
LINE
  8
_0-1_
  6
PHANTOM1
 62
  152
 10
141.24604511709583
 20
45.746393064439417
 11
128.34604549856556
 21
45.746393064439417
  0
LINE
  8
_0-1_
  6
PHANTOM1
 62
  152
 10
152.44604588003529
 20
45.746393064439417
 11
165.34604549856556
 21
45.746393064439417
  0
LINE
  8
_0-1_
  6
PHANTOM1
 62
  152
 10
166.84604549856556
 20
31.346393445909143
 11
166.84604549856556
 21
44.246393064439417
  0
LINE
  8
_0-1_
  6
PHANTOM1
 62
  152
 10
166.84604549856556
 20
20.14639268296969
 11
166.84604549856556
 21
7.2463930644394168
  0
LINE
  8
_0-1_
  6
PHANTOM1
 62
  152
 10
152.44604588003529
 20
5.7463930644394168
 11
165.34604549856556
 21
5.7463930644394168
  0
LINE
  8
_0-1_
  6
PHANTOM1
 62
  152
 10
141.24604511709583
 20
5.7463930644394168
 11
128.34604549856556
 21
5.7463930644394168
  0
LINE
  8
_0-1_
  6
PHANTOM1
 62
  152
 10
129.1280114695586
 20
20.64639268296969
 11
127.34604549856556
 21
20.64639268296969
  0
LINE
  8
_0-1_
  6
PHANTOM1
 62
  152
 10
129.35161829443348
 20
20.593606809556604
 11
130.16965222807301
 21
20.184589246690393
  0
LINE
  8
_0-1_
  6
PHANTOM1
 62
  152
 10
129.1280114695586
 20
30.846393445909143
 11
127.34604549856556
 21
30.846393445909143
  0
LINE
  8
_0-1_
  6
PHANTOM1
 62
  152
 10
129.35161829443348
 20
30.899179319322229
 11
130.16965222807301
 21
31.30819688218844
  0
LINE
  8
_0-1_
  6
PHANTOM1
 62
  152
 10
130.44604540319813
 20
33.246393064439417
 11
130.44604540319813
 21
31.755410055101038
  0
LINE
  8
_0-1_
  6
PHANTOM1
 62
  152
 10
130.44604540319813
 20
18.246393064439417
 11
130.44604540319813
 21
19.737375120103479
  0
LINE
  8
_0-1_
  6
PHANTOM1
 62
  152
 10
141.74604511709583
 20
43.464427093446375
 11
141.74604511709583
 21
45.246393064439417
  0
LINE
  8
_0-1_
  6
PHANTOM1
 62
  152
 10
141.69325924368275
 20
43.240820268571497
 11
141.28424168081654
 21
42.42278633493197
  0
LINE
  8
_0-1_
  6
PHANTOM1
 62
  152
 10
139.34604549856556
 20
42.146393159806848
 11
140.83702850790394
 21
42.146393159806848
  0
LINE
  8
_0-1_
  6
PHANTOM1
 62
  152
 10
154.34604549856556
 20
42.146393159806848
 11
152.8550634429015
 21
42.146393159806848
  0
LINE
  8
_0-1_
  6
PHANTOM1
 62
  152
 10
151.99883175344837
 20
43.240820268571497
 11
152.40784931631458
 21
42.42278633493197
  0
LINE
  8
_0-1_
  6
PHANTOM1
 62
  152
 10
151.94604588003529
 20
43.464427093446375
 11
151.94604588003529
 21
45.246393064439417
  0
LINE
  8
_0-1_
  6
PHANTOM1
 62
  152
 10
164.56407833547962
 20
20.64639268296969
 11
166.34604549856556
 21
20.64639268296969
  0
LINE
  8
_0-1_
  6
PHANTOM1
 62
  152
 10
164.34047222586048
 20
20.593606809556604
 11
163.52243710012806
 21
20.184589246690393
  0
LINE
  8
_0-1_
  6
PHANTOM1
 62
  152
 10
163.24604702444447
 20
18.246393064439417
 11
163.24604702444447
 21
19.737375120103479
  0
LINE
  8
_0-1_
  6
PHANTOM1
 62
  152
 10
163.24604702444447
 20
33.246393064439417
 11
163.24604702444447
 21
31.755410055101038
  0
LINE
  8
_0-1_
  6
PHANTOM1
 62
  152
 10
164.34047222586048
 20
30.899179319322229
 11
163.52243710012806
 21
31.30819688218844
  0
LINE
  8
_0-1_
  6
PHANTOM1
 62
  152
 10
164.56407833547962
 20
30.846393445909143
 11
166.34604549856556
 21
30.846393445909143
  0
LINE
  8
_0-1_
  6
PHANTOM1
 62
  152
 10
141.74604511709583
 20
8.0283602275253543
 11
141.74604511709583
 21
6.2463930644394168
  0
LINE
  8
_0-1_
  6
PHANTOM1
 62
  152
 10
141.69325924368275
 20
8.2519663371444949
 11
141.28424168081654
 21
9.0700014628769168
  0
LINE
  8
_0-1_
  6
PHANTOM1
 62
  152
 10
139.34604549856556
 20
9.3463915385605105
 11
140.83702850790394
 21
9.3463915385605105
  0
LINE
  8
_0-1_
  6
PHANTOM1
 62
  152
 10
154.34604549856556
 20
9.3463915385605105
 11
152.8550634429015
 21
9.3463915385605105
  0
LINE
  8
_0-1_
  6
PHANTOM1
 62
  152
 10
151.99883175344837
 20
8.2519663371444949
 11
152.40784931631458
 21
9.0700014628769168
  0
LINE
  8
_0-1_
  6
PHANTOM1
 62
  152
 10
151.94604588003529
 20
8.0283602275253543
 11
151.94604588003529
 21
6.2463930644394168
  0
LINE
  8
_0-1_
  6
PHANTOM1
 62
  152
 10
138.84604549856556
 20
14.039285520494104
 11
138.84604549856556
 21
9.8463915385605105
  0
LINE
  8
_0-1_
  6
PHANTOM1
 62
  152
 10
140.19959927053822
 20
15.599946836412073
 11
138.9924917265929
 21
14.392839292466761
  0
LINE
  8
_0-1_
  6
PHANTOM1
 62
  152
 10
153.13893795462025
 20
15.746393064439417
 11
140.55315208883655
 21
15.746393064439417
  0
LINE
  8
_0-1_
  6
PHANTOM1
 62
  152
 10
154.69959927053822
 20
14.392839292466761
 11
153.4924917265929
 21
15.599946836412073
  0
LINE
  8
_0-1_
  6
PHANTOM1
 62
  152
 10
154.84604549856556
 20
14.039285520494104
 11
154.84604549856556
 21
9.8463915385605105
  0
LINE
  8
_0-1_
  6
PHANTOM1
 62
  152
 10
158.55315304251087
 20
17.746393064439417
 11
162.74604702444447
 21
17.746393064439417
  0
LINE
  8
_0-1_
  6
PHANTOM1
 62
  152
 10
156.9924917265929
 20
19.099946836412073
 11
158.19959927053822
 21
17.892839292466761
  0
LINE
  8
_0-1_
  6
PHANTOM1
 62
  152
 10
158.19959927053822
 20
33.599946836412073
 11
156.9924917265929
 21
32.392839292466761
  0
LINE
  8
_0-1_
  6
PHANTOM1
 62
  152
 10
158.55315304251087
 20
33.746393064439417
 11
162.74604702444447
 21
33.746393064439417
  0
LINE
  8
_0-1_
  6
PHANTOM1
 62
  152
 10
154.84604549856556
 20
37.453499654710413
 11
154.84604549856556
 21
41.646393159806848
  0
LINE
  8
_0-1_
  6
PHANTOM1
 62
  152
 10
153.4924917265929
 20
35.892839292466761
 11
154.69959927053822
 21
37.099946836412073
  0
LINE
  8
_0-1_
  6
PHANTOM1
 62
  152
 10
140.55315208883655
 20
35.746393064439417
 11
153.13893795462025
 21
35.746393064439417
  0
LINE
  8
_0-1_
  6
PHANTOM1
 62
  152
 10
138.9924917265929
 20
37.099946836412073
 11
140.19959927053822
 21
35.892839292466761
  0
LINE
  8
_0-1_
  6
PHANTOM1
 62
  152
 10
138.84604549856556
 20
37.453499654710413
 11
138.84604549856556
 21
41.646393159806848
  0
LINE
  8
_0-1_
  6
PHANTOM1
 62
  152
 10
135.13893890829456
 20
17.746393064439417
 11
130.94604540319813
 21
17.746393064439417
  0
LINE
  8
_0-1_
  6
PHANTOM1
 62
  152
 10
136.69959927053822
 20
19.099946836412073
 11
135.4924917265929
 21
17.892839292466761
  0
LINE
  8
_0-1_
  6
PHANTOM1
 62
  152
 10
135.4924917265929
 20
33.599946836412073
 11
136.69959927053822
 21
32.392839292466761
  0
LINE
  8
_0-1_
  6
PHANTOM1
 62
  152
 10
135.13893890829456
 20
33.746393064439417
 11
130.94604540319813
 21
33.746393064439417
  0
ARC
  8
_0-1_
  6
PHANTOM1
 62
  152
 10
140.83702850790394
 20
42.646393159806848
 40
0.5
 50
270
 51
333.4349365234375
  0
ARC
  8
_0-1_
  6
PHANTOM1
 62
  152
 10
152.8550634429015
 20
42.646393159806848
 40
0.5
 50
206.56504821777344
 51
270
  0
ARC
  8
_0-1_
  6
PHANTOM1
 62
  152
 10
152.8550634429015
 20
8.8463915385605105
 40
0.5
 50
90
 51
153.43493652343753
  0
ARC
  8
_0-1_
  6
PHANTOM1
 62
  152
 10
140.83702850790394
 20
8.8463915385605105
 40
0.5
 50
26.56504821777343
 51
90
  0
ARC
  8
_0-1_
  6
PHANTOM1
 62
  152
 10
163.74604702444447
 20
31.755410055101038
 40
0.5
 50
180
 51
243.43493652343753
  0
ARC
  8
_0-1_
  6
PHANTOM1
 62
  152
 10
163.74604702444447
 20
19.737375120103479
 40
0.5
 50
116.56504821777345
 51
180.00000000000003
  0
ARC
  8
_0-1_
  6
PHANTOM1
 62
  152
 10
129.94604540319813
 20
19.737375120103479
 40
0.5
 50
0
 51
63.434936523437493
  0
ARC
  8
_0-1_
  6
PHANTOM1
 62
  152
 10
129.94604540319813
 20
31.755410055101038
 40
0.5
 50
296.56504821777344
 51
0
  0
ARC
  8
_0-1_
  6
PHANTOM1
 62
  152
 10
128.34604549856556
 20
7.2463930644394168
 40
1.5
 50
180
 51
270
  0
ARC
  8
_0-1_
  6
PHANTOM1
 62
  152
 10
128.34604549856556
 20
44.246393064439417
 40
1.5
 50
90
 51
180
  0
ARC
  8
_0-1_
  6
PHANTOM1
 62
  152
 10
165.34604549856556
 20
44.246393064439417
 40
1.5
 50
0
 51
90
  0
ARC
  8
_0-1_
  6
PHANTOM1
 62
  152
 10
165.34604549856556
 20
7.2463930644394168
 40
1.5
 50
270
 51
0
  0
ARC
  8
_0-1_
  6
PHANTOM1
 62
  152
 10
127.34604549856556
 20
20.14639268296969
 40
0.5
 50
90
 51
180
  0
ARC
  8
_0-1_
  6
PHANTOM1
 62
  152
 10
127.34604549856556
 20
31.346393445909143
 40
0.5
 50
180
 51
270
  0
ARC
  8
_0-1_
  6
PHANTOM1
 62
  152
 10
141.24604511709583
 20
45.246393064439417
 40
0.5
 50
0
 51
90
  0
ARC
  8
_0-1_
  6
PHANTOM1
 62
  152
 10
152.44604588003529
 20
45.246393064439417
 40
0.5
 50
90
 51
180
  0
ARC
  8
_0-1_
  6
PHANTOM1
 62
  152
 10
166.34604549856556
 20
31.346393445909143
 40
0.5
 50
270
 51
0
  0
ARC
  8
_0-1_
  6
PHANTOM1
 62
  152
 10
166.34604549856556
 20
20.14639268296969
 40
0.5
 50
0
 51
90
  0
ARC
  8
_0-1_
  6
PHANTOM1
 62
  152
 10
152.44604588003529
 20
6.2463930644394168
 40
0.5
 50
180
 51
270
  0
ARC
  8
_0-1_
  6
PHANTOM1
 62
  152
 10
141.24604511709583
 20
6.2463930644394168
 40
0.5
 50
270
 51
359.99998474121094
  0
ARC
  8
_0-1_
  6
PHANTOM1
 62
  152
 10
129.1280114695586
 20
20.14639268296969
 40
0.5
 50
63.434936523437521
 51
90.000000000000028
  0
ARC
  8
_0-1_
  6
PHANTOM1
 62
  152
 10
129.1280114695586
 20
31.346393445909143
 40
0.5
 50
270
 51
296.56504821777344
  0
ARC
  8
_0-1_
  6
PHANTOM1
 62
  152
 10
130.94604540319813
 20
33.246393064439417
 40
0.5
 50
90
 51
180
  0
ARC
  8
_0-1_
  6
PHANTOM1
 62
  152
 10
130.94604540319813
 20
18.246393064439417
 40
0.5
 50
180
 51
270
  0
ARC
  8
_0-1_
  6
PHANTOM1
 62
  152
 10
141.24604511709583
 20
43.464427093446375
 40
0.5
 50
333.4349365234375
 51
0.000000000000019
  0
ARC
  8
_0-1_
  6
PHANTOM1
 62
  152
 10
139.34604549856556
 20
41.646393159806848
 40
0.5
 50
90
 51
180
  0
ARC
  8
_0-1_
  6
PHANTOM1
 62
  152
 10
154.34604549856556
 20
41.646393159806848
 40
0.5
 50
0
 51
90
  0
ARC
  8
_0-1_
  6
PHANTOM1
 62
  152
 10
152.44604588003529
 20
43.464427093446375
 40
0.5
 50
180
 51
206.56504821777344
  0
ARC
  8
_0-1_
  6
PHANTOM1
 62
  152
 10
164.56407833547962
 20
20.14639268296969
 40
0.5
 50
90
 51
116.56504821777344
  0
ARC
  8
_0-1_
  6
PHANTOM1
 62
  152
 10
162.74604702444447
 20
18.246393064439417
 40
0.5
 50
270
 51
0
  0
ARC
  8
_0-1_
  6
PHANTOM1
 62
  152
 10
162.74604702444447
 20
33.246393064439417
 40
0.5
 50
0
 51
90
  0
ARC
  8
_0-1_
  6
PHANTOM1
 62
  152
 10
164.56407833547962
 20
31.346393445909143
 40
0.5
 50
243.43493652343753
 51
270
  0
ARC
  8
_0-1_
  6
PHANTOM1
 62
  152
 10
141.24604511709583
 20
8.0283602275253543
 40
0.5
 50
359.99998474121088
 51
26.565048217773398
  0
ARC
  8
_0-1_
  6
PHANTOM1
 62
  152
 10
139.34604549856556
 20
9.8463915385605105
 40
0.5
 50
180
 51
270
  0
ARC
  8
_0-1_
  6
PHANTOM1
 62
  152
 10
154.34604549856556
 20
9.8463915385605105
 40
0.5
 50
270
 51
0
  0
ARC
  8
_0-1_
  6
PHANTOM1
 62
  152
 10
152.44604588003529
 20
8.0283602275253543
 40
0.5
 50
153.43493652343753
 51
180.00000000000003
  0
ARC
  8
_0-1_
  6
PHANTOM1
 62
  152
 10
139.34604549856556
 20
14.039285520494104
 40
0.5
 50
135
 51
180
  0
ARC
  8
_0-1_
  6
PHANTOM1
 62
  152
 10
140.55315208883655
 20
15.246393064439417
 40
0.5
 50
90
 51
135
  0
ARC
  8
_0-1_
  6
PHANTOM1
 62
  152
 10
153.13893795462025
 20
15.246393064439417
 40
0.5
 50
45.00000000000005
 51
90.000000000000057
  0
ARC
  8
_0-1_
  6
PHANTOM1
 62
  152
 10
154.34604549856556
 20
14.039285520494104
 40
0.5
 50
0
 51
45
  0
ARC
  8
_0-1_
  6
PHANTOM1
 62
  152
 10
158.55315304251087
 20
18.246393064439417
 40
0.5
 50
225
 51
270
  0
ARC
  8
_0-1_
  6
PHANTOM1
 62
  152
 10
157.34604549856556
 20
19.453500608384729
 40
0.5
 50
180
 51
224.99998474121097
  0
ARC
  8
_0-1_
  6
PHANTOM1
 62
  152
 10
157.34604549856556
 20
32.039286474168421
 40
0.5
 50
135
 51
180
  0
ARC
  8
_0-1_
  6
PHANTOM1
 62
  152
 10
158.55315304251087
 20
33.246393064439417
 40
0.5
 50
90
 51
135
  0
ARC
  8
_0-1_
  6
PHANTOM1
 62
  152
 10
154.34604549856556
 20
37.453499654710413
 40
0.5
 50
315
 51
0
  0
ARC
  8
_0-1_
  6
PHANTOM1
 62
  152
 10
153.13893795462025
 20
36.246393064439417
 40
0.5
 50
270
 51
315
  0
ARC
  8
_0-1_
  6
PHANTOM1
 62
  152
 10
140.55315208883655
 20
36.246393064439417
 40
0.5
 50
225
 51
270
  0
ARC
  8
_0-1_
  6
PHANTOM1
 62
  152
 10
139.34604549856556
 20
37.453499654710413
 40
0.5
 50
180
 51
225
  0
ARC
  8
_0-1_
  6
PHANTOM1
 62
  152
 10
135.13893890829456
 20
18.246393064439417
 40
0.5
 50
270
 51
315
  0
ARC
  8
_0-1_
  6
PHANTOM1
 62
  152
 10
136.34604549856556
 20
19.453500608384729
 40
0.5
 50
315
 51
0
  0
ARC
  8
_0-1_
  6
PHANTOM1
 62
  152
 10
136.34604549856556
 20
32.039286474168421
 40
0.5
 50
0
 51
45
  0
ARC
  8
_0-1_
  6
PHANTOM1
 62
  152
 10
135.13893890829456
 20
33.246393064439417
 40
0.5
 50
45.00000000000005
 51
90.000000000000057
  0
LINE
  8
_0-1_
  6
PHANTOM1
 62
  152
 10
156.84604549856556
 20
19.453500608384729
 11
156.84604549856556
 21
32.039286474168421
  0
LINE
  8
_0-1_
  6
PHANTOM1
 62
  152
 10
136.84604549856556
 20
19.453500608384729
 11
136.84604549856556
 21
32.039286474168421
  0
LINE
  8
_0-1_
  6
PHANTOM1
 62
  152
 10
195.84604549856556
 20
20.14639268296969
 11
195.84604549856556
 21
7.2463930644394168
  0
LINE
  8
_0-1_
  6
PHANTOM1
 62
  152
 10
195.84604549856556
 20
31.346393445909143
 11
195.84604549856556
 21
44.246393064439417
  0
LINE
  8
_0-1_
  6
PHANTOM1
 62
  152
 10
210.24604511709583
 20
45.746393064439417
 11
197.34604549856556
 21
45.746393064439417
  0
LINE
  8
_0-1_
  6
PHANTOM1
 62
  152
 10
221.44604588003529
 20
45.746393064439417
 11
234.34604549856556
 21
45.746393064439417
  0
LINE
  8
_0-1_
  6
PHANTOM1
 62
  152
 10
235.84604549856556
 20
31.346393445909143
 11
235.84604549856556
 21
44.246393064439417
  0
LINE
  8
_0-1_
  6
PHANTOM1
 62
  152
 10
235.84604549856556
 20
20.14639268296969
 11
235.84604549856556
 21
7.2463930644394168
  0
LINE
  8
_0-1_
  6
PHANTOM1
 62
  152
 10
221.44604588003529
 20
5.7463930644394168
 11
234.34604549856556
 21
5.7463930644394168
  0
LINE
  8
_0-1_
  6
PHANTOM1
 62
  152
 10
210.24604511709583
 20
5.7463930644394168
 11
197.34604549856556
 21
5.7463930644394168
  0
LINE
  8
_0-1_
  6
PHANTOM1
 62
  152
 10
198.1280114695586
 20
20.64639268296969
 11
196.34604549856556
 21
20.64639268296969
  0
LINE
  8
_0-1_
  6
PHANTOM1
 62
  152
 10
198.35161829443348
 20
20.593606809556604
 11
199.16965222807301
 21
20.184589246690393
  0
LINE
  8
_0-1_
  6
PHANTOM1
 62
  152
 10
198.1280114695586
 20
30.846393445909143
 11
196.34604549856556
 21
30.846393445909143
  0
LINE
  8
_0-1_
  6
PHANTOM1
 62
  152
 10
198.35161829443348
 20
30.899179319322229
 11
199.16965222807301
 21
31.30819688218844
  0
LINE
  8
_0-1_
  6
PHANTOM1
 62
  152
 10
199.44604540319813
 20
33.246393064439417
 11
199.44604540319813
 21
31.755410055101038
  0
LINE
  8
_0-1_
  6
PHANTOM1
 62
  152
 10
199.44604540319813
 20
18.246393064439417
 11
199.44604540319813
 21
19.737375120103479
  0
LINE
  8
_0-1_
  6
PHANTOM1
 62
  152
 10
210.74604511709583
 20
43.464427093446375
 11
210.74604511709583
 21
45.246393064439417
  0
LINE
  8
_0-1_
  6
PHANTOM1
 62
  152
 10
210.69325924368275
 20
43.240820268571497
 11
210.28424168081654
 21
42.42278633493197
  0
LINE
  8
_0-1_
  6
PHANTOM1
 62
  152
 10
208.34604549856556
 20
42.146393159806848
 11
209.83702850790394
 21
42.146393159806848
  0
LINE
  8
_0-1_
  6
PHANTOM1
 62
  152
 10
223.34604549856556
 20
42.146393159806848
 11
221.8550634429015
 21
42.146393159806848
  0
LINE
  8
_0-1_
  6
PHANTOM1
 62
  152
 10
220.99883175344837
 20
43.240820268571497
 11
221.40784931631458
 21
42.42278633493197
  0
LINE
  8
_0-1_
  6
PHANTOM1
 62
  152
 10
220.94604588003529
 20
43.464427093446375
 11
220.94604588003529
 21
45.246393064439417
  0
LINE
  8
_0-1_
  6
PHANTOM1
 62
  152
 10
233.56407833547962
 20
20.64639268296969
 11
235.34604549856556
 21
20.64639268296969
  0
LINE
  8
_0-1_
  6
PHANTOM1
 62
  152
 10
233.34047222586048
 20
20.593606809556604
 11
232.52243710012806
 21
20.184589246690393
  0
LINE
  8
_0-1_
  6
PHANTOM1
 62
  152
 10
232.24604702444447
 20
18.246393064439417
 11
232.24604702444447
 21
19.737375120103479
  0
LINE
  8
_0-1_
  6
PHANTOM1
 62
  152
 10
232.24604702444447
 20
33.246393064439417
 11
232.24604702444447
 21
31.755410055101038
  0
LINE
  8
_0-1_
  6
PHANTOM1
 62
  152
 10
233.34047222586048
 20
30.899179319322229
 11
232.52243710012806
 21
31.30819688218844
  0
LINE
  8
_0-1_
  6
PHANTOM1
 62
  152
 10
233.56407833547962
 20
30.846393445909143
 11
235.34604549856556
 21
30.846393445909143
  0
LINE
  8
_0-1_
  6
PHANTOM1
 62
  152
 10
210.74604511709583
 20
8.0283602275253543
 11
210.74604511709583
 21
6.2463930644394168
  0
LINE
  8
_0-1_
  6
PHANTOM1
 62
  152
 10
210.69325924368275
 20
8.2519663371444949
 11
210.28424168081654
 21
9.0700014628769168
  0
LINE
  8
_0-1_
  6
PHANTOM1
 62
  152
 10
208.34604549856556
 20
9.3463915385605105
 11
209.83702850790394
 21
9.3463915385605105
  0
LINE
  8
_0-1_
  6
PHANTOM1
 62
  152
 10
223.34604549856556
 20
9.3463915385605105
 11
221.8550634429015
 21
9.3463915385605105
  0
LINE
  8
_0-1_
  6
PHANTOM1
 62
  152
 10
220.99883175344837
 20
8.2519663371444949
 11
221.40784931631458
 21
9.0700014628769168
  0
LINE
  8
_0-1_
  6
PHANTOM1
 62
  152
 10
220.94604588003529
 20
8.0283602275253543
 11
220.94604588003529
 21
6.2463930644394168
  0
LINE
  8
_0-1_
  6
PHANTOM1
 62
  152
 10
207.84604549856556
 20
14.039285520494104
 11
207.84604549856556
 21
9.8463915385605105
  0
LINE
  8
_0-1_
  6
PHANTOM1
 62
  152
 10
209.19959927053822
 20
15.599946836412073
 11
207.9924917265929
 21
14.392839292466761
  0
LINE
  8
_0-1_
  6
PHANTOM1
 62
  152
 10
222.13893795462025
 20
15.746393064439417
 11
209.55315208883655
 21
15.746393064439417
  0
LINE
  8
_0-1_
  6
PHANTOM1
 62
  152
 10
223.69959927053822
 20
14.392839292466761
 11
222.4924917265929
 21
15.599946836412073
  0
LINE
  8
_0-1_
  6
PHANTOM1
 62
  152
 10
223.84604549856556
 20
14.039285520494104
 11
223.84604549856556
 21
9.8463915385605105
  0
LINE
  8
_0-1_
  6
PHANTOM1
 62
  152
 10
227.55315304251087
 20
17.746393064439417
 11
231.74604702444447
 21
17.746393064439417
  0
LINE
  8
_0-1_
  6
PHANTOM1
 62
  152
 10
225.9924917265929
 20
19.099946836412073
 11
227.19959927053822
 21
17.892839292466761
  0
LINE
  8
_0-1_
  6
PHANTOM1
 62
  152
 10
227.19959927053822
 20
33.599946836412073
 11
225.9924917265929
 21
32.392839292466761
  0
LINE
  8
_0-1_
  6
PHANTOM1
 62
  152
 10
227.55315304251087
 20
33.746393064439417
 11
231.74604702444447
 21
33.746393064439417
  0
LINE
  8
_0-1_
  6
PHANTOM1
 62
  152
 10
223.84604549856556
 20
37.453499654710413
 11
223.84604549856556
 21
41.646393159806848
  0
LINE
  8
_0-1_
  6
PHANTOM1
 62
  152
 10
222.4924917265929
 20
35.892839292466761
 11
223.69959927053822
 21
37.099946836412073
  0
LINE
  8
_0-1_
  6
PHANTOM1
 62
  152
 10
209.55315208883655
 20
35.746393064439417
 11
222.13893795462025
 21
35.746393064439417
  0
LINE
  8
_0-1_
  6
PHANTOM1
 62
  152
 10
207.9924917265929
 20
37.099946836412073
 11
209.19959927053822
 21
35.892839292466761
  0
LINE
  8
_0-1_
  6
PHANTOM1
 62
  152
 10
207.84604549856556
 20
37.453499654710413
 11
207.84604549856556
 21
41.646393159806848
  0
LINE
  8
_0-1_
  6
PHANTOM1
 62
  152
 10
204.13893890829456
 20
17.746393064439417
 11
199.94604540319813
 21
17.746393064439417
  0
LINE
  8
_0-1_
  6
PHANTOM1
 62
  152
 10
205.69959927053822
 20
19.099946836412073
 11
204.4924917265929
 21
17.892839292466761
  0
LINE
  8
_0-1_
  6
PHANTOM1
 62
  152
 10
204.4924917265929
 20
33.599946836412073
 11
205.69959927053822
 21
32.392839292466761
  0
LINE
  8
_0-1_
  6
PHANTOM1
 62
  152
 10
204.13893890829456
 20
33.746393064439417
 11
199.94604540319813
 21
33.746393064439417
  0
ARC
  8
_0-1_
  6
PHANTOM1
 62
  152
 10
209.83702850790394
 20
42.646393159806848
 40
0.5
 50
270
 51
333.4349365234375
  0
ARC
  8
_0-1_
  6
PHANTOM1
 62
  152
 10
221.8550634429015
 20
42.646393159806848
 40
0.5
 50
206.56504821777344
 51
270
  0
ARC
  8
_0-1_
  6
PHANTOM1
 62
  152
 10
221.8550634429015
 20
8.8463915385605105
 40
0.5
 50
90
 51
153.43493652343753
  0
ARC
  8
_0-1_
  6
PHANTOM1
 62
  152
 10
209.83702850790394
 20
8.8463915385605105
 40
0.5
 50
26.56504821777343
 51
90
  0
ARC
  8
_0-1_
  6
PHANTOM1
 62
  152
 10
232.74604702444447
 20
31.755410055101038
 40
0.5
 50
180
 51
243.43493652343753
  0
ARC
  8
_0-1_
  6
PHANTOM1
 62
  152
 10
232.74604702444447
 20
19.737375120103479
 40
0.5
 50
116.56504821777345
 51
180.00000000000003
  0
ARC
  8
_0-1_
  6
PHANTOM1
 62
  152
 10
198.94604540319813
 20
19.737375120103479
 40
0.5
 50
0
 51
63.434936523437493
  0
ARC
  8
_0-1_
  6
PHANTOM1
 62
  152
 10
198.94604540319813
 20
31.755410055101038
 40
0.5
 50
296.56504821777344
 51
0
  0
ARC
  8
_0-1_
  6
PHANTOM1
 62
  152
 10
197.34604549856556
 20
7.2463930644394168
 40
1.5
 50
180
 51
270
  0
ARC
  8
_0-1_
  6
PHANTOM1
 62
  152
 10
197.34604549856556
 20
44.246393064439417
 40
1.5
 50
90
 51
180
  0
ARC
  8
_0-1_
  6
PHANTOM1
 62
  152
 10
234.34604549856556
 20
44.246393064439417
 40
1.5
 50
0
 51
90
  0
ARC
  8
_0-1_
  6
PHANTOM1
 62
  152
 10
234.34604549856556
 20
7.2463930644394168
 40
1.5
 50
270
 51
0
  0
ARC
  8
_0-1_
  6
PHANTOM1
 62
  152
 10
196.34604549856556
 20
20.14639268296969
 40
0.5
 50
90
 51
180
  0
ARC
  8
_0-1_
  6
PHANTOM1
 62
  152
 10
196.34604549856556
 20
31.346393445909143
 40
0.5
 50
180
 51
270
  0
ARC
  8
_0-1_
  6
PHANTOM1
 62
  152
 10
210.24604511709583
 20
45.246393064439417
 40
0.5
 50
0
 51
90
  0
ARC
  8
_0-1_
  6
PHANTOM1
 62
  152
 10
221.44604588003529
 20
45.246393064439417
 40
0.5
 50
90
 51
180
  0
ARC
  8
_0-1_
  6
PHANTOM1
 62
  152
 10
235.34604549856556
 20
31.346393445909143
 40
0.5
 50
270
 51
0
  0
ARC
  8
_0-1_
  6
PHANTOM1
 62
  152
 10
235.34604549856556
 20
20.14639268296969
 40
0.5
 50
0
 51
90
  0
ARC
  8
_0-1_
  6
PHANTOM1
 62
  152
 10
221.44604588003529
 20
6.2463930644394168
 40
0.5
 50
180
 51
270
  0
ARC
  8
_0-1_
  6
PHANTOM1
 62
  152
 10
210.24604511709583
 20
6.2463930644394168
 40
0.5
 50
270
 51
359.99998474121094
  0
ARC
  8
_0-1_
  6
PHANTOM1
 62
  152
 10
198.1280114695586
 20
20.14639268296969
 40
0.5
 50
63.434936523437521
 51
90.000000000000028
  0
ARC
  8
_0-1_
  6
PHANTOM1
 62
  152
 10
198.1280114695586
 20
31.346393445909143
 40
0.5
 50
270
 51
296.56504821777344
  0
ARC
  8
_0-1_
  6
PHANTOM1
 62
  152
 10
199.94604540319813
 20
33.246393064439417
 40
0.5
 50
90
 51
180
  0
ARC
  8
_0-1_
  6
PHANTOM1
 62
  152
 10
199.94604540319813
 20
18.246393064439417
 40
0.5
 50
180
 51
270
  0
ARC
  8
_0-1_
  6
PHANTOM1
 62
  152
 10
210.24604511709583
 20
43.464427093446375
 40
0.5
 50
333.4349365234375
 51
0.000000000000019
  0
ARC
  8
_0-1_
  6
PHANTOM1
 62
  152
 10
208.34604549856556
 20
41.646393159806848
 40
0.5
 50
90
 51
180
  0
ARC
  8
_0-1_
  6
PHANTOM1
 62
  152
 10
223.34604549856556
 20
41.646393159806848
 40
0.5
 50
0
 51
90
  0
ARC
  8
_0-1_
  6
PHANTOM1
 62
  152
 10
221.44604588003529
 20
43.464427093446375
 40
0.5
 50
180
 51
206.56504821777344
  0
ARC
  8
_0-1_
  6
PHANTOM1
 62
  152
 10
233.56407833547962
 20
20.14639268296969
 40
0.5
 50
90
 51
116.56504821777344
  0
ARC
  8
_0-1_
  6
PHANTOM1
 62
  152
 10
231.74604702444447
 20
18.246393064439417
 40
0.5
 50
270
 51
0
  0
ARC
  8
_0-1_
  6
PHANTOM1
 62
  152
 10
231.74604702444447
 20
33.246393064439417
 40
0.5
 50
0
 51
90
  0
ARC
  8
_0-1_
  6
PHANTOM1
 62
  152
 10
233.56407833547962
 20
31.346393445909143
 40
0.5
 50
243.43493652343753
 51
270
  0
ARC
  8
_0-1_
  6
PHANTOM1
 62
  152
 10
210.24604511709583
 20
8.0283602275253543
 40
0.5
 50
359.99998474121088
 51
26.565048217773398
  0
ARC
  8
_0-1_
  6
PHANTOM1
 62
  152
 10
208.34604549856556
 20
9.8463915385605105
 40
0.5
 50
180
 51
270
  0
ARC
  8
_0-1_
  6
PHANTOM1
 62
  152
 10
223.34604549856556
 20
9.8463915385605105
 40
0.5
 50
270
 51
0
  0
ARC
  8
_0-1_
  6
PHANTOM1
 62
  152
 10
221.44604588003529
 20
8.0283602275253543
 40
0.5
 50
153.43493652343753
 51
180.00000000000003
  0
ARC
  8
_0-1_
  6
PHANTOM1
 62
  152
 10
208.34604549856556
 20
14.039285520494104
 40
0.5
 50
135
 51
180
  0
ARC
  8
_0-1_
  6
PHANTOM1
 62
  152
 10
209.55315208883655
 20
15.246393064439417
 40
0.5
 50
90
 51
135
  0
ARC
  8
_0-1_
  6
PHANTOM1
 62
  152
 10
222.13893795462025
 20
15.246393064439417
 40
0.5
 50
45.00000000000005
 51
90.000000000000057
  0
ARC
  8
_0-1_
  6
PHANTOM1
 62
  152
 10
223.34604549856556
 20
14.039285520494104
 40
0.5
 50
0
 51
45
  0
ARC
  8
_0-1_
  6
PHANTOM1
 62
  152
 10
227.55315304251087
 20
18.246393064439417
 40
0.5
 50
225
 51
270
  0
ARC
  8
_0-1_
  6
PHANTOM1
 62
  152
 10
226.34604549856556
 20
19.453500608384729
 40
0.5
 50
180
 51
224.99998474121097
  0
ARC
  8
_0-1_
  6
PHANTOM1
 62
  152
 10
226.34604549856556
 20
32.039286474168421
 40
0.5
 50
135
 51
180
  0
ARC
  8
_0-1_
  6
PHANTOM1
 62
  152
 10
227.55315304251087
 20
33.246393064439417
 40
0.5
 50
90
 51
135
  0
ARC
  8
_0-1_
  6
PHANTOM1
 62
  152
 10
223.34604549856556
 20
37.453499654710413
 40
0.5
 50
315
 51
0
  0
ARC
  8
_0-1_
  6
PHANTOM1
 62
  152
 10
222.13893795462025
 20
36.246393064439417
 40
0.5
 50
270
 51
315
  0
ARC
  8
_0-1_
  6
PHANTOM1
 62
  152
 10
209.55315208883655
 20
36.246393064439417
 40
0.5
 50
225
 51
270
  0
ARC
  8
_0-1_
  6
PHANTOM1
 62
  152
 10
208.34604549856556
 20
37.453499654710413
 40
0.5
 50
180
 51
225
  0
ARC
  8
_0-1_
  6
PHANTOM1
 62
  152
 10
204.13893890829456
 20
18.246393064439417
 40
0.5
 50
270
 51
315
  0
ARC
  8
_0-1_
  6
PHANTOM1
 62
  152
 10
205.34604549856556
 20
19.453500608384729
 40
0.5
 50
315
 51
0
  0
ARC
  8
_0-1_
  6
PHANTOM1
 62
  152
 10
205.34604549856556
 20
32.039286474168421
 40
0.5
 50
0
 51
45
  0
ARC
  8
_0-1_
  6
PHANTOM1
 62
  152
 10
204.13893890829456
 20
33.246393064439417
 40
0.5
 50
45.00000000000005
 51
90.000000000000057
  0
LINE
  8
_0-1_
  6
PHANTOM1
 62
  152
 10
225.84604549856556
 20
19.453500608384729
 11
225.84604549856556
 21
32.039286474168421
  0
LINE
  8
_0-1_
  6
PHANTOM1
 62
  152
 10
205.84604549856556
 20
19.453500608384729
 11
205.84604549856556
 21
32.039286474168421
  0
LINE
  8
_0-1_
  6
PHANTOM1
 62
  152
 10
264.84604549856556
 20
20.14639268296969
 11
264.84604549856556
 21
7.2463930644394168
  0
LINE
  8
_0-1_
  6
PHANTOM1
 62
  152
 10
264.84604549856556
 20
31.346393445909143
 11
264.84604549856556
 21
44.246393064439417
  0
LINE
  8
_0-1_
  6
PHANTOM1
 62
  152
 10
279.24604511709583
 20
45.746393064439417
 11
266.34604549856556
 21
45.746393064439417
  0
LINE
  8
_0-1_
  6
PHANTOM1
 62
  152
 10
290.44604588003529
 20
45.746393064439417
 11
303.34604549856556
 21
45.746393064439417
  0
LINE
  8
_0-1_
  6
PHANTOM1
 62
  152
 10
304.84604549856556
 20
31.346393445909143
 11
304.84604549856556
 21
44.246393064439417
  0
LINE
  8
_0-1_
  6
PHANTOM1
 62
  152
 10
304.84604549856556
 20
20.14639268296969
 11
304.84604549856556
 21
7.2463930644394168
  0
LINE
  8
_0-1_
  6
PHANTOM1
 62
  152
 10
290.44604588003529
 20
5.7463930644394168
 11
303.34604549856556
 21
5.7463930644394168
  0
LINE
  8
_0-1_
  6
PHANTOM1
 62
  152
 10
279.24604511709583
 20
5.7463930644394168
 11
266.34604549856556
 21
5.7463930644394168
  0
LINE
  8
_0-1_
  6
PHANTOM1
 62
  152
 10
267.1280114695586
 20
20.64639268296969
 11
265.34604549856556
 21
20.64639268296969
  0
LINE
  8
_0-1_
  6
PHANTOM1
 62
  152
 10
267.35161829443348
 20
20.593606809556604
 11
268.16965222807301
 21
20.184589246690393
  0
LINE
  8
_0-1_
  6
PHANTOM1
 62
  152
 10
267.1280114695586
 20
30.846393445909143
 11
265.34604549856556
 21
30.846393445909143
  0
LINE
  8
_0-1_
  6
PHANTOM1
 62
  152
 10
267.35161829443348
 20
30.899179319322229
 11
268.16965222807301
 21
31.30819688218844
  0
LINE
  8
_0-1_
  6
PHANTOM1
 62
  152
 10
268.44604540319813
 20
33.246393064439417
 11
268.44604540319813
 21
31.755410055101038
  0
LINE
  8
_0-1_
  6
PHANTOM1
 62
  152
 10
268.44604540319813
 20
18.246393064439417
 11
268.44604540319813
 21
19.737375120103479
  0
LINE
  8
_0-1_
  6
PHANTOM1
 62
  152
 10
279.74604511709583
 20
43.464427093446375
 11
279.74604511709583
 21
45.246393064439417
  0
LINE
  8
_0-1_
  6
PHANTOM1
 62
  152
 10
279.69325924368275
 20
43.240820268571497
 11
279.28424168081654
 21
42.42278633493197
  0
LINE
  8
_0-1_
  6
PHANTOM1
 62
  152
 10
277.34604549856556
 20
42.146393159806848
 11
278.83702850790394
 21
42.146393159806848
  0
LINE
  8
_0-1_
  6
PHANTOM1
 62
  152
 10
292.34604549856556
 20
42.146393159806848
 11
290.8550634429015
 21
42.146393159806848
  0
LINE
  8
_0-1_
  6
PHANTOM1
 62
  152
 10
289.99883175344837
 20
43.240820268571497
 11
290.40784931631458
 21
42.42278633493197
  0
LINE
  8
_0-1_
  6
PHANTOM1
 62
  152
 10
289.94604588003529
 20
43.464427093446375
 11
289.94604588003529
 21
45.246393064439417
  0
LINE
  8
_0-1_
  6
PHANTOM1
 62
  152
 10
302.56407833547962
 20
20.64639268296969
 11
304.34604549856556
 21
20.64639268296969
  0
LINE
  8
_0-1_
  6
PHANTOM1
 62
  152
 10
302.34047222586048
 20
20.593606809556604
 11
301.52243710012806
 21
20.184589246690393
  0
LINE
  8
_0-1_
  6
PHANTOM1
 62
  152
 10
301.24604702444447
 20
18.246393064439417
 11
301.24604702444447
 21
19.737375120103479
  0
LINE
  8
_0-1_
  6
PHANTOM1
 62
  152
 10
301.24604702444447
 20
33.246393064439417
 11
301.24604702444447
 21
31.755410055101038
  0
LINE
  8
_0-1_
  6
PHANTOM1
 62
  152
 10
302.34047222586048
 20
30.899179319322229
 11
301.52243710012806
 21
31.30819688218844
  0
LINE
  8
_0-1_
  6
PHANTOM1
 62
  152
 10
302.56407833547962
 20
30.846393445909143
 11
304.34604549856556
 21
30.846393445909143
  0
LINE
  8
_0-1_
  6
PHANTOM1
 62
  152
 10
279.74604511709583
 20
8.0283602275253543
 11
279.74604511709583
 21
6.2463930644394168
  0
LINE
  8
_0-1_
  6
PHANTOM1
 62
  152
 10
279.69325924368275
 20
8.2519663371444949
 11
279.28424168081654
 21
9.0700014628769168
  0
LINE
  8
_0-1_
  6
PHANTOM1
 62
  152
 10
277.34604549856556
 20
9.3463915385605105
 11
278.83702850790394
 21
9.3463915385605105
  0
LINE
  8
_0-1_
  6
PHANTOM1
 62
  152
 10
292.34604549856556
 20
9.3463915385605105
 11
290.8550634429015
 21
9.3463915385605105
  0
LINE
  8
_0-1_
  6
PHANTOM1
 62
  152
 10
289.99883175344837
 20
8.2519663371444949
 11
290.40784931631458
 21
9.0700014628769168
  0
LINE
  8
_0-1_
  6
PHANTOM1
 62
  152
 10
289.94604588003529
 20
8.0283602275253543
 11
289.94604588003529
 21
6.2463930644394168
  0
LINE
  8
_0-1_
  6
PHANTOM1
 62
  152
 10
276.84604549856556
 20
14.039285520494104
 11
276.84604549856556
 21
9.8463915385605105
  0
LINE
  8
_0-1_
  6
PHANTOM1
 62
  152
 10
278.19959927053822
 20
15.599946836412073
 11
276.9924917265929
 21
14.392839292466761
  0
LINE
  8
_0-1_
  6
PHANTOM1
 62
  152
 10
291.13893795462025
 20
15.746393064439417
 11
278.55315208883655
 21
15.746393064439417
  0
LINE
  8
_0-1_
  6
PHANTOM1
 62
  152
 10
292.69959927053822
 20
14.392839292466761
 11
291.4924917265929
 21
15.599946836412073
  0
LINE
  8
_0-1_
  6
PHANTOM1
 62
  152
 10
292.84604549856556
 20
14.039285520494104
 11
292.84604549856556
 21
9.8463915385605105
  0
LINE
  8
_0-1_
  6
PHANTOM1
 62
  152
 10
296.55315304251087
 20
17.746393064439417
 11
300.74604702444447
 21
17.746393064439417
  0
LINE
  8
_0-1_
  6
PHANTOM1
 62
  152
 10
294.9924917265929
 20
19.099946836412073
 11
296.19959927053822
 21
17.892839292466761
  0
LINE
  8
_0-1_
  6
PHANTOM1
 62
  152
 10
296.19959927053822
 20
33.599946836412073
 11
294.9924917265929
 21
32.392839292466761
  0
LINE
  8
_0-1_
  6
PHANTOM1
 62
  152
 10
296.55315304251087
 20
33.746393064439417
 11
300.74604702444447
 21
33.746393064439417
  0
LINE
  8
_0-1_
  6
PHANTOM1
 62
  152
 10
292.84604549856556
 20
37.453499654710413
 11
292.84604549856556
 21
41.646393159806848
  0
LINE
  8
_0-1_
  6
PHANTOM1
 62
  152
 10
291.4924917265929
 20
35.892839292466761
 11
292.69959927053822
 21
37.099946836412073
  0
LINE
  8
_0-1_
  6
PHANTOM1
 62
  152
 10
278.55315208883655
 20
35.746393064439417
 11
291.13893795462025
 21
35.746393064439417
  0
LINE
  8
_0-1_
  6
PHANTOM1
 62
  152
 10
276.9924917265929
 20
37.099946836412073
 11
278.19959927053822
 21
35.892839292466761
  0
LINE
  8
_0-1_
  6
PHANTOM1
 62
  152
 10
276.84604549856556
 20
37.453499654710413
 11
276.84604549856556
 21
41.646393159806848
  0
LINE
  8
_0-1_
  6
PHANTOM1
 62
  152
 10
273.13893890829456
 20
17.746393064439417
 11
268.94604540319813
 21
17.746393064439417
  0
LINE
  8
_0-1_
  6
PHANTOM1
 62
  152
 10
274.69959927053822
 20
19.099946836412073
 11
273.4924917265929
 21
17.892839292466761
  0
LINE
  8
_0-1_
  6
PHANTOM1
 62
  152
 10
273.4924917265929
 20
33.599946836412073
 11
274.69959927053822
 21
32.392839292466761
  0
LINE
  8
_0-1_
  6
PHANTOM1
 62
  152
 10
273.13893890829456
 20
33.746393064439417
 11
268.94604540319813
 21
33.746393064439417
  0
ARC
  8
_0-1_
  6
PHANTOM1
 62
  152
 10
278.83702850790394
 20
42.646393159806848
 40
0.5
 50
270
 51
333.4349365234375
  0
ARC
  8
_0-1_
  6
PHANTOM1
 62
  152
 10
290.8550634429015
 20
42.646393159806848
 40
0.5
 50
206.56504821777344
 51
270
  0
ARC
  8
_0-1_
  6
PHANTOM1
 62
  152
 10
290.8550634429015
 20
8.8463915385605105
 40
0.5
 50
90
 51
153.43493652343753
  0
ARC
  8
_0-1_
  6
PHANTOM1
 62
  152
 10
278.83702850790394
 20
8.8463915385605105
 40
0.5
 50
26.56504821777343
 51
90
  0
ARC
  8
_0-1_
  6
PHANTOM1
 62
  152
 10
301.74604702444447
 20
31.755410055101038
 40
0.5
 50
180
 51
243.43493652343753
  0
ARC
  8
_0-1_
  6
PHANTOM1
 62
  152
 10
301.74604702444447
 20
19.737375120103479
 40
0.5
 50
116.56504821777345
 51
180.00000000000003
  0
ARC
  8
_0-1_
  6
PHANTOM1
 62
  152
 10
267.94604540319813
 20
19.737375120103479
 40
0.5
 50
0
 51
63.434936523437493
  0
ARC
  8
_0-1_
  6
PHANTOM1
 62
  152
 10
267.94604540319813
 20
31.755410055101038
 40
0.5
 50
296.56504821777344
 51
0
  0
ARC
  8
_0-1_
  6
PHANTOM1
 62
  152
 10
266.34604549856556
 20
7.2463930644394168
 40
1.5
 50
180
 51
270
  0
ARC
  8
_0-1_
  6
PHANTOM1
 62
  152
 10
266.34604549856556
 20
44.246393064439417
 40
1.5
 50
90
 51
180
  0
ARC
  8
_0-1_
  6
PHANTOM1
 62
  152
 10
303.34604549856556
 20
44.246393064439417
 40
1.5
 50
0
 51
90
  0
ARC
  8
_0-1_
  6
PHANTOM1
 62
  152
 10
303.34604549856556
 20
7.2463930644394168
 40
1.5
 50
270
 51
0
  0
ARC
  8
_0-1_
  6
PHANTOM1
 62
  152
 10
265.34604549856556
 20
20.14639268296969
 40
0.5
 50
90
 51
180
  0
ARC
  8
_0-1_
  6
PHANTOM1
 62
  152
 10
265.34604549856556
 20
31.346393445909143
 40
0.5
 50
180
 51
270
  0
ARC
  8
_0-1_
  6
PHANTOM1
 62
  152
 10
279.24604511709583
 20
45.246393064439417
 40
0.5
 50
0
 51
90
  0
ARC
  8
_0-1_
  6
PHANTOM1
 62
  152
 10
290.44604588003529
 20
45.246393064439417
 40
0.5
 50
90
 51
180
  0
ARC
  8
_0-1_
  6
PHANTOM1
 62
  152
 10
304.34604549856556
 20
31.346393445909143
 40
0.5
 50
270
 51
0
  0
ARC
  8
_0-1_
  6
PHANTOM1
 62
  152
 10
304.34604549856556
 20
20.14639268296969
 40
0.5
 50
0
 51
90
  0
ARC
  8
_0-1_
  6
PHANTOM1
 62
  152
 10
290.44604588003529
 20
6.2463930644394168
 40
0.5
 50
180
 51
270
  0
ARC
  8
_0-1_
  6
PHANTOM1
 62
  152
 10
279.24604511709583
 20
6.2463930644394168
 40
0.5
 50
270
 51
359.99998474121094
  0
ARC
  8
_0-1_
  6
PHANTOM1
 62
  152
 10
267.1280114695586
 20
20.14639268296969
 40
0.5
 50
63.434936523437521
 51
90.000000000000028
  0
ARC
  8
_0-1_
  6
PHANTOM1
 62
  152
 10
267.1280114695586
 20
31.346393445909143
 40
0.5
 50
270
 51
296.56504821777344
  0
ARC
  8
_0-1_
  6
PHANTOM1
 62
  152
 10
268.94604540319813
 20
33.246393064439417
 40
0.5
 50
90
 51
180
  0
ARC
  8
_0-1_
  6
PHANTOM1
 62
  152
 10
268.94604540319813
 20
18.246393064439417
 40
0.5
 50
180
 51
270
  0
ARC
  8
_0-1_
  6
PHANTOM1
 62
  152
 10
279.24604511709583
 20
43.464427093446375
 40
0.5
 50
333.4349365234375
 51
0.000000000000019
  0
ARC
  8
_0-1_
  6
PHANTOM1
 62
  152
 10
277.34604549856556
 20
41.646393159806848
 40
0.5
 50
90
 51
180
  0
ARC
  8
_0-1_
  6
PHANTOM1
 62
  152
 10
292.34604549856556
 20
41.646393159806848
 40
0.5
 50
0
 51
90
  0
ARC
  8
_0-1_
  6
PHANTOM1
 62
  152
 10
290.44604588003529
 20
43.464427093446375
 40
0.5
 50
180
 51
206.56504821777344
  0
ARC
  8
_0-1_
  6
PHANTOM1
 62
  152
 10
302.56407833547962
 20
20.14639268296969
 40
0.5
 50
90
 51
116.56504821777344
  0
ARC
  8
_0-1_
  6
PHANTOM1
 62
  152
 10
300.74604702444447
 20
18.246393064439417
 40
0.5
 50
270
 51
0
  0
ARC
  8
_0-1_
  6
PHANTOM1
 62
  152
 10
300.74604702444447
 20
33.246393064439417
 40
0.5
 50
0
 51
90
  0
ARC
  8
_0-1_
  6
PHANTOM1
 62
  152
 10
302.56407833547962
 20
31.346393445909143
 40
0.5
 50
243.43493652343753
 51
270
  0
ARC
  8
_0-1_
  6
PHANTOM1
 62
  152
 10
279.24604511709583
 20
8.0283602275253543
 40
0.5
 50
359.99998474121088
 51
26.565048217773398
  0
ARC
  8
_0-1_
  6
PHANTOM1
 62
  152
 10
277.34604549856556
 20
9.8463915385605105
 40
0.5
 50
180
 51
270
  0
ARC
  8
_0-1_
  6
PHANTOM1
 62
  152
 10
292.34604549856556
 20
9.8463915385605105
 40
0.5
 50
270
 51
0
  0
ARC
  8
_0-1_
  6
PHANTOM1
 62
  152
 10
290.44604588003529
 20
8.0283602275253543
 40
0.5
 50
153.43493652343753
 51
180.00000000000003
  0
ARC
  8
_0-1_
  6
PHANTOM1
 62
  152
 10
277.34604549856556
 20
14.039285520494104
 40
0.5
 50
135
 51
180
  0
ARC
  8
_0-1_
  6
PHANTOM1
 62
  152
 10
278.55315208883655
 20
15.246393064439417
 40
0.5
 50
90
 51
135
  0
ARC
  8
_0-1_
  6
PHANTOM1
 62
  152
 10
291.13893795462025
 20
15.246393064439417
 40
0.5
 50
45.00000000000005
 51
90.000000000000057
  0
ARC
  8
_0-1_
  6
PHANTOM1
 62
  152
 10
292.34604549856556
 20
14.039285520494104
 40
0.5
 50
0
 51
45
  0
ARC
  8
_0-1_
  6
PHANTOM1
 62
  152
 10
296.55315304251087
 20
18.246393064439417
 40
0.5
 50
225
 51
270
  0
ARC
  8
_0-1_
  6
PHANTOM1
 62
  152
 10
295.34604549856556
 20
19.453500608384729
 40
0.5
 50
180
 51
224.99998474121097
  0
ARC
  8
_0-1_
  6
PHANTOM1
 62
  152
 10
295.34604549856556
 20
32.039286474168421
 40
0.5
 50
135
 51
180
  0
ARC
  8
_0-1_
  6
PHANTOM1
 62
  152
 10
296.55315304251087
 20
33.246393064439417
 40
0.5
 50
90
 51
135
  0
ARC
  8
_0-1_
  6
PHANTOM1
 62
  152
 10
292.34604549856556
 20
37.453499654710413
 40
0.5
 50
315
 51
0
  0
ARC
  8
_0-1_
  6
PHANTOM1
 62
  152
 10
291.13893795462025
 20
36.246393064439417
 40
0.5
 50
270
 51
315
  0
ARC
  8
_0-1_
  6
PHANTOM1
 62
  152
 10
278.55315208883655
 20
36.246393064439417
 40
0.5
 50
225
 51
270
  0
ARC
  8
_0-1_
  6
PHANTOM1
 62
  152
 10
277.34604549856556
 20
37.453499654710413
 40
0.5
 50
180
 51
225
  0
ARC
  8
_0-1_
  6
PHANTOM1
 62
  152
 10
273.13893890829456
 20
18.246393064439417
 40
0.5
 50
270
 51
315
  0
ARC
  8
_0-1_
  6
PHANTOM1
 62
  152
 10
274.34604549856556
 20
19.453500608384729
 40
0.5
 50
315
 51
0
  0
ARC
  8
_0-1_
  6
PHANTOM1
 62
  152
 10
274.34604549856556
 20
32.039286474168421
 40
0.5
 50
0
 51
45
  0
ARC
  8
_0-1_
  6
PHANTOM1
 62
  152
 10
273.13893890829456
 20
33.246393064439417
 40
0.5
 50
45.00000000000005
 51
90.000000000000057
  0
LINE
  8
_0-1_
  6
PHANTOM1
 62
  152
 10
294.84604549856556
 20
19.453500608384729
 11
294.84604549856556
 21
32.039286474168421
  0
LINE
  8
_0-1_
  6
PHANTOM1
 62
  152
 10
274.84604549856556
 20
19.453500608384729
 11
274.84604549856556
 21
32.039286474168421
  0
ENDSEC
  0
EOF
