  0
SECTION
  2
HEADER
  9
$ACADVER
  1
AC1009
  9
$INSBASE
 10
0
 20
0
 30
0
  9
$EXTMIN
 10
0
 20
0
  9
$EXTMAX
 10
1189
 20
841
  9
$LIMMIN
 10
0
 20
0
  9
$LIMMAX
 10
1189
 20
841
  9
$LTSCALE
 40
1
  0
ENDSEC
  0
SECTION
  2
TABLES
  0
TABLE
  2
LTYPE
 70
     9
  0
LTYPE
  2
CONTINUOUS
 70
    64
  3
実線
 72
    65
 73
     0
 40
0.0
  0
LTYPE
  2
DASHED1
 70
    64
  3
--  --  --  --  --  --  --  --  
 72
    65
 73
     2
 40
2.5
 49
1.25
 49
-1.25
  0
LTYPE
  2
DASHED2
 70
    64
  3
----    ----    ----    ----    
 72
    65
 73
     2
 40
5.0
 49
2.5
 49
-2.5
  0
LTYPE
  2
DASHED3
 70
    64
  3
------  ------  ------  ------  
 72
    65
 73
     2
 40
5.0
 49
3.75
 49
-1.25
  0
LTYPE
  2
CENTER1
 70
    64
  3
----- - ----- - ----- - ----- - 
 72
    65
 73
     4
 40
10.0
 49
6.25
 49
-1.25
 49
1.25
 49
-1.25
  0
LTYPE
  2
CENTER2
 70
    64
  3
----------  --  ----------  --  
 72
    65
 73
     4
 40
20.0
 49
12.5
 49
-2.5
 49
2.5
 49
-2.5
  0
LTYPE
  2
PHANTOM1
 70
    64
  3
--- - - --- - - --- - - --- - - 
 72
    65
 73
     6
 40
10.0
 49
3.25
 49
-1.25
 49
1.25
 49
-1.25
 49
1.25
 49
-1.25
  0
LTYPE
  2
PHANTOM2
 70
    64
  3
--------  -  -  --------  -  -  
 72
    65
 73
     6
 40
20.0
 49
10.0
 49
-2.5
 49
1.25
 49
-2.5
 49
1.25
 49
-2.5
  0
LTYPE
  2
DOT
 70
    64
  3
-   -   -   -   -   -   -   -   
 72
    65
 73
     2
 40
2.5
 49
0.625
 49
-1.875
  0
LTYPE
  2
DUMMY
 70
    64
  3
ダミー
 72
    65
 73
     0
 40
0.0
  0
LTYPE
  2
RAND1
 70
    64
  3
ランダム線1
 72
    65
 73
     4
 40
10.0
 49
1.0
 49
-2.0
 49
3.0
 49
-4.0
  0
LTYPE
  2
RAND2
 70
    64
  3
ランダム線2
 72
    65
 73
     4
 40
14.0
 49
2.0
 49
-3.0
 49
4.0
 49
-5.0
  0
LTYPE
  2
RAND3
 70
    64
  3
ランダム線3
 72
    65
 73
     4
 40
18.0
 49
3.0
 49
-4.0
 49
5.0
 49
-6.0
  0
LTYPE
  2
RAND4
 70
    64
  3
ランダム線4
 72
    65
 73
     4
 40
22.0
 49
4.0
 49
-5.0
 49
6.0
 49
-7.0
  0
LTYPE
  2
RAND5
 70
    64
  3
ランダム線5
 72
    65
 73
     4
 40
26.0
 49
5.0
 49
-6.0
 49
7.0
 49
-8.0
  0
LTYPE
  2
LONG1
 70
    64
  3
----------  --  ----------  --  
 72
    65
 73
     4
 40
40.0
 49
32.5
 49
-2.5
 49
2.5
 49
-2.5
  0
LTYPE
  2
LONG2
 70
    64
  3
--------  -  -  --------  -  -  
 72
    65
 73
     6
 40
40.0
 49
30.0
 49
-2.5
 49
1.25
 49
-2.5
 49
1.25
 49
-2.5
  0
LTYPE
  2
LONG3
 70
    64
  3
+++++++++++++++..+++++++++++++++
 72
    65
 73
     2
 40
40.0
 49
37.5
 49
-2.5
  0
LTYPE
  2
LONG4
 70
    64
  3
+++++++++++++++..+++++++++++++++
 72
    65
 73
     2
 40
80.0
 49
75.0
 49
-5.0
  0
LTYPE
  2
LONG5
 70
    64
  3
----------  --  ----------  --  
 72
    65
 73
     4
 40
60.0
 49
37.5
 49
-7.5
 49
7.5
 49
-7.5
  0
LTYPE
  2
dashed
 70
   64
  3
-------   -------------   ------
 72
   65
 73
    2
 40
7.5
 49
6
 49
-1.5
  0
LTYPE
  2
dashed_spaced
 70
   64
  3
----        --------        ----
 72
   65
 73
    2
 40
12
 49
6
 49
-6
  0
LTYPE
  2
long_dashed_dotted
 70
   64
  3
------------- --- --------------
 72
   65
 73
    4
 40
15.25
 49
12
 49
-1.5
 49
0.25
 49
-1.5
  0
LTYPE
  2
long_dashed_double-dotted
 70
   64
  3
----------- --- --- ------------
 72
   65
 73
    6
 40
17
 49
12
 49
-1.5
 49
0.25
 49
-1.5
 49
0.25
 49
-1.5
  0
LTYPE
  2
long_dashed_triplicate-dotted
 70
   64
  3
--------- --- --- --- ----------
 72
   65
 73
    8
 40
18.75
 49
12
 49
-1.5
 49
0.25
 49
-1.5
 49
0.25
 49
-1.5
 49
0.25
 49
-1.5
  0
LTYPE
  2
dotted
 70
   64
  3
   -       -       -       -    
 72
   65
 73
    2
 40
1.75
 49
0.25
 49
-1.5
  0
LTYPE
  2
chain
 70
   64
  3
-------------- -- --------------
 72
   65
 73
    4
 40
18.5
 49
12
 49
-1.5
 49
3.5
 49
-1.5
  0
LTYPE
  2
chain_double_dash
 70
   64
  3
------------ -- -- -------------
 72
   65
 73
    6
 40
23.5
 49
12
 49
-1.5
 49
3.5
 49
-1.5
 49
3.5
 49
-1.5
  0
LTYPE
  2
dashed_dotted
 70
   64
  3
-----------     -     ----------
 72
   65
 73
    4
 40
9.25
 49
6
 49
-1.5
 49
0.25
 49
-1.5
  0
LTYPE
  2
double-dashed_dotted
 70
   64
  3
------   -----------   -   -----
 72
   65
 73
    6
 40
16.75
 49
6
 49
-1.5
 49
6
 49
-1.5
 49
0.25
 49
-1.5
  0
LTYPE
  2
dashed_double-dotted
 70
   64
  3
---------    -    -    ---------
 72
   65
 73
    6
 40
11
 49
6
 49
-1.5
 49
0.25
 49
-1.5
 49
0.25
 49
-1.5
  0
LTYPE
  2
double-dashed_double-dotted
 70
   64
  3
-----   ---------   -   -   ----
 72
   65
 73
    8
 40
18.5
 49
6
 49
-1.5
 49
6
 49
-1.5
 49
0.25
 49
-1.5
 49
0.25
 49
-1.5
  0
LTYPE
  2
dashed_triplicate-dotted
 70
   64
  3
-------    -    -    -    ------
 72
   65
 73
    8
 40
12.75
 49
6
 49
-1.5
 49
0.25
 49
-1.5
 49
0.25
 49
-1.5
 49
0.25
 49
-1.5
  0
LTYPE
  2
double-dashed_triplicate-dotted
 70
   64
  3
-----  ---------  -  -  -  -----
 72
   65
 73
   10
 40
20.25
 49
6
 49
-1.5
 49
6
 49
-1.5
 49
0.25
 49
-1.5
 49
0.25
 49
-1.5
 49
0.25
 49
-1.5
  0
LTYPE
  2
undefined
 70
   64
  3
--------------------------------
 72
   65
 73
    0
 40
0
  0
ENDTAB
  0
TABLE
  2
STYLE
  5
3
100
AcDbSymbolTable
 70
     1
  0
STYLE
  5
10
100
AcDbSymbolTableRecord
100
AcDbTextStyleTableRecord
  2
STANDARD
 70
     0
 40
0.0
 41
1.0
 50
0.0
 71
     0
 42
0.2
  3
txt
  4
bigfont.shx
  0
STYLE
  5
26
100
AcDbSymbolTableRecord
100
AcDbTextStyleTableRecord
  2
TATEGAKI
 70
    68
 40
0.0
 41
1.0
 50
0.0
 71
     0
 42
1.0
  3
txt
  4
bigfont.shx
  0
ENDTAB
  0
TABLE
  2
LAYER
 70
    4
  0
LAYER
  2
_0-1_
 70
   64
 62
    7
  6
CONTINUOUS
  0
LAYER
  2
_0-7_
 70
   64
 62
    7
  6
CONTINUOUS
  0
LAYER
  2
_0-8_
 70
   64
 62
    7
  6
CONTINUOUS
  0
LAYER
  2
ADD_LINE
 70
   64
 62
    7
  6
CONTINUOUS
  0
ENDTAB
  0
ENDSEC
  0
SECTION
  2
BLOCKS
  0
ENDSEC
  0
SECTION
  2
ENTITIES
  0
TEXT
  8
_0-7_
 62
    7
 10
165.99607326348649
 20
59.882515581454811
 40
4.2999999999999998
 41
0.744186046511628
 50
0
  1
t5用
  0
TEXT
  8
_0-7_
 62
    7
 10
110.66336489297578
 20
59.882515581454811
 40
4.2999999999999998
 41
0.744186046511628
 50
0
  1
t3用
  0
TEXT
  8
_0-7_
 62
    7
 10
53.183642114739428
 20
59.882515581454811
 40
4.2999999999999998
 41
0.744186046511628
 50
0
  1
t1.5用
  0
LINE
  8
_0-1_
  6
CONTINUOUS
 62
    5
 10
53.183642114739428
 20
36.266443038783507
 11
54.683642114739428
 21
36.266443038783507
  0
LINE
  8
_0-8_
  6
CONTINUOUS
 62
    7
 10
58.183642114479312
 20
48.066443038783461
 11
58.183642114479312
 21
37.066443038783461
  0
LINE
  8
_0-8_
  6
CONTINUOUS
 62
    7
 10
58.457326325019267
 20
46.566443038783461
 11
58.183642114479312
 21
48.066443038783461
  0
LINE
  8
_0-8_
  6
CONTINUOUS
 62
    7
 10
58.457326325019267
 20
38.566443038783461
 11
58.183642114479312
 21
37.066443038783461
  0
LINE
  8
_0-8_
  6
CONTINUOUS
 62
    7
 10
63.383642114739246
 20
42.066443038783461
 11
64.022238605999178
 21
41.66229785035074
  0
LINE
  8
_0-8_
  6
CONTINUOUS
 62
    7
 10
58.18364211447971
 20
37.066443038783589
 11
58.18364211447971
 21
37.066443038783589
  0
LINE
  8
_0-8_
  6
CONTINUOUS
 62
    7
 10
58.18364211447971
 20
37.066443038783589
 11
59.958910941606781
 21
37.83363052426359
  0
LINE
  8
_0-8_
  6
CONTINUOUS
 62
    7
 10
59.958910941606781
 20
37.83363052426359
 11
61.585674764540052
 21
38.927076462035821
  0
LINE
  8
_0-8_
  6
CONTINUOUS
 62
    7
 10
61.585674764540052
 20
38.927076462035821
 11
63.014505187701886
 21
40.313557050591413
  0
LINE
  8
_0-8_
  6
CONTINUOUS
 62
    7
 10
63.014505187701886
 20
40.313557050591413
 11
64.022238605999249
 21
41.662297850350711
  0
LINE
  8
_0-8_
  6
CONTINUOUS
 62
    7
 10
58.457326325142546
 20
38.566443039458939
 11
58.457326325142546
 21
38.566443039458939
  0
LINE
  8
_0-8_
  6
CONTINUOUS
 62
    7
 10
58.457326325142546
 20
38.566443039458939
 11
59.555282778185095
 21
39.827381931372415
  0
LINE
  8
_0-8_
  6
CONTINUOUS
 62
    7
 10
59.555282778185095
 20
39.827381931372415
 11
60.436806059671952
 21
41.27815497861652
  0
LINE
  8
_0-8_
  6
CONTINUOUS
 62
    7
 10
60.436806059671952
 20
41.27815497861652
 11
61.075111530767444
 21
42.874681176277306
  0
LINE
  8
_0-8_
  6
CONTINUOUS
 62
    7
 10
61.075111530767444
 20
42.874681176277306
 11
61.102940360239288
 21
42.966443038783446
  0
LINE
  8
_0-8_
  6
CONTINUOUS
 62
    7
 10
64.016019471195818
 20
47.23615954898321
 11
58.183642114479312
 21
48.066443038783461
  0
LINE
  8
_0-8_
  6
CONTINUOUS
 62
    7
 10
60.1806118215776
 20
45.915068547411295
 11
58.457326325019267
 21
46.566443038783461
  0
LINE
  8
_0-8_
  6
CONTINUOUS
 62
    7
 10
61.102940360239245
 20
44.497009074971857
 11
61.102940360239245
 21
42.966443038783439
  0
LINE
  8
_0-8_
  6
CONTINUOUS
 62
    7
 10
61.102940360239245
 20
44.497009074971857
 11
61.102940360239245
 21
44.497009074971857
  0
LINE
  8
_0-8_
  6
CONTINUOUS
 62
    7
 10
61.102940360239245
 20
44.497009074971857
 11
61.082150969623328
 21
44.75748134147225
  0
LINE
  8
_0-8_
  6
CONTINUOUS
 62
    7
 10
61.082150969623328
 20
44.75748134147225
 11
61.02041447288952
 21
45.010039289960361
  0
LINE
  8
_0-8_
  6
CONTINUOUS
 62
    7
 10
61.02041447288952
 20
45.010039289960361
 11
60.919606702250888
 21
45.247009074971857
  0
LINE
  8
_0-8_
  6
CONTINUOUS
 62
    7
 10
60.919606702250888
 20
45.247009074971857
 11
60.782790650807101
 21
45.461190489501668
  0
LINE
  8
_0-8_
  6
CONTINUOUS
 62
    7
 10
60.782790650807101
 20
45.461190489501668
 11
60.614123405049014
 21
45.646075739650321
  0
LINE
  8
_0-8_
  6
CONTINUOUS
 62
    7
 10
60.614123405049014
 20
45.646075739650321
 11
60.418729833889245
 21
45.796047180648515
  0
LINE
  8
_0-8_
  6
CONTINUOUS
 62
    7
 10
60.418729833889245
 20
45.796047180648515
 11
60.202546872113558
 21
45.906548006150722
  0
LINE
  8
_0-8_
  6
CONTINUOUS
 62
    7
 10
60.202546872113558
 20
45.906548006150722
 11
60.180611821577607
 21
45.915068547411252
  0
LINE
  8
_0-8_
  6
CONTINUOUS
 62
    7
 10
65.208203518339246
 20
45.748651438695333
 11
65.208203518339246
 21
45.748651438695333
  0
LINE
  8
_0-8_
  6
CONTINUOUS
 62
    7
 10
65.208203518339246
 20
45.748651438695333
 11
65.187414127723329
 21
46.009123705195726
  0
LINE
  8
_0-8_
  6
CONTINUOUS
 62
    7
 10
65.187414127723329
 20
46.009123705195726
 11
65.125677630989514
 21
46.261681653683837
  0
LINE
  8
_0-8_
  6
CONTINUOUS
 62
    7
 10
65.125677630989514
 20
46.261681653683837
 11
65.02486986035089
 21
46.498651438695333
  0
LINE
  8
_0-8_
  6
CONTINUOUS
 62
    7
 10
65.02486986035089
 20
46.498651438695333
 11
64.888053808907102
 21
46.712832853225144
  0
LINE
  8
_0-8_
  6
CONTINUOUS
 62
    7
 10
64.888053808907102
 20
46.712832853225144
 11
64.719386563149016
 21
46.897718103373798
  0
LINE
  8
_0-8_
  6
CONTINUOUS
 62
    7
 10
64.719386563149016
 20
46.897718103373798
 11
64.523992991989246
 21
47.047689544371991
  0
LINE
  8
_0-8_
  6
CONTINUOUS
 62
    7
 10
64.523992991989246
 20
47.047689544371991
 11
64.30781003021356
 21
47.158190369874198
  0
LINE
  8
_0-8_
  6
CONTINUOUS
 62
    7
 10
64.30781003021356
 20
47.158190369874198
 11
64.077406287721658
 21
47.225863068213648
  0
LINE
  8
_0-8_
  6
CONTINUOUS
 62
    7
 10
64.077406287721658
 20
47.225863068213648
 11
64.016019471195833
 21
47.23615954898321
  0
LINE
  8
_0-8_
  6
CONTINUOUS
 62
    7
 10
56.383642114479244
 20
48.066443038783461
 11
58.183642114479312
 21
48.066443038783461
  0
LINE
  8
_0-8_
  6
CONTINUOUS
 62
    7
 10
56.383642114479244
 20
37.066443038783461
 11
58.183642114479312
 21
37.066443038783461
  0
LINE
  8
_0-8_
  6
CONTINUOUS
 62
    7
 10
56.383642114479244
 20
47.50075761383448
 11
56.383642114479244
 21
46.575822663732481
  0
ARC
  8
_0-8_
  6
CONTINUOUS
 62
    7
 10
56.483642114479267
 20
47.783600326308488
 40
0.3
 50
109.47122063448899
 51
250.52877936551099
  0
ARC
  8
_0-8_
  6
CONTINUOUS
 62
    7
 10
56.483642114479267
 20
37.349285751258492
 40
0.3
 50
109.47122063448899
 51
250.52877936551099
  0
ARC
  8
_0-8_
  6
CONTINUOUS
 62
    7
 10
56.483642114479267
 20
38.83990145125847
 40
0.3
 50
109.47122063448899
 51
250.52877936551099
  0
ARC
  8
_0-8_
  6
CONTINUOUS
 62
    7
 10
56.483642114479267
 20
40.330517151258505
 40
0.3
 50
109.47122063448899
 51
250.52877936551099
  0
ARC
  8
_0-8_
  6
CONTINUOUS
 62
    7
 10
56.483642114479267
 20
41.821132851258483
 40
0.3
 50
109.47122063448899
 51
250.52877936551099
  0
ARC
  8
_0-8_
  6
CONTINUOUS
 62
    7
 10
56.483642114479267
 20
43.311748551258461
 40
0.3
 50
109.47122063448899
 51
250.52877936551099
  0
ARC
  8
_0-8_
  6
CONTINUOUS
 62
    7
 10
56.483642114479267
 20
44.802364251258496
 40
0.3
 50
109.47122063448899
 51
250.52877936551099
  0
ARC
  8
_0-8_
  6
CONTINUOUS
 62
    7
 10
56.483642114479267
 20
46.292979951258474
 40
0.3
 50
109.47122063448899
 51
250.52877936551099
  0
LINE
  8
_0-8_
  6
CONTINUOUS
 62
    7
 10
56.383642114479244
 20
38.557058738783496
 11
56.383642114479244
 21
37.632128463732499
  0
LINE
  8
_0-8_
  6
CONTINUOUS
 62
    7
 10
56.383642114479244
 20
40.047674438783474
 11
56.383642114479244
 21
39.122744163732477
  0
LINE
  8
_0-8_
  6
CONTINUOUS
 62
    7
 10
56.383642114479244
 20
41.538290138783509
 11
56.383642114479244
 21
40.613359863732512
  0
LINE
  8
_0-8_
  6
CONTINUOUS
 62
    7
 10
56.383642114479244
 20
43.028905838783487
 11
56.383642114479244
 21
42.10397556373249
  0
LINE
  8
_0-8_
  6
CONTINUOUS
 62
    7
 10
56.383642114479244
 20
44.519521538783465
 11
56.383642114479244
 21
43.594591263732468
  0
LINE
  8
_0-8_
  6
CONTINUOUS
 62
    7
 10
56.383642114479244
 20
46.0101372387835
 11
56.383642114479244
 21
45.085206963732503
  0
LINE
  8
_0-8_
  6
CONTINUOUS
 62
    7
 10
56.183642114479312
 20
48.066443038783461
 11
56.183642114479312
 21
37.066443038783461
  0
LINE
  8
_0-8_
  6
CONTINUOUS
 62
    7
 10
54.883642114479244
 20
48.066443038783461
 11
56.183642114479312
 21
48.066443038783461
  0
LINE
  8
_0-8_
  6
CONTINUOUS
 62
    7
 10
54.883642114479244
 20
37.066443038783461
 11
56.183642114479312
 21
37.066443038783461
  0
LINE
  8
_0-8_
  6
CONTINUOUS
 62
    7
 10
54.883642114479244
 20
47.50075761383448
 11
54.883642114479244
 21
46.575822663732481
  0
ARC
  8
_0-8_
  6
CONTINUOUS
 62
    7
 10
54.983642114479267
 20
47.783600326308488
 40
0.3
 50
109.47122063448899
 51
250.52877936551099
  0
ARC
  8
_0-8_
  6
CONTINUOUS
 62
    7
 10
54.983642114479267
 20
37.349285751258492
 40
0.3
 50
109.47122063448899
 51
250.52877936551099
  0
ARC
  8
_0-8_
  6
CONTINUOUS
 62
    7
 10
54.983642114479267
 20
38.83990145125847
 40
0.3
 50
109.47122063448899
 51
250.52877936551099
  0
ARC
  8
_0-8_
  6
CONTINUOUS
 62
    7
 10
54.983642114479267
 20
40.330517151258505
 40
0.3
 50
109.47122063448899
 51
250.52877936551099
  0
ARC
  8
_0-8_
  6
CONTINUOUS
 62
    7
 10
54.983642114479267
 20
41.821132851258483
 40
0.3
 50
109.47122063448899
 51
250.52877936551099
  0
ARC
  8
_0-8_
  6
CONTINUOUS
 62
    7
 10
54.983642114479267
 20
43.311748551258461
 40
0.3
 50
109.47122063448899
 51
250.52877936551099
  0
ARC
  8
_0-8_
  6
CONTINUOUS
 62
    7
 10
54.983642114479267
 20
44.802364251258496
 40
0.3
 50
109.47122063448899
 51
250.52877936551099
  0
ARC
  8
_0-8_
  6
CONTINUOUS
 62
    7
 10
54.983642114479267
 20
46.292979951258474
 40
0.3
 50
109.47122063448899
 51
250.52877936551099
  0
LINE
  8
_0-8_
  6
CONTINUOUS
 62
    7
 10
54.883642114479244
 20
38.557058738783496
 11
54.883642114479244
 21
37.632128463732499
  0
LINE
  8
_0-8_
  6
CONTINUOUS
 62
    7
 10
54.883642114479244
 20
40.047674438783474
 11
54.883642114479244
 21
39.122744163732477
  0
LINE
  8
_0-8_
  6
CONTINUOUS
 62
    7
 10
54.883642114479244
 20
41.538290138783509
 11
54.883642114479244
 21
40.613359863732512
  0
LINE
  8
_0-8_
  6
CONTINUOUS
 62
    7
 10
54.883642114479244
 20
43.028905838783487
 11
54.883642114479244
 21
42.10397556373249
  0
LINE
  8
_0-8_
  6
CONTINUOUS
 62
    7
 10
54.883642114479244
 20
44.519521538783465
 11
54.883642114479244
 21
43.594591263732468
  0
LINE
  8
_0-8_
  6
CONTINUOUS
 62
    7
 10
54.883642114479244
 20
46.0101372387835
 11
54.883642114479244
 21
45.085206963732503
  0
LINE
  8
_0-1_
  6
CONTINUOUS
 62
    5
 10
53.183642114739428
 20
54.040983816947175
 11
53.183642114739428
 21
36.266443038783507
  0
LINE
  8
_0-1_
  6
CONTINUOUS
 62
    5
 10
54.683642114739428
 20
54.040983816947175
 11
54.683642114739428
 21
36.266443038783507
  0
LINE
  8
_0-8_
  6
CONTINUOUS
 62
    7
 10
63.383642114739246
 20
45.266443038783507
 11
63.383642114739246
 21
42.066443038783461
  0
LINE
  8
_0-8_
  6
CONTINUOUS
 62
    7
 10
63.383642114739246
 20
45.266443038783507
 11
65.208203518339246
 21
45.266443038783507
  0
LINE
  8
_0-8_
  6
CONTINUOUS
 62
    7
 10
65.208203518339246
 20
45.748651438695333
 11
65.208203518339246
 21
45.266443038783507
  0
ARC
  8
_0-8_
  6
DASHED2
 62
  152
 10
63.883642114739246
 20
44.766443038783507
 40
0.5
 50
90
 51
180
  0
LINE
  8
_0-8_
  6
DASHED2
 62
  152
 10
38.283642114739337
 20
43.766443038783507
 11
38.283642114739337
 21
30.866443038783416
  0
LINE
  8
_0-8_
  6
DASHED2
 62
  152
 10
39.783642114739337
 20
45.266443038783507
 11
52.683642114739428
 21
45.266443038783507
  0
LINE
  8
_0-8_
  6
DASHED2
 62
  152
 10
51.490748895926004
 20
35.266443038783507
 11
65.07653533355267
 21
35.266443038783507
  0
ARC
  8
_0-8_
  6
DASHED2
 62
  152
 10
65.07653533355267
 20
35.766443038783507
 40
0.5
 50
270
 51
315
  0
LINE
  8
_0-8_
  6
DASHED2
 62
  152
 10
65.430088724146003
 20
35.412889648190173
 11
66.13719550533267
 21
36.11999642937684
  0
ARC
  8
_0-8_
  6
DASHED2
 62
  152
 10
65.783642114739337
 20
36.473549819970174
 40
0.5
 50
315
 51
0
  0
LINE
  8
_0-8_
  6
DASHED2
 62
  152
 10
66.283642114739337
 20
36.473549819970174
 11
66.283642114739337
 21
41.166443038783598
  0
ARC
  8
_0-8_
  6
DASHED2
 62
  152
 10
65.783642114739337
 20
41.166443038783598
 40
0.5
 50
0
 51
90
  0
LINE
  8
_0-8_
  6
DASHED2
 62
  152
 10
65.783642114739337
 20
41.666443038783598
 11
64.29265910911397
 21
41.666443038783598
  0
ARC
  8
_0-8_
  6
DASHED2
 62
  152
 10
64.29265910911397
 20
42.166443038783598
 40
0.5
 50
206.56505117706848
 51
270
  0
LINE
  8
_0-8_
  6
DASHED2
 62
  152
 10
63.845445513614209
 20
41.94283624103349
 11
63.436428519239485
 21
42.760870229783393
  0
ARC
  8
_0-8_
  6
DASHED2
 62
  152
 10
63.883642114739246
 20
42.984477027533501
 40
0.5
 50
179.99999999999994
 51
206.56505117707795
  0
LINE
  8
_0-8_
  6
DASHED2
 62
  152
 10
63.383642114739246
 20
42.984477027533501
 11
63.383642114739246
 21
44.766443038783507
  0
ARC
  8
_0-8_
  6
DASHED2
 62
  152
 10
51.490748895926004
 20
35.766443038783507
 40
0.5
 50
225
 51
270
  0
LINE
  8
_0-8_
  6
DASHED2
 62
  152
 10
51.13719550533267
 20
35.412889648190173
 11
50.430088724146003
 21
36.11999642937684
  0
ARC
  8
_0-8_
  6
DASHED2
 62
  152
 10
50.783642114739337
 20
36.473549819970174
 40
0.5
 50
180
 51
225
  0
LINE
  8
_0-8_
  6
DASHED2
 62
  152
 10
50.283642114739337
 20
36.473549819970174
 11
50.283642114739337
 21
41.166443038783598
  0
ARC
  8
_0-8_
  6
DASHED2
 62
  152
 10
50.783642114739337
 20
41.166443038783598
 40
0.5
 50
90
 51
180
  0
LINE
  8
_0-8_
  6
DASHED2
 62
  152
 10
50.783642114739337
 20
41.666443038783598
 11
52.274625120364703
 21
41.666443038783598
  0
ARC
  8
_0-8_
  6
DASHED2
 62
  152
 10
52.274625120364703
 20
42.166443038783598
 40
0.5
 50
270
 51
333.43494882293152
  0
LINE
  8
_0-8_
  6
DASHED2
 62
  152
 10
52.721838715864465
 20
41.94283624103349
 11
53.130855710239189
 21
42.760870229783393
  0
ARC
  8
_0-8_
  6
DASHED2
 62
  152
 10
52.683642114739428
 20
42.984477027533501
 40
0.5
 50
333.43494882292208
 51
0.0000000000000568
  0
LINE
  8
_0-8_
  6
DASHED2
 62
  152
 10
53.183642114739428
 20
42.984477027533501
 11
53.183642114739428
 21
44.766443038783507
  0
ARC
  8
_0-8_
  6
DASHED2
 62
  152
 10
52.683642114739428
 20
44.766443038783507
 40
0.5
 50
0
 51
90
  0
LINE
  8
_0-8_
  6
DASHED2
 62
  152
 10
78.283642114739337
 20
30.866443038783416
 11
78.283642114739337
 21
43.766443038783507
  0
ARC
  8
_0-8_
  6
DASHED2
 62
  152
 10
39.783642114739337
 20
43.766443038783507
 40
1.5
 50
90
 51
180
  0
ARC
  8
_0-8_
  6
DASHED2
 62
  152
 10
76.783642114739337
 20
43.766443038783507
 40
1.5
 50
0
 51
90
  0
LINE
  8
_0-8_
  6
DASHED2
 62
  152
 10
63.883642114739246
 20
45.266443038783507
 11
76.783642114739337
 21
45.266443038783507
  0
LINE
  8
_0-1_
  6
CONTINUOUS
 62
    5
 10
110.66336489297578
 20
36.266443038783507
 11
113.66336489297578
 21
36.266443038783507
  0
LINE
  8
_0-8_
  6
CONTINUOUS
 62
    7
 10
115.66336489271561
 20
48.066443038783461
 11
115.66336489271561
 21
37.066443038783461
  0
LINE
  8
_0-8_
  6
CONTINUOUS
 62
    7
 10
115.93704910325562
 20
46.566443038783461
 11
115.66336489271561
 21
48.066443038783461
  0
LINE
  8
_0-8_
  6
CONTINUOUS
 62
    7
 10
115.93704910325562
 20
38.566443038783461
 11
115.66336489271561
 21
37.066443038783461
  0
LINE
  8
_0-8_
  6
CONTINUOUS
 62
    7
 10
120.8633648929756
 20
42.066443038783461
 11
121.50196138423559
 21
41.66229785035074
  0
LINE
  8
_0-8_
  6
CONTINUOUS
 62
    7
 10
115.66336489271606
 20
37.066443038783646
 11
115.66336489271606
 21
37.066443038783646
  0
LINE
  8
_0-8_
  6
CONTINUOUS
 62
    7
 10
115.66336489271606
 20
37.066443038783646
 11
117.43863371984314
 21
37.833630524263647
  0
LINE
  8
_0-8_
  6
CONTINUOUS
 62
    7
 10
117.43863371984314
 20
37.833630524263647
 11
119.0653975427764
 21
38.927076462035878
  0
LINE
  8
_0-8_
  6
CONTINUOUS
 62
    7
 10
119.0653975427764
 20
38.927076462035878
 11
120.49422796593824
 21
40.31355705059147
  0
LINE
  8
_0-8_
  6
CONTINUOUS
 62
    7
 10
120.49422796593824
 20
40.31355705059147
 11
121.5019613842356
 21
41.662297850350768
  0
LINE
  8
_0-8_
  6
CONTINUOUS
 62
    7
 10
115.9370491033789
 20
38.566443039458996
 11
115.9370491033789
 21
38.566443039458996
  0
LINE
  8
_0-8_
  6
CONTINUOUS
 62
    7
 10
115.9370491033789
 20
38.566443039458996
 11
117.03500555642145
 21
39.827381931372472
  0
LINE
  8
_0-8_
  6
CONTINUOUS
 62
    7
 10
117.03500555642145
 20
39.827381931372472
 11
117.9165288379083
 21
41.278154978616577
  0
LINE
  8
_0-8_
  6
CONTINUOUS
 62
    7
 10
117.9165288379083
 20
41.278154978616577
 11
118.55483430900379
 21
42.874681176277363
  0
LINE
  8
_0-8_
  6
CONTINUOUS
 62
    7
 10
118.55483430900379
 20
42.874681176277363
 11
118.58266313847564
 21
42.966443038783503
  0
LINE
  8
_0-8_
  6
CONTINUOUS
 62
    7
 10
121.49574224943217
 20
47.236159548983267
 11
115.66336489271561
 21
48.066443038783461
  0
LINE
  8
_0-8_
  6
CONTINUOUS
 62
    7
 10
122.6879262965756
 20
45.74865143869539
 11
122.6879262965756
 21
45.266443038783507
  0
LINE
  8
_0-8_
  6
CONTINUOUS
 62
    7
 10
117.66033459981395
 20
45.915068547411295
 11
115.93704910325562
 21
46.566443038783461
  0
LINE
  8
_0-8_
  6
CONTINUOUS
 62
    7
 10
118.5826631384756
 20
44.497009074971913
 11
118.5826631384756
 21
42.966443038783495
  0
LINE
  8
_0-8_
  6
CONTINUOUS
 62
    7
 10
118.5826631384756
 20
44.497009074971913
 11
118.5826631384756
 21
44.497009074971913
  0
LINE
  8
_0-8_
  6
CONTINUOUS
 62
    7
 10
118.5826631384756
 20
44.497009074971913
 11
118.56187374785968
 21
44.757481341472307
  0
LINE
  8
_0-8_
  6
CONTINUOUS
 62
    7
 10
118.56187374785968
 20
44.757481341472307
 11
118.50013725112586
 21
45.010039289960417
  0
LINE
  8
_0-8_
  6
CONTINUOUS
 62
    7
 10
118.50013725112586
 20
45.010039289960417
 11
118.39932948048724
 21
45.247009074971913
  0
LINE
  8
_0-8_
  6
CONTINUOUS
 62
    7
 10
118.39932948048724
 20
45.247009074971913
 11
118.26251342904345
 21
45.461190489501725
  0
LINE
  8
_0-8_
  6
CONTINUOUS
 62
    7
 10
118.26251342904345
 20
45.461190489501725
 11
118.09384618328536
 21
45.646075739650378
  0
LINE
  8
_0-8_
  6
CONTINUOUS
 62
    7
 10
118.09384618328536
 20
45.646075739650378
 11
117.8984526121256
 21
45.796047180648571
  0
LINE
  8
_0-8_
  6
CONTINUOUS
 62
    7
 10
117.8984526121256
 20
45.796047180648571
 11
117.68226965034991
 21
45.906548006150778
  0
LINE
  8
_0-8_
  6
CONTINUOUS
 62
    7
 10
117.68226965034991
 20
45.906548006150778
 11
117.66033459981396
 21
45.915068547411309
  0
LINE
  8
_0-8_
  6
CONTINUOUS
 62
    7
 10
122.6879262965756
 20
45.74865143869539
 11
122.6879262965756
 21
45.74865143869539
  0
LINE
  8
_0-8_
  6
CONTINUOUS
 62
    7
 10
122.6879262965756
 20
45.74865143869539
 11
122.66713690595968
 21
46.009123705195783
  0
LINE
  8
_0-8_
  6
CONTINUOUS
 62
    7
 10
122.66713690595968
 20
46.009123705195783
 11
122.60540040922587
 21
46.261681653683894
  0
LINE
  8
_0-8_
  6
CONTINUOUS
 62
    7
 10
122.60540040922587
 20
46.261681653683894
 11
122.50459263858724
 21
46.49865143869539
  0
LINE
  8
_0-8_
  6
CONTINUOUS
 62
    7
 10
122.50459263858724
 20
46.49865143869539
 11
122.36777658714345
 21
46.712832853225201
  0
LINE
  8
_0-8_
  6
CONTINUOUS
 62
    7
 10
122.36777658714345
 20
46.712832853225201
 11
122.19910934138537
 21
46.897718103373855
  0
LINE
  8
_0-8_
  6
CONTINUOUS
 62
    7
 10
122.19910934138537
 20
46.897718103373855
 11
122.0037157702256
 21
47.047689544372048
  0
LINE
  8
_0-8_
  6
CONTINUOUS
 62
    7
 10
122.0037157702256
 20
47.047689544372048
 11
121.78753280844991
 21
47.158190369874255
  0
LINE
  8
_0-8_
  6
CONTINUOUS
 62
    7
 10
121.78753280844991
 20
47.158190369874255
 11
121.55712906595801
 21
47.225863068213705
  0
LINE
  8
_0-8_
  6
CONTINUOUS
 62
    7
 10
121.55712906595801
 20
47.225863068213705
 11
121.49574224943218
 21
47.236159548983267
  0
LINE
  8
_0-8_
  6
CONTINUOUS
 62
    7
 10
113.86336489271559
 20
48.066443038783461
 11
115.66336489271561
 21
48.066443038783461
  0
LINE
  8
_0-8_
  6
CONTINUOUS
 62
    7
 10
113.86336489271559
 20
37.066443038783461
 11
115.66336489271561
 21
37.066443038783461
  0
LINE
  8
_0-8_
  6
CONTINUOUS
 62
    7
 10
113.86336489271559
 20
47.50075761383448
 11
113.86336489271559
 21
46.575822663732481
  0
ARC
  8
_0-8_
  6
CONTINUOUS
 62
    7
 10
113.96336489271562
 20
47.783600326308488
 40
0.3
 50
109.47122063448899
 51
250.52877936551099
  0
ARC
  8
_0-8_
  6
CONTINUOUS
 62
    7
 10
113.96336489271562
 20
37.349285751258492
 40
0.3
 50
109.47122063448899
 51
250.52877936551099
  0
ARC
  8
_0-8_
  6
CONTINUOUS
 62
    7
 10
113.96336489271562
 20
38.83990145125847
 40
0.3
 50
109.47122063448899
 51
250.52877936551099
  0
ARC
  8
_0-8_
  6
CONTINUOUS
 62
    7
 10
113.96336489271562
 20
40.330517151258505
 40
0.3
 50
109.47122063448899
 51
250.52877936551099
  0
ARC
  8
_0-8_
  6
CONTINUOUS
 62
    7
 10
113.96336489271562
 20
41.821132851258483
 40
0.3
 50
109.47122063448899
 51
250.52877936551099
  0
ARC
  8
_0-8_
  6
CONTINUOUS
 62
    7
 10
113.96336489271562
 20
43.311748551258461
 40
0.3
 50
109.47122063448899
 51
250.52877936551099
  0
ARC
  8
_0-8_
  6
CONTINUOUS
 62
    7
 10
113.96336489271562
 20
44.802364251258496
 40
0.3
 50
109.47122063448899
 51
250.52877936551099
  0
ARC
  8
_0-8_
  6
CONTINUOUS
 62
    7
 10
113.96336489271562
 20
46.292979951258474
 40
0.3
 50
109.47122063448899
 51
250.52877936551099
  0
LINE
  8
_0-8_
  6
CONTINUOUS
 62
    7
 10
113.86336489271559
 20
38.557058738783496
 11
113.86336489271559
 21
37.632128463732499
  0
LINE
  8
_0-8_
  6
CONTINUOUS
 62
    7
 10
113.86336489271559
 20
40.047674438783474
 11
113.86336489271559
 21
39.122744163732477
  0
LINE
  8
_0-8_
  6
CONTINUOUS
 62
    7
 10
113.86336489271559
 20
41.538290138783509
 11
113.86336489271559
 21
40.613359863732512
  0
LINE
  8
_0-8_
  6
CONTINUOUS
 62
    7
 10
113.86336489271559
 20
43.028905838783487
 11
113.86336489271559
 21
42.10397556373249
  0
LINE
  8
_0-8_
  6
CONTINUOUS
 62
    7
 10
113.86336489271559
 20
44.519521538783465
 11
113.86336489271559
 21
43.594591263732468
  0
LINE
  8
_0-8_
  6
CONTINUOUS
 62
    7
 10
113.86336489271559
 20
46.0101372387835
 11
113.86336489271559
 21
45.085206963732503
  0
LINE
  8
_0-1_
  6
CONTINUOUS
 62
    5
 10
110.66336489297578
 20
54.040983816947175
 11
110.66336489297578
 21
36.266443038783507
  0
LINE
  8
_0-1_
  6
CONTINUOUS
 62
    5
 10
113.66336489297578
 20
54.040983816947175
 11
113.66336489297578
 21
36.266443038783507
  0
LINE
  8
_0-8_
  6
CONTINUOUS
 62
    7
 10
120.8633648929756
 20
45.266443038783507
 11
120.8633648929756
 21
42.066443038783461
  0
ARC
  8
_0-8_
  6
DASHED2
 62
  152
 10
121.3633648929756
 20
44.766443038783507
 40
0.5
 50
90
 51
180
  0
LINE
  8
_0-8_
  6
DASHED2
 62
  152
 10
95.763364892975687
 20
43.766443038783507
 11
95.763364892975687
 21
30.866443038783416
  0
LINE
  8
_0-8_
  6
DASHED2
 62
  152
 10
97.263364892975687
 20
45.266443038783507
 11
110.16336489297578
 21
45.266443038783507
  0
LINE
  8
_0-8_
  6
DASHED2
 62
  152
 10
108.97047167416235
 20
35.266443038783507
 11
122.55625811178902
 21
35.266443038783507
  0
ARC
  8
_0-8_
  6
DASHED2
 62
  152
 10
122.55625811178902
 20
35.766443038783507
 40
0.5
 50
270
 51
315
  0
LINE
  8
_0-8_
  6
DASHED2
 62
  152
 10
122.90981150238235
 20
35.412889648190173
 11
123.61691828356902
 21
36.11999642937684
  0
ARC
  8
_0-8_
  6
DASHED2
 62
  152
 10
123.26336489297569
 20
36.473549819970174
 40
0.5
 50
315
 51
0
  0
LINE
  8
_0-8_
  6
DASHED2
 62
  152
 10
123.76336489297569
 20
36.473549819970174
 11
123.76336489297569
 21
41.166443038783598
  0
ARC
  8
_0-8_
  6
DASHED2
 62
  152
 10
123.26336489297569
 20
41.166443038783598
 40
0.5
 50
0
 51
90
  0
LINE
  8
_0-8_
  6
DASHED2
 62
  152
 10
123.26336489297569
 20
41.666443038783598
 11
121.77238188735032
 21
41.666443038783598
  0
ARC
  8
_0-8_
  6
DASHED2
 62
  152
 10
121.77238188735032
 20
42.166443038783598
 40
0.5
 50
206.56505117706848
 51
270
  0
LINE
  8
_0-8_
  6
DASHED2
 62
  152
 10
121.32516829185056
 20
41.94283624103349
 11
120.91615129747584
 21
42.760870229783393
  0
ARC
  8
_0-8_
  6
DASHED2
 62
  152
 10
121.3633648929756
 20
42.984477027533501
 40
0.5
 50
179.99999999999994
 51
206.56505117707795
  0
LINE
  8
_0-8_
  6
DASHED2
 62
  152
 10
120.8633648929756
 20
42.984477027533501
 11
120.8633648929756
 21
44.766443038783507
  0
ARC
  8
_0-8_
  6
DASHED2
 62
  152
 10
108.97047167416235
 20
35.766443038783507
 40
0.5
 50
225
 51
270
  0
LINE
  8
_0-8_
  6
DASHED2
 62
  152
 10
108.61691828356902
 20
35.412889648190173
 11
107.90981150238235
 21
36.11999642937684
  0
ARC
  8
_0-8_
  6
DASHED2
 62
  152
 10
108.26336489297569
 20
36.473549819970174
 40
0.5
 50
180
 51
225
  0
LINE
  8
_0-8_
  6
DASHED2
 62
  152
 10
107.76336489297569
 20
36.473549819970174
 11
107.76336489297569
 21
41.166443038783598
  0
ARC
  8
_0-8_
  6
DASHED2
 62
  152
 10
108.26336489297569
 20
41.166443038783598
 40
0.5
 50
90
 51
180
  0
LINE
  8
_0-8_
  6
DASHED2
 62
  152
 10
108.26336489297569
 20
41.666443038783598
 11
109.75434789860105
 21
41.666443038783598
  0
ARC
  8
_0-8_
  6
DASHED2
 62
  152
 10
109.75434789860105
 20
42.166443038783598
 40
0.5
 50
270
 51
333.43494882293152
  0
LINE
  8
_0-8_
  6
DASHED2
 62
  152
 10
110.20156149410082
 20
41.94283624103349
 11
110.61057848847554
 21
42.760870229783393
  0
ARC
  8
_0-8_
  6
DASHED2
 62
  152
 10
110.16336489297578
 20
42.984477027533501
 40
0.5
 50
333.43494882292208
 51
0.0000000000000568
  0
LINE
  8
_0-8_
  6
DASHED2
 62
  152
 10
110.66336489297578
 20
42.984477027533501
 11
110.66336489297578
 21
44.766443038783507
  0
ARC
  8
_0-8_
  6
DASHED2
 62
  152
 10
110.16336489297578
 20
44.766443038783507
 40
0.5
 50
0
 51
90
  0
LINE
  8
_0-8_
  6
DASHED2
 62
  152
 10
135.76336489297569
 20
30.866443038783416
 11
135.76336489297569
 21
43.766443038783507
  0
ARC
  8
_0-8_
  6
DASHED2
 62
  152
 10
97.263364892975687
 20
43.766443038783507
 40
1.5
 50
90
 51
180
  0
ARC
  8
_0-8_
  6
DASHED2
 62
  152
 10
134.26336489297569
 20
43.766443038783507
 40
1.5
 50
0
 51
90
  0
LINE
  8
_0-8_
  6
DASHED2
 62
  152
 10
121.3633648929756
 20
45.266443038783507
 11
134.26336489297569
 21
45.266443038783507
  0
LINE
  8
_0-8_
  6
CONTINUOUS
 62
    7
 10
120.8633648929756
 20
45.266443038783507
 11
122.6879262965756
 21
45.266443038783507
  0
LINE
  8
_0-8_
  6
CONTINUOUS
 62
    7
 10
176.19607326348631
 20
45.266443038783507
 11
176.19607326348631
 21
42.066443038783405
  0
LINE
  8
_0-1_
  6
CONTINUOUS
 62
    5
 10
165.99607326348649
 20
36.266443038783507
 11
170.99607326348649
 21
36.266443038783507
  0
LINE
  8
_0-8_
  6
CONTINUOUS
 62
    7
 10
170.99607326322632
 20
48.066443038783405
 11
170.99607326322632
 21
37.066443038783405
  0
LINE
  8
_0-8_
  6
CONTINUOUS
 62
    7
 10
171.26975747376633
 20
46.566443038783405
 11
170.99607326322632
 21
48.066443038783405
  0
LINE
  8
_0-8_
  6
CONTINUOUS
 62
    7
 10
171.26975747376633
 20
38.566443038783405
 11
170.99607326322632
 21
37.066443038783405
  0
LINE
  8
_0-8_
  6
CONTINUOUS
 62
    7
 10
176.19607326348631
 20
42.066443038783405
 11
176.8346697547463
 21
41.662297850350683
  0
LINE
  8
_0-8_
  6
CONTINUOUS
 62
    7
 10
170.99607326322678
 20
37.066443038783589
 11
170.99607326322678
 21
37.066443038783589
  0
LINE
  8
_0-8_
  6
CONTINUOUS
 62
    7
 10
170.99607326322678
 20
37.066443038783589
 11
172.77134209035384
 21
37.83363052426359
  0
LINE
  8
_0-8_
  6
CONTINUOUS
 62
    7
 10
172.77134209035384
 20
37.83363052426359
 11
174.39810591328711
 21
38.927076462035821
  0
LINE
  8
_0-8_
  6
CONTINUOUS
 62
    7
 10
174.39810591328711
 20
38.927076462035821
 11
175.82693633644894
 21
40.313557050591413
  0
LINE
  8
_0-8_
  6
CONTINUOUS
 62
    7
 10
175.82693633644894
 20
40.313557050591413
 11
176.83466975474633
 21
41.662297850350711
  0
LINE
  8
_0-8_
  6
CONTINUOUS
 62
    7
 10
171.2697574738896
 20
38.566443039458939
 11
171.2697574738896
 21
38.566443039458939
  0
LINE
  8
_0-8_
  6
CONTINUOUS
 62
    7
 10
171.2697574738896
 20
38.566443039458939
 11
172.36771392693217
 21
39.827381931372415
  0
LINE
  8
_0-8_
  6
CONTINUOUS
 62
    7
 10
172.36771392693217
 20
39.827381931372415
 11
173.24923720841903
 21
41.27815497861652
  0
LINE
  8
_0-8_
  6
CONTINUOUS
 62
    7
 10
173.24923720841903
 20
41.27815497861652
 11
173.8875426795145
 21
42.874681176277306
  0
LINE
  8
_0-8_
  6
CONTINUOUS
 62
    7
 10
173.8875426795145
 20
42.874681176277306
 11
173.91537150898634
 21
42.966443038783446
  0
LINE
  8
_0-8_
  6
CONTINUOUS
 62
    7
 10
176.82845061994288
 20
47.23615954898321
 11
170.99607326322632
 21
48.066443038783405
  0
LINE
  8
_0-8_
  6
CONTINUOUS
 62
    7
 10
178.02063466708631
 20
45.748651438695333
 11
178.02063466708631
 21
45.26644303878345
  0
LINE
  8
_0-8_
  6
CONTINUOUS
 62
    7
 10
172.99304297032467
 20
45.915068547411238
 11
171.26975747376633
 21
46.566443038783405
  0
LINE
  8
_0-8_
  6
CONTINUOUS
 62
    7
 10
173.91537150898631
 20
44.497009074971857
 11
173.91537150898631
 21
42.966443038783495
  0
LINE
  8
_0-8_
  6
CONTINUOUS
 62
    7
 10
173.91537150898631
 20
44.497009074971857
 11
173.91537150898631
 21
44.497009074971857
  0
LINE
  8
_0-8_
  6
CONTINUOUS
 62
    7
 10
173.91537150898631
 20
44.497009074971857
 11
173.89458211837041
 21
44.75748134147225
  0
LINE
  8
_0-8_
  6
CONTINUOUS
 62
    7
 10
173.89458211837041
 20
44.75748134147225
 11
173.83284562163658
 21
45.010039289960361
  0
LINE
  8
_0-8_
  6
CONTINUOUS
 62
    7
 10
173.83284562163658
 20
45.010039289960361
 11
173.73203785099795
 21
45.247009074971857
  0
LINE
  8
_0-8_
  6
CONTINUOUS
 62
    7
 10
173.73203785099795
 20
45.247009074971857
 11
173.59522179955417
 21
45.461190489501668
  0
LINE
  8
_0-8_
  6
CONTINUOUS
 62
    7
 10
173.59522179955417
 20
45.461190489501668
 11
173.42655455379608
 21
45.646075739650321
  0
LINE
  8
_0-8_
  6
CONTINUOUS
 62
    7
 10
173.42655455379608
 20
45.646075739650321
 11
173.23116098263631
 21
45.796047180648515
  0
LINE
  8
_0-8_
  6
CONTINUOUS
 62
    7
 10
173.23116098263631
 20
45.796047180648515
 11
173.01497802086064
 21
45.906548006150722
  0
LINE
  8
_0-8_
  6
CONTINUOUS
 62
    7
 10
173.01497802086064
 20
45.906548006150722
 11
172.99304297032467
 21
45.915068547411252
  0
LINE
  8
_0-8_
  6
CONTINUOUS
 62
    7
 10
178.02063466708631
 20
45.748651438695333
 11
178.02063466708631
 21
45.748651438695333
  0
LINE
  8
_0-8_
  6
CONTINUOUS
 62
    7
 10
178.02063466708631
 20
45.748651438695333
 11
177.99984527647041
 21
46.009123705195726
  0
LINE
  8
_0-8_
  6
CONTINUOUS
 62
    7
 10
177.99984527647041
 20
46.009123705195726
 11
177.93810877973658
 21
46.261681653683837
  0
LINE
  8
_0-8_
  6
CONTINUOUS
 62
    7
 10
177.93810877973658
 20
46.261681653683837
 11
177.83730100909796
 21
46.498651438695333
  0
LINE
  8
_0-8_
  6
CONTINUOUS
 62
    7
 10
177.83730100909796
 20
46.498651438695333
 11
177.70048495765417
 21
46.712832853225144
  0
LINE
  8
_0-8_
  6
CONTINUOUS
 62
    7
 10
177.70048495765417
 20
46.712832853225144
 11
177.53181771189608
 21
46.897718103373798
  0
LINE
  8
_0-8_
  6
CONTINUOUS
 62
    7
 10
177.53181771189608
 20
46.897718103373798
 11
177.33642414073631
 21
47.047689544371991
  0
LINE
  8
_0-8_
  6
CONTINUOUS
 62
    7
 10
177.33642414073631
 20
47.047689544371991
 11
177.12024117896064
 21
47.158190369874198
  0
LINE
  8
_0-8_
  6
CONTINUOUS
 62
    7
 10
177.12024117896064
 20
47.158190369874198
 11
176.88983743646872
 21
47.225863068213648
  0
LINE
  8
_0-8_
  6
CONTINUOUS
 62
    7
 10
176.88983743646872
 20
47.225863068213648
 11
176.82845061994291
 21
47.23615954898321
  0
LINE
  8
_0-1_
  6
CONTINUOUS
 62
    5
 10
165.99607326348649
 20
54.040983816947119
 11
165.99607326348649
 21
36.266443038783507
  0
LINE
  8
_0-1_
  6
CONTINUOUS
 62
    5
 10
170.99607326348649
 20
54.040983816947119
 11
170.99607326348649
 21
36.266443038783507
  0
ARC
  8
_0-8_
  6
DASHED2
 62
  152
 10
176.69607326348631
 20
44.766443038783507
 40
0.5
 50
90
 51
180
  0
LINE
  8
_0-8_
  6
DASHED2
 62
  152
 10
151.0960732634864
 20
43.766443038783507
 11
151.0960732634864
 21
30.866443038783416
  0
LINE
  8
_0-8_
  6
DASHED2
 62
  152
 10
152.5960732634864
 20
45.266443038783507
 11
165.49607326348649
 21
45.266443038783507
  0
LINE
  8
_0-8_
  6
DASHED2
 62
  152
 10
164.30318004467307
 20
35.266443038783507
 11
177.88896648229974
 21
35.266443038783507
  0
ARC
  8
_0-8_
  6
DASHED2
 62
  152
 10
177.88896648229974
 20
35.766443038783507
 40
0.5
 50
270
 51
315
  0
LINE
  8
_0-8_
  6
DASHED2
 62
  152
 10
178.24251987289307
 20
35.412889648190173
 11
178.94962665407974
 21
36.11999642937684
  0
ARC
  8
_0-8_
  6
DASHED2
 62
  152
 10
178.5960732634864
 20
36.473549819970174
 40
0.5
 50
315
 51
0
  0
LINE
  8
_0-8_
  6
DASHED2
 62
  152
 10
179.0960732634864
 20
36.473549819970174
 11
179.0960732634864
 21
41.166443038783598
  0
ARC
  8
_0-8_
  6
DASHED2
 62
  152
 10
178.5960732634864
 20
41.166443038783598
 40
0.5
 50
0
 51
90
  0
LINE
  8
_0-8_
  6
DASHED2
 62
  152
 10
178.5960732634864
 20
41.666443038783598
 11
177.10509025786104
 21
41.666443038783598
  0
ARC
  8
_0-8_
  6
DASHED2
 62
  152
 10
177.10509025786104
 20
42.166443038783598
 40
0.5
 50
206.56505117706848
 51
270
  0
LINE
  8
_0-8_
  6
DASHED2
 62
  152
 10
176.65787666236128
 20
41.94283624103349
 11
176.24885966798655
 21
42.760870229783393
  0
ARC
  8
_0-8_
  6
DASHED2
 62
  152
 10
176.69607326348631
 20
42.984477027533501
 40
0.5
 50
179.99999999999994
 51
206.56505117707795
  0
LINE
  8
_0-8_
  6
DASHED2
 62
  152
 10
176.19607326348631
 20
42.984477027533501
 11
176.19607326348631
 21
44.766443038783507
  0
ARC
  8
_0-8_
  6
DASHED2
 62
  152
 10
164.30318004467307
 20
35.766443038783507
 40
0.5
 50
225
 51
270
  0
LINE
  8
_0-8_
  6
DASHED2
 62
  152
 10
163.94962665407974
 20
35.412889648190173
 11
163.24251987289307
 21
36.11999642937684
  0
ARC
  8
_0-8_
  6
DASHED2
 62
  152
 10
163.5960732634864
 20
36.473549819970174
 40
0.5
 50
180
 51
225
  0
LINE
  8
_0-8_
  6
DASHED2
 62
  152
 10
163.0960732634864
 20
36.473549819970174
 11
163.0960732634864
 21
41.166443038783598
  0
ARC
  8
_0-8_
  6
DASHED2
 62
  152
 10
163.5960732634864
 20
41.166443038783598
 40
0.5
 50
90
 51
180
  0
LINE
  8
_0-8_
  6
DASHED2
 62
  152
 10
163.5960732634864
 20
41.666443038783598
 11
165.08705626911177
 21
41.666443038783598
  0
ARC
  8
_0-8_
  6
DASHED2
 62
  152
 10
165.08705626911177
 20
42.166443038783598
 40
0.5
 50
270
 51
333.43494882293152
  0
LINE
  8
_0-8_
  6
DASHED2
 62
  152
 10
165.53426986461153
 20
41.94283624103349
 11
165.94328685898626
 21
42.760870229783393
  0
ARC
  8
_0-8_
  6
DASHED2
 62
  152
 10
165.49607326348649
 20
42.984477027533501
 40
0.5
 50
333.43494882292208
 51
0.0000000000000568
  0
LINE
  8
_0-8_
  6
DASHED2
 62
  152
 10
165.99607326348649
 20
42.984477027533501
 11
165.99607326348649
 21
44.766443038783507
  0
ARC
  8
_0-8_
  6
DASHED2
 62
  152
 10
165.49607326348649
 20
44.766443038783507
 40
0.5
 50
0
 51
90
  0
LINE
  8
_0-8_
  6
DASHED2
 62
  152
 10
191.0960732634864
 20
30.866443038783416
 11
191.0960732634864
 21
43.766443038783507
  0
ARC
  8
_0-8_
  6
DASHED2
 62
  152
 10
152.5960732634864
 20
43.766443038783507
 40
1.5
 50
90
 51
180
  0
ARC
  8
_0-8_
  6
DASHED2
 62
  152
 10
189.5960732634864
 20
43.766443038783507
 40
1.5
 50
0
 51
90
  0
LINE
  8
_0-8_
  6
DASHED2
 62
  152
 10
176.69607326348631
 20
45.266443038783507
 11
189.5960732634864
 21
45.266443038783507
  0
LINE
  8
_0-8_
  6
CONTINUOUS
 62
    7
 10
176.19607326348631
 20
45.266443038783507
 11
178.02063466708631
 21
45.266443038783507
  0
TEXT
  8
_0-7_
 62
    7
 10
33.896097625708535
 20
69.999132198071436
 40
4.2999999999999998
 41
0.744186046511628
 50
0
  1
RP4C
  0
ENDSEC
  0
EOF
