  0
SECTION
  2
HEADER
  9
$ACADVER
  1
AC1009
  9
$INSBASE
 10
0
 20
0
 30
0
  9
$EXTMIN
 10
0
 20
0
  9
$EXTMAX
 10
1189
 20
841
  9
$LIMMIN
 10
0
 20
0
  9
$LIMMAX
 10
1189
 20
841
  9
$LTSCALE
 40
1
  0
ENDSEC
  0
SECTION
  2
TABLES
  0
TABLE
  2
LTYPE
 70
     9
  0
LTYPE
  2
CONTINUOUS
 70
    64
  3
実線
 72
    65
 73
     0
 40
0.0
  0
LTYPE
  2
DASHED1
 70
    64
  3
--  --  --  --  --  --  --  --  
 72
    65
 73
     2
 40
2.5
 49
1.25
 49
-1.25
  0
LTYPE
  2
DASHED2
 70
    64
  3
----    ----    ----    ----    
 72
    65
 73
     2
 40
5.0
 49
2.5
 49
-2.5
  0
LTYPE
  2
DASHED3
 70
    64
  3
------  ------  ------  ------  
 72
    65
 73
     2
 40
5.0
 49
3.75
 49
-1.25
  0
LTYPE
  2
CENTER1
 70
    64
  3
----- - ----- - ----- - ----- - 
 72
    65
 73
     4
 40
10.0
 49
6.25
 49
-1.25
 49
1.25
 49
-1.25
  0
LTYPE
  2
CENTER2
 70
    64
  3
----------  --  ----------  --  
 72
    65
 73
     4
 40
20.0
 49
12.5
 49
-2.5
 49
2.5
 49
-2.5
  0
LTYPE
  2
PHANTOM1
 70
    64
  3
--- - - --- - - --- - - --- - - 
 72
    65
 73
     6
 40
10.0
 49
3.25
 49
-1.25
 49
1.25
 49
-1.25
 49
1.25
 49
-1.25
  0
LTYPE
  2
PHANTOM2
 70
    64
  3
--------  -  -  --------  -  -  
 72
    65
 73
     6
 40
20.0
 49
10.0
 49
-2.5
 49
1.25
 49
-2.5
 49
1.25
 49
-2.5
  0
LTYPE
  2
DOT
 70
    64
  3
-   -   -   -   -   -   -   -   
 72
    65
 73
     2
 40
2.5
 49
0.625
 49
-1.875
  0
LTYPE
  2
DUMMY
 70
    64
  3
ダミー
 72
    65
 73
     0
 40
0.0
  0
LTYPE
  2
RAND1
 70
    64
  3
ランダム線1
 72
    65
 73
     4
 40
10.0
 49
1.0
 49
-2.0
 49
3.0
 49
-4.0
  0
LTYPE
  2
RAND2
 70
    64
  3
ランダム線2
 72
    65
 73
     4
 40
14.0
 49
2.0
 49
-3.0
 49
4.0
 49
-5.0
  0
LTYPE
  2
RAND3
 70
    64
  3
ランダム線3
 72
    65
 73
     4
 40
18.0
 49
3.0
 49
-4.0
 49
5.0
 49
-6.0
  0
LTYPE
  2
RAND4
 70
    64
  3
ランダム線4
 72
    65
 73
     4
 40
22.0
 49
4.0
 49
-5.0
 49
6.0
 49
-7.0
  0
LTYPE
  2
RAND5
 70
    64
  3
ランダム線5
 72
    65
 73
     4
 40
26.0
 49
5.0
 49
-6.0
 49
7.0
 49
-8.0
  0
LTYPE
  2
LONG1
 70
    64
  3
----------  --  ----------  --  
 72
    65
 73
     4
 40
40.0
 49
32.5
 49
-2.5
 49
2.5
 49
-2.5
  0
LTYPE
  2
LONG2
 70
    64
  3
--------  -  -  --------  -  -  
 72
    65
 73
     6
 40
40.0
 49
30.0
 49
-2.5
 49
1.25
 49
-2.5
 49
1.25
 49
-2.5
  0
LTYPE
  2
LONG3
 70
    64
  3
+++++++++++++++..+++++++++++++++
 72
    65
 73
     2
 40
40.0
 49
37.5
 49
-2.5
  0
LTYPE
  2
LONG4
 70
    64
  3
+++++++++++++++..+++++++++++++++
 72
    65
 73
     2
 40
80.0
 49
75.0
 49
-5.0
  0
LTYPE
  2
LONG5
 70
    64
  3
----------  --  ----------  --  
 72
    65
 73
     4
 40
60.0
 49
37.5
 49
-7.5
 49
7.5
 49
-7.5
  0
LTYPE
  2
dashed
 70
   64
  3
-------   -------------   ------
 72
   65
 73
    2
 40
7.5
 49
6
 49
-1.5
  0
LTYPE
  2
dashed_spaced
 70
   64
  3
----        --------        ----
 72
   65
 73
    2
 40
12
 49
6
 49
-6
  0
LTYPE
  2
long_dashed_dotted
 70
   64
  3
------------- --- --------------
 72
   65
 73
    4
 40
15.25
 49
12
 49
-1.5
 49
0.25
 49
-1.5
  0
LTYPE
  2
long_dashed_double-dotted
 70
   64
  3
----------- --- --- ------------
 72
   65
 73
    6
 40
17
 49
12
 49
-1.5
 49
0.25
 49
-1.5
 49
0.25
 49
-1.5
  0
LTYPE
  2
long_dashed_triplicate-dotted
 70
   64
  3
--------- --- --- --- ----------
 72
   65
 73
    8
 40
18.75
 49
12
 49
-1.5
 49
0.25
 49
-1.5
 49
0.25
 49
-1.5
 49
0.25
 49
-1.5
  0
LTYPE
  2
dotted
 70
   64
  3
   -       -       -       -    
 72
   65
 73
    2
 40
1.75
 49
0.25
 49
-1.5
  0
LTYPE
  2
chain
 70
   64
  3
-------------- -- --------------
 72
   65
 73
    4
 40
18.5
 49
12
 49
-1.5
 49
3.5
 49
-1.5
  0
LTYPE
  2
chain_double_dash
 70
   64
  3
------------ -- -- -------------
 72
   65
 73
    6
 40
23.5
 49
12
 49
-1.5
 49
3.5
 49
-1.5
 49
3.5
 49
-1.5
  0
LTYPE
  2
dashed_dotted
 70
   64
  3
-----------     -     ----------
 72
   65
 73
    4
 40
9.25
 49
6
 49
-1.5
 49
0.25
 49
-1.5
  0
LTYPE
  2
double-dashed_dotted
 70
   64
  3
------   -----------   -   -----
 72
   65
 73
    6
 40
16.75
 49
6
 49
-1.5
 49
6
 49
-1.5
 49
0.25
 49
-1.5
  0
LTYPE
  2
dashed_double-dotted
 70
   64
  3
---------    -    -    ---------
 72
   65
 73
    6
 40
11
 49
6
 49
-1.5
 49
0.25
 49
-1.5
 49
0.25
 49
-1.5
  0
LTYPE
  2
double-dashed_double-dotted
 70
   64
  3
-----   ---------   -   -   ----
 72
   65
 73
    8
 40
18.5
 49
6
 49
-1.5
 49
6
 49
-1.5
 49
0.25
 49
-1.5
 49
0.25
 49
-1.5
  0
LTYPE
  2
dashed_triplicate-dotted
 70
   64
  3
-------    -    -    -    ------
 72
   65
 73
    8
 40
12.75
 49
6
 49
-1.5
 49
0.25
 49
-1.5
 49
0.25
 49
-1.5
 49
0.25
 49
-1.5
  0
LTYPE
  2
double-dashed_triplicate-dotted
 70
   64
  3
-----  ---------  -  -  -  -----
 72
   65
 73
   10
 40
20.25
 49
6
 49
-1.5
 49
6
 49
-1.5
 49
0.25
 49
-1.5
 49
0.25
 49
-1.5
 49
0.25
 49
-1.5
  0
LTYPE
  2
undefined
 70
   64
  3
--------------------------------
 72
   65
 73
    0
 40
0
  0
ENDTAB
  0
TABLE
  2
STYLE
  5
3
100
AcDbSymbolTable
 70
     1
  0
STYLE
  5
10
100
AcDbSymbolTableRecord
100
AcDbTextStyleTableRecord
  2
STANDARD
 70
     0
 40
0.0
 41
1.0
 50
0.0
 71
     0
 42
0.2
  3
txt
  4
bigfont.shx
  0
STYLE
  5
26
100
AcDbSymbolTableRecord
100
AcDbTextStyleTableRecord
  2
TATEGAKI
 70
    68
 40
0.0
 41
1.0
 50
0.0
 71
     0
 42
1.0
  3
txt
  4
bigfont.shx
  0
ENDTAB
  0
TABLE
  2
LAYER
 70
    3
  0
LAYER
  2
_0-0_
 70
   64
 62
    7
  6
CONTINUOUS
  0
LAYER
  2
_0-1_
 70
   64
 62
    7
  6
CONTINUOUS
  0
LAYER
  2
ADD_LINE
 70
   64
 62
    7
  6
CONTINUOUS
  0
ENDTAB
  0
ENDSEC
  0
SECTION
  2
BLOCKS
  0
ENDSEC
  0
SECTION
  2
ENTITIES
  0
LINE
  8
_0-0_
  6
CONTINUOUS
 62
    7
 10
275.37178664799364
 20
43.01524425638587
 11
275.37178664799364
 21
22.585553290062251
  0
LINE
  8
_0-0_
  6
CONTINUOUS
 62
    7
 10
275.37178664799364
 20
22.585553290062251
 11
270.37178664799364
 21
22.585553290062251
  0
LINE
  8
_0-0_
  6
CONTINUOUS
 62
    7
 10
270.37178664799364
 20
22.585553290062251
 11
270.37178664799364
 21
43.01524425638587
  0
LINE
  8
_0-0_
  6
CONTINUOUS
 62
    7
 10
278.63830565851811
 20
29.847785356027259
 11
275.37178664799364
 21
30.065553290062269
  0
LINE
  8
_0-0_
  6
CONTINUOUS
 62
    7
 10
275.37178664799364
 20
30.065553290062269
 11
275.58234727765364
 21
29.012750141761614
  0
LINE
  8
_0-0_
  6
CONTINUOUS
 62
    7
 10
276.27178664799374
 20
28.062196568676256
 11
276.27178664799374
 21
27.285553290062296
  0
LINE
  8
_0-0_
  6
CONTINUOUS
 62
    7
 10
276.27178664799374
 20
27.285553290062296
 11
275.37178664799364
 21
27.510553290062319
  0
LINE
  8
_0-0_
  6
CONTINUOUS
 62
    7
 10
275.37178664799364
 20
27.510553290062319
 11
275.37178664799364
 21
26.960553290062421
  0
LINE
  8
_0-0_
  6
CONTINUOUS
 62
    7
 10
275.37178664799364
 20
26.960553290062421
 11
276.27178664799374
 21
26.585553290062251
  0
LINE
  8
_0-0_
  6
CONTINUOUS
 62
    7
 10
276.27178664799374
 20
26.585553290062251
 11
276.27178664799374
 21
25.999766852435243
  0
LINE
  8
_0-0_
  6
CONTINUOUS
 62
    7
 10
275.97889342918086
 20
25.292660071249259
 11
275.37178664799364
 21
24.685553290062046
  0
LINE
  8
_0-0_
  6
CONTINUOUS
 62
    7
 10
275.37178664799364
 20
24.685553290062046
 11
275.37178664799364
 21
23.248013331687787
  0
LINE
  8
_0-0_
  6
CONTINUOUS
 62
    7
 10
277.57178664799392
 20
26.585553290062251
 11
277.57178664799392
 21
28.585553290062251
  0
LINE
  8
_0-0_
  6
CONTINUOUS
 62
    7
 10
277.57178664799392
 20
28.585553290062251
 11
279.57178664799392
 21
28.585553290062251
  0
LINE
  8
_0-0_
  6
CONTINUOUS
 62
    7
 10
279.57178664799392
 20
28.585553290062251
 11
279.57178664799392
 21
28.850000198170221
  0
LINE
  8
_0-0_
  6
CONTINUOUS
 62
    7
 10
278.07178664799392
 20
26.585553290062251
 11
277.57178664799392
 21
26.585553290062251
  0
ARC
  8
_0-0_
  6
CONTINUOUS
 62
    7
 10
278.57178664799392
 20
28.850000198170221
 40
1
 50
0
 51
86.18592516570898
  0
ARC
  8
_0-0_
  6
CONTINUOUS
 62
    7
 10
275.27178664799374
 20
25.999766852435243
 40
1
 50
315
 51
0
  0
ARC
  8
_0-0_
  6
CONTINUOUS
 62
    7
 10
275.27178664799374
 20
28.062196568676256
 40
1
 50
0
 51
71.906980123843852
  0
ARC
  8
_0-0_
  6
CONTINUOUS
 62
    7
 10
272.36578603262694
 20
28.440696674663229
 40
6
 50
300.0661883399664
 51
341.98954309500999
  0
LINE
  8
_0-0_
  6
CONTINUOUS
 62
    7
 10
22.084500484334512
 20
42.526007750763426
 11
22.084500484334512
 21
22.585553290062364
  0
LINE
  8
_0-0_
  6
CONTINUOUS
 62
    7
 10
22.084500484334512
 20
22.585553290062364
 11
20.584500484334512
 21
22.585553290062364
  0
LINE
  8
_0-0_
  6
CONTINUOUS
 62
    7
 10
20.584500484334512
 20
22.585553290062364
 11
20.584500484334512
 21
42.526007750763426
  0
LINE
  8
_0-0_
  6
CONTINUOUS
 62
    7
 10
28.284500484334785
 20
26.585553290062251
 11
27.784500484334785
 21
26.585553290062251
  0
LINE
  8
_0-0_
  6
CONTINUOUS
 62
    7
 10
27.784500484334785
 20
26.585553290062251
 11
27.784500484334785
 21
28.585553290062251
  0
LINE
  8
_0-0_
  6
CONTINUOUS
 62
    7
 10
27.784500484334785
 20
28.585553290062251
 11
29.784500484334785
 21
28.585553290062251
  0
LINE
  8
_0-0_
  6
CONTINUOUS
 62
    7
 10
29.784500484334785
 20
28.585553290062251
 11
29.784500484334785
 21
28.838612246141281
  0
LINE
  8
_0-0_
  6
CONTINUOUS
 62
    7
 10
28.83896497749447
 20
29.837127954071264
 11
24.284500484334785
 21
30.085553290062251
  0
LINE
  8
_0-0_
  6
CONTINUOUS
 62
    7
 10
24.584500484334512
 20
30.085553290062251
 11
24.584500484334512
 21
23.085553290062251
  0
LINE
  8
_0-0_
  6
CONTINUOUS
 62
    7
 10
24.584500484334512
 20
23.085553290062251
 11
23.78450048433433
 21
23.085553290062251
  0
LINE
  8
_0-0_
  6
CONTINUOUS
 62
    7
 10
23.584500484334512
 20
23.085553290062251
 11
23.584500484334512
 21
30.085553290062251
  0
LINE
  8
_0-0_
  6
CONTINUOUS
 62
    7
 10
23.584500484334512
 20
30.085553290062251
 11
22.28450048433433
 21
30.085553290062251
  0
LINE
  8
_0-0_
  6
CONTINUOUS
 62
    7
 10
22.28450048433433
 20
29.519867865113326
 11
22.28450048433433
 21
28.476971215011247
  0
LINE
  8
_0-0_
  6
CONTINUOUS
 62
    7
 10
22.28450048433433
 20
27.911285790062323
 11
22.28450048433433
 21
26.868393715011337
  0
LINE
  8
_0-0_
  6
CONTINUOUS
 62
    7
 10
22.28450048433433
 20
26.302708290062299
 11
22.28450048433433
 21
25.259816215011313
  0
LINE
  8
_0-0_
  6
CONTINUOUS
 62
    7
 10
22.28450048433433
 20
24.694130790062275
 11
22.28450048433433
 21
23.651238715011289
  0
LINE
  8
_0-0_
  6
CONTINUOUS
 62
    7
 10
22.28450048433433
 20
23.085553290062251
 11
23.584500484334512
 21
23.085553290062251
  0
LINE
  8
_0-0_
  6
CONTINUOUS
 62
    7
 10
23.78450048433433
 20
23.651238715011289
 11
23.78450048433433
 21
24.694130790062275
  0
LINE
  8
_0-0_
  6
CONTINUOUS
 62
    7
 10
23.78450048433433
 20
25.259816215011313
 11
23.78450048433433
 21
26.302708290062299
  0
LINE
  8
_0-0_
  6
CONTINUOUS
 62
    7
 10
23.78450048433433
 20
26.868393715011337
 11
23.78450048433433
 21
27.911285790062323
  0
LINE
  8
_0-0_
  6
CONTINUOUS
 62
    7
 10
23.78450048433433
 20
28.476971215011247
 11
23.78450048433433
 21
29.519867865113326
  0
LINE
  8
_0-0_
  6
CONTINUOUS
 62
    7
 10
23.78450048433433
 20
30.085553290062251
 11
24.584500484334512
 21
30.085553290062251
  0
LINE
  8
_0-0_
  6
CONTINUOUS
 62
    7
 10
24.584500484334512
 20
30.085553290062251
 11
24.884500484334239
 21
29.085553290062251
  0
LINE
  8
_0-0_
  6
CONTINUOUS
 62
    7
 10
24.884500484334239
 20
29.085553290062251
 11
25.438877364608288
 21
28.998931902519359
  0
LINE
  8
_0-0_
  6
CONTINUOUS
 62
    7
 10
26.284500484334785
 20
28.010919868768326
 11
26.284500484334785
 21
27.185553290062273
  0
LINE
  8
_0-0_
  6
CONTINUOUS
 62
    7
 10
26.284500484334785
 20
27.185553290062273
 11
24.584500484334512
 21
27.525553290062305
  0
LINE
  8
_0-0_
  6
CONTINUOUS
 62
    7
 10
24.584500484334512
 20
26.999839004347962
 11
26.284500484334785
 21
26.514124718633241
  0
LINE
  8
_0-0_
  6
CONTINUOUS
 62
    7
 10
24.938160875348785
 20
24.853855245133786
 11
24.584500484334512
 21
23.085553290062251
  0
ARC
  8
_0-0_
  6
CONTINUOUS
 62
    7
 10
28.784500484334785
 20
28.838612246141281
 40
1
 50
0
 51
86.877869537883996
  0
ARC
  8
_0-0_
  6
CONTINUOUS
 62
    7
 10
23.884500484334239
 20
29.802710577587334
 40
0.2999999999999998
 50
109.47122063448899
 51
250.52877936551099
  0
ARC
  8
_0-0_
  6
CONTINUOUS
 62
    7
 10
23.884500484334239
 20
23.368396002537281
 40
0.2999999999999998
 50
109.47122063448899
 51
250.52877936551099
  0
ARC
  8
_0-0_
  6
CONTINUOUS
 62
    7
 10
23.884500484334239
 20
24.976973502537305
 40
0.2999999999999998
 50
109.47122063448899
 51
250.52877936551099
  0
ARC
  8
_0-0_
  6
CONTINUOUS
 62
    7
 10
23.884500484334239
 20
26.585551002537329
 40
0.2999999999999998
 50
109.47122063448899
 51
250.52877936551099
  0
ARC
  8
_0-0_
  6
CONTINUOUS
 62
    7
 10
23.884500484334239
 20
28.194128502537239
 40
0.2999999999999998
 50
109.47122063448899
 51
250.52877936551099
  0
ARC
  8
_0-0_
  6
CONTINUOUS
 62
    7
 10
22.384500484334239
 20
29.802710577587334
 40
0.2999999999999998
 50
109.47122063448899
 51
250.52877936551099
  0
ARC
  8
_0-0_
  6
CONTINUOUS
 62
    7
 10
22.384500484334239
 20
23.368396002537281
 40
0.2999999999999998
 50
109.47122063448899
 51
250.52877936551099
  0
ARC
  8
_0-0_
  6
CONTINUOUS
 62
    7
 10
22.384500484334239
 20
24.976973502537305
 40
0.2999999999999998
 50
109.47122063448899
 51
250.52877936551099
  0
ARC
  8
_0-0_
  6
CONTINUOUS
 62
    7
 10
22.384500484334239
 20
26.585551002537329
 40
0.2999999999999998
 50
109.47122063448899
 51
250.52877936551099
  0
ARC
  8
_0-0_
  6
CONTINUOUS
 62
    7
 10
22.384500484334239
 20
28.194128502537239
 40
0.2999999999999998
 50
109.47122063448899
 51
250.52877936551099
  0
ARC
  8
_0-0_
  6
CONTINUOUS
 62
    7
 10
25.284500484334785
 20
28.010919868768326
 40
1
 50
0
 51
81.119340849467207
  0
ARC
  8
_0-0_
  6
CONTINUOUS
 62
    7
 10
21.501320760832641
 20
29.016864093953302
 40
5.3983805579170001
 50
309.54193464940079
 51
332.37974526650305
  0
ARC
  8
_0-0_
  6
CONTINUOUS
 62
    7
 10
22.701101093695797
 20
28.782289788737842
 40
6
 50
288.29441444290114
 51
338.52330501470647
  0
LINE
  8
_0-0_
  6
CONTINUOUS
 62
    7
 10
92.584500484334512
 20
42.526007750763426
 11
92.584500484334512
 21
22.585553290062307
  0
LINE
  8
_0-0_
  6
CONTINUOUS
 62
    7
 10
92.584500484334512
 20
22.585553290062307
 11
89.584500484334512
 21
22.585553290062307
  0
LINE
  8
_0-0_
  6
CONTINUOUS
 62
    7
 10
89.584500484334512
 20
22.585553290062307
 11
89.584500484334512
 21
42.526007750763426
  0
LINE
  8
_0-0_
  6
CONTINUOUS
 62
    7
 10
97.284500484334785
 20
26.585553290062251
 11
96.784500484334785
 21
26.585553290062251
  0
LINE
  8
_0-0_
  6
CONTINUOUS
 62
    7
 10
96.784500484334785
 20
26.585553290062251
 11
96.784500484334785
 21
28.585553290062251
  0
LINE
  8
_0-0_
  6
CONTINUOUS
 62
    7
 10
96.784500484334785
 20
28.585553290062251
 11
98.784500484334785
 21
28.585553290062251
  0
LINE
  8
_0-0_
  6
CONTINUOUS
 62
    7
 10
98.784500484334785
 20
28.585553290062251
 11
98.784500484334785
 21
28.838612246141281
  0
LINE
  8
_0-0_
  6
CONTINUOUS
 62
    7
 10
97.838964977494925
 20
29.837127954071264
 11
93.284500484334785
 21
30.085553290062251
  0
LINE
  8
_0-0_
  6
CONTINUOUS
 62
    7
 10
93.584500484334512
 20
30.085553290062251
 11
93.584500484334512
 21
23.085553290062251
  0
LINE
  8
_0-0_
  6
CONTINUOUS
 62
    7
 10
93.584500484334512
 20
23.085553290062251
 11
92.784500484334785
 21
23.085553290062251
  0
LINE
  8
_0-0_
  6
CONTINUOUS
 62
    7
 10
92.784500484334785
 20
23.651238715011289
 11
92.784500484334785
 21
24.694130790062275
  0
LINE
  8
_0-0_
  6
CONTINUOUS
 62
    7
 10
92.784500484334785
 20
25.259816215011313
 11
92.784500484334785
 21
26.302708290062299
  0
LINE
  8
_0-0_
  6
CONTINUOUS
 62
    7
 10
92.784500484334785
 20
26.868393715011337
 11
92.784500484334785
 21
27.911285790062323
  0
LINE
  8
_0-0_
  6
CONTINUOUS
 62
    7
 10
92.784500484334785
 20
28.476971215011247
 11
92.784500484334785
 21
29.519867865113326
  0
LINE
  8
_0-0_
  6
CONTINUOUS
 62
    7
 10
92.784500484334785
 20
30.085553290062251
 11
93.584500484334512
 21
30.085553290062251
  0
LINE
  8
_0-0_
  6
CONTINUOUS
 62
    7
 10
93.584500484334512
 20
30.085553290062251
 11
93.884500484334694
 21
29.085553290062251
  0
LINE
  8
_0-0_
  6
CONTINUOUS
 62
    7
 10
93.884500484334694
 20
29.085553290062251
 11
94.438877364608743
 21
28.998931902519359
  0
LINE
  8
_0-0_
  6
CONTINUOUS
 62
    7
 10
95.284500484334785
 20
28.010919868768269
 11
95.284500484334785
 21
27.185553290062273
  0
LINE
  8
_0-0_
  6
CONTINUOUS
 62
    7
 10
95.284500484334785
 20
27.185553290062273
 11
93.584500484334512
 21
27.525553290062305
  0
LINE
  8
_0-0_
  6
CONTINUOUS
 62
    7
 10
93.584500484334512
 20
26.999839004347962
 11
95.284500484334785
 21
26.514124718633241
  0
LINE
  8
_0-0_
  6
CONTINUOUS
 62
    7
 10
93.938160875348785
 20
24.85385524513373
 11
93.584500484334512
 21
23.085553290062251
  0
ARC
  8
_0-0_
  6
CONTINUOUS
 62
    7
 10
97.784500484334785
 20
28.838612246141281
 40
1
 50
0
 51
86.877869537883996
  0
ARC
  8
_0-0_
  6
CONTINUOUS
 62
    7
 10
92.884500484334694
 20
29.802710577587334
 40
0.2999999999999998
 50
109.47122063448899
 51
250.52877936551099
  0
ARC
  8
_0-0_
  6
CONTINUOUS
 62
    7
 10
92.884500484334694
 20
23.368396002537281
 40
0.2999999999999998
 50
109.47122063448899
 51
250.52877936551099
  0
ARC
  8
_0-0_
  6
CONTINUOUS
 62
    7
 10
92.884500484334694
 20
24.976973502537305
 40
0.2999999999999998
 50
109.47122063448899
 51
250.52877936551099
  0
ARC
  8
_0-0_
  6
CONTINUOUS
 62
    7
 10
92.884500484334694
 20
26.585551002537329
 40
0.2999999999999998
 50
109.47122063448899
 51
250.52877936551099
  0
ARC
  8
_0-0_
  6
CONTINUOUS
 62
    7
 10
92.884500484334694
 20
28.194128502537239
 40
0.2999999999999998
 50
109.47122063448899
 51
250.52877936551099
  0
ARC
  8
_0-0_
  6
CONTINUOUS
 62
    7
 10
94.284500484334785
 20
28.010919868768269
 40
1
 50
0
 51
81.119340849467207
  0
ARC
  8
_0-0_
  6
CONTINUOUS
 62
    7
 10
90.501320760833096
 20
29.016864093953302
 40
5.3983805579170001
 50
309.54193464940079
 51
332.37974526650305
  0
ARC
  8
_0-0_
  6
CONTINUOUS
 62
    7
 10
91.701101093695797
 20
28.782289788737842
 40
6
 50
288.29441444290114
 51
338.52330501470647
  0
LINE
  8
_0-0_
  6
CONTINUOUS
 62
    7
 10
162.58450048433451
 20
42.526007750763426
 11
162.58450048433451
 21
22.585553290062364
  0
LINE
  8
_0-0_
  6
CONTINUOUS
 62
    7
 10
162.58450048433451
 20
22.585553290062364
 11
158.58450048433451
 21
22.585553290062364
  0
LINE
  8
_0-0_
  6
CONTINUOUS
 62
    7
 10
158.58450048433451
 20
22.585553290062364
 11
158.58450048433451
 21
42.526007750763426
  0
LINE
  8
_0-0_
  6
CONTINUOUS
 62
    7
 10
166.28450048433479
 20
26.585553290062251
 11
165.78450048433479
 21
26.585553290062251
  0
LINE
  8
_0-0_
  6
CONTINUOUS
 62
    7
 10
165.78450048433479
 20
26.585553290062251
 11
165.78450048433479
 21
28.585553290062251
  0
LINE
  8
_0-0_
  6
CONTINUOUS
 62
    7
 10
165.78450048433479
 20
28.585553290062251
 11
167.78450048433479
 21
28.585553290062251
  0
LINE
  8
_0-0_
  6
CONTINUOUS
 62
    7
 10
167.78450048433479
 20
28.585553290062251
 11
167.78450048433479
 21
28.838612246141281
  0
LINE
  8
_0-0_
  6
CONTINUOUS
 62
    7
 10
166.83896497749492
 20
29.837127954071264
 11
162.58949124219043
 21
30.068917430542854
  0
LINE
  8
_0-0_
  6
CONTINUOUS
 62
    7
 10
162.58949124219043
 20
30.068917430542854
 11
162.88450048433469
 21
29.085553290062251
  0
LINE
  8
_0-0_
  6
CONTINUOUS
 62
    7
 10
162.88450048433469
 20
29.085553290062251
 11
163.43887736460874
 21
28.998931902519359
  0
LINE
  8
_0-0_
  6
CONTINUOUS
 62
    7
 10
164.28450048433479
 20
28.010919868768326
 11
164.28450048433479
 21
27.185553290062273
  0
LINE
  8
_0-0_
  6
CONTINUOUS
 62
    7
 10
164.28450048433479
 20
27.185553290062273
 11
162.58450048433451
 21
27.525553290062305
  0
LINE
  8
_0-0_
  6
CONTINUOUS
 62
    7
 10
162.58450048433451
 20
27.525553290062305
 11
162.58450048433451
 21
26.999839004347962
  0
LINE
  8
_0-0_
  6
CONTINUOUS
 62
    7
 10
162.58450048433451
 20
26.999839004347962
 11
164.28450048433479
 21
26.514124718633241
  0
LINE
  8
_0-0_
  6
CONTINUOUS
 62
    7
 10
162.93816087534879
 20
24.853855245133786
 11
162.58450048433451
 21
23.085553290062251
  0
ARC
  8
_0-0_
  6
CONTINUOUS
 62
    7
 10
166.78450048433479
 20
28.838612246141281
 40
1
 50
0
 51
86.877869537883996
  0
ARC
  8
_0-0_
  6
CONTINUOUS
 62
    7
 10
163.28450048433479
 20
28.010919868768326
 40
1
 50
0
 51
81.119340849467207
  0
ARC
  8
_0-0_
  6
CONTINUOUS
 62
    7
 10
159.5013207608331
 20
29.016864093953302
 40
5.3983805579170001
 50
309.54193464940079
 51
332.37974526650305
  0
ARC
  8
_0-0_
  6
CONTINUOUS
 62
    7
 10
160.70110109369625
 20
28.782289788737842
 40
6
 50
288.29441444290114
 51
338.52330501470647
  0
LINE
  8
_0-1_
  6
PHANTOM1
 62
  152
 10
13.48450048433449
 20
10.085553290062251
 11
16.684500484334535
 21
10.085553290062251
  0
LINE
  8
_0-1_
  6
PHANTOM1
 62
  152
 10
20.584500484334512
 20
5.3855532900619778
 11
20.584500484334512
 21
3.5855532900622507
  0
LINE
  8
_0-1_
  6
PHANTOM1
 62
  152
 10
20.584500484334512
 20
5.3855532900619778
 11
18.184500484334762
 21
5.3855532900619778
  0
LINE
  8
_0-1_
  6
PHANTOM1
 62
  152
 10
20.584500484334512
 20
3.5855532900622507
 11
11.684500484334762
 21
3.5855532900622507
  0
LINE
  8
_0-1_
  6
PHANTOM1
 62
  152
 10
11.684500484334762
 20
3.5855532900622507
 11
11.684500484334762
 21
12.485553290062342
  0
LINE
  8
_0-1_
  6
PHANTOM1
 62
  152
 10
11.684500484334762
 20
12.485553290062342
 11
13.48450048433449
 21
12.485553290062342
  0
LINE
  8
_0-1_
  6
PHANTOM1
 62
  152
 10
13.48450048433449
 20
12.485553290062342
 11
13.48450048433449
 21
10.085553290062251
  0
LINE
  8
_0-1_
  6
PHANTOM1
 62
  152
 10
16.684500484334535
 20
10.085553290062251
 11
17.884500484334581
 21
11.285553290062296
  0
LINE
  8
_0-1_
  6
PHANTOM1
 62
  152
 10
18.184500484334762
 20
5.3855532900619778
 11
18.184500484334762
 21
8.5855532900622507
  0
LINE
  8
_0-1_
  6
PHANTOM1
 62
  152
 10
19.384500484334694
 20
9.7855532900620688
 11
18.184500484334762
 21
8.5855532900622507
  0
LINE
  8
_0-1_
  6
PHANTOM1
 62
  152
 10
19.384500484334694
 20
9.7855532900620688
 11
28.984500484334603
 21
9.7855532900620688
  0
LINE
  8
_0-1_
  6
PHANTOM1
 62
  152
 10
28.984500484334603
 20
9.7855532900620688
 11
30.184500484334876
 21
8.5855532900617959
  0
LINE
  8
_0-1_
  6
PHANTOM1
 62
  152
 10
30.184500484334876
 20
8.5855532900617959
 11
30.184500484334876
 21
5.3855532900619778
  0
LINE
  8
_0-1_
  6
PHANTOM1
 62
  152
 10
27.784500484334785
 20
5.3855532900619778
 11
30.184500484334876
 21
5.3855532900619778
  0
LINE
  8
_0-1_
  6
PHANTOM1
 62
  152
 10
27.784500484334785
 20
5.3855532900619778
 11
27.784500484334785
 21
3.5855532900622507
  0
LINE
  8
_0-1_
  6
PHANTOM1
 62
  152
 10
27.784500484334785
 20
3.5855532900622507
 11
36.684500484334876
 21
3.5855532900622507
  0
LINE
  8
_0-1_
  6
PHANTOM1
 62
  152
 10
36.684500484334876
 20
3.5855532900622507
 11
36.684500484334876
 21
12.485553290062342
  0
LINE
  8
_0-1_
  6
PHANTOM1
 62
  152
 10
34.884500484335149
 20
12.485553290062342
 11
36.684500484334876
 21
12.485553290062342
  0
LINE
  8
_0-1_
  6
PHANTOM1
 62
  152
 10
34.884500484335149
 20
12.485553290062342
 11
34.884500484335149
 21
10.085553290062251
  0
LINE
  8
_0-1_
  6
PHANTOM1
 62
  152
 10
34.884500484335149
 20
10.085553290062251
 11
31.684500484335103
 21
10.085553290062251
  0
LINE
  8
_0-1_
  6
PHANTOM1
 62
  152
 10
30.484500484335058
 20
11.285553290062069
 11
31.684500484335103
 21
10.085553290062251
  0
LINE
  8
_0-1_
  6
PHANTOM1
 62
  152
 10
30.484500484335058
 20
11.285553290062069
 11
30.484500484335058
 21
20.885553290062205
  0
LINE
  8
_0-1_
  6
PHANTOM1
 62
  152
 10
30.484500484335058
 20
20.885553290062205
 11
31.684500484335103
 21
22.085553290062251
  0
LINE
  8
_0-1_
  6
PHANTOM1
 62
  152
 10
31.684500484335103
 20
22.085553290062251
 11
34.884500484335149
 21
22.085553290062251
  0
LINE
  8
_0-1_
  6
PHANTOM1
 62
  152
 10
34.884500484335149
 20
22.085553290062251
 11
34.884500484335149
 21
19.68555329006216
  0
LINE
  8
_0-1_
  6
PHANTOM1
 62
  152
 10
36.684500484334876
 20
19.68555329006216
 11
34.884500484335149
 21
19.68555329006216
  0
LINE
  8
_0-1_
  6
PHANTOM1
 62
  152
 10
36.684500484334876
 20
19.68555329006216
 11
36.684500484334876
 21
28.585553290062251
  0
LINE
  8
_0-1_
  6
PHANTOM1
 62
  152
 10
36.684500484334876
 20
28.585553290062251
 11
27.784500484334785
 21
28.585553290062251
  0
LINE
  8
_0-1_
  6
PHANTOM1
 62
  152
 10
27.784500484334785
 20
26.785553290062524
 11
27.784500484334785
 21
28.585553290062251
  0
LINE
  8
_0-1_
  6
PHANTOM1
 62
  152
 10
27.784500484334785
 20
26.785553290062524
 11
30.184500484334876
 21
26.785553290062524
  0
LINE
  8
_0-1_
  6
PHANTOM1
 62
  152
 10
30.184500484334876
 20
26.785553290062524
 11
30.184500484334876
 21
23.585553290062762
  0
LINE
  8
_0-1_
  6
PHANTOM1
 62
  152
 10
30.184500484334876
 20
23.585553290062762
 11
28.984500484335058
 21
22.385553290062433
  0
LINE
  8
_0-1_
  6
PHANTOM1
 62
  152
 10
28.984500484335058
 20
22.385553290062433
 11
19.384500484334694
 21
22.385553290062433
  0
LINE
  8
_0-1_
  6
PHANTOM1
 62
  152
 10
19.384500484334694
 20
22.385553290062433
 11
18.184500484334762
 21
23.585553290062251
  0
LINE
  8
_0-1_
  6
PHANTOM1
 62
  152
 10
18.184500484334762
 20
23.585553290062251
 11
18.184500484334762
 21
26.785553290062524
  0
LINE
  8
_0-1_
  6
PHANTOM1
 62
  152
 10
18.184500484334762
 20
26.785553290062524
 11
20.584500484334512
 21
26.785553290062524
  0
LINE
  8
_0-1_
  6
PHANTOM1
 62
  152
 10
20.584500484334512
 20
26.785553290062524
 11
20.584500484334512
 21
28.585553290062251
  0
LINE
  8
_0-1_
  6
PHANTOM1
 62
  152
 10
20.584500484334512
 20
28.585553290062251
 11
11.684500484334762
 21
28.585553290062251
  0
LINE
  8
_0-1_
  6
PHANTOM1
 62
  152
 10
11.684500484334762
 20
28.585553290062251
 11
11.684500484334762
 21
19.68555329006216
  0
LINE
  8
_0-1_
  6
PHANTOM1
 62
  152
 10
13.48450048433449
 20
19.68555329006216
 11
11.684500484334762
 21
19.68555329006216
  0
LINE
  8
_0-1_
  6
PHANTOM1
 62
  152
 10
13.48450048433449
 20
19.68555329006216
 11
13.48450048433449
 21
22.085553290062251
  0
LINE
  8
_0-1_
  6
PHANTOM1
 62
  152
 10
16.684500484334535
 20
22.085553290062251
 11
13.48450048433449
 21
22.085553290062251
  0
LINE
  8
_0-1_
  6
PHANTOM1
 62
  152
 10
16.684500484334535
 20
22.085553290062251
 11
17.884500484334581
 21
20.885553290062433
  0
LINE
  8
_0-1_
  6
PHANTOM1
 62
  152
 10
17.884500484334581
 20
11.285553290062296
 11
17.884500484334581
 21
20.885553290062433
  0
LINE
  8
_0-1_
  6
PHANTOM1
 62
  152
 10
82.48450048433449
 20
10.085553290062194
 11
85.684500484334535
 21
10.085553290062194
  0
LINE
  8
_0-1_
  6
PHANTOM1
 62
  152
 10
89.584500484334512
 20
5.385553290061921
 11
89.584500484334512
 21
3.5855532900621938
  0
LINE
  8
_0-1_
  6
PHANTOM1
 62
  152
 10
89.584500484334512
 20
5.385553290061921
 11
87.184500484334762
 21
5.385553290061921
  0
LINE
  8
_0-1_
  6
PHANTOM1
 62
  152
 10
89.584500484334512
 20
3.5855532900621938
 11
80.684500484334762
 21
3.5855532900621938
  0
LINE
  8
_0-1_
  6
PHANTOM1
 62
  152
 10
80.684500484334762
 20
3.5855532900621938
 11
80.684500484334762
 21
12.485553290062285
  0
LINE
  8
_0-1_
  6
PHANTOM1
 62
  152
 10
80.684500484334762
 20
12.485553290062285
 11
82.48450048433449
 21
12.485553290062285
  0
LINE
  8
_0-1_
  6
PHANTOM1
 62
  152
 10
82.48450048433449
 20
12.485553290062285
 11
82.48450048433449
 21
10.085553290062194
  0
LINE
  8
_0-1_
  6
PHANTOM1
 62
  152
 10
85.684500484334535
 20
10.085553290062194
 11
86.884500484334581
 21
11.285553290062239
  0
LINE
  8
_0-1_
  6
PHANTOM1
 62
  152
 10
87.184500484334762
 20
5.385553290061921
 11
87.184500484334762
 21
8.5855532900621938
  0
LINE
  8
_0-1_
  6
PHANTOM1
 62
  152
 10
88.384500484334694
 20
9.7855532900620119
 11
87.184500484334762
 21
8.5855532900621938
  0
LINE
  8
_0-1_
  6
PHANTOM1
 62
  152
 10
88.384500484334694
 20
9.7855532900620119
 11
97.984500484334603
 21
9.7855532900620119
  0
LINE
  8
_0-1_
  6
PHANTOM1
 62
  152
 10
97.984500484334603
 20
9.7855532900620119
 11
99.184500484334876
 21
8.5855532900617391
  0
LINE
  8
_0-1_
  6
PHANTOM1
 62
  152
 10
99.184500484334876
 20
8.5855532900617391
 11
99.184500484334876
 21
5.385553290061921
  0
LINE
  8
_0-1_
  6
PHANTOM1
 62
  152
 10
96.784500484334785
 20
5.385553290061921
 11
99.184500484334876
 21
5.385553290061921
  0
LINE
  8
_0-1_
  6
PHANTOM1
 62
  152
 10
96.784500484334785
 20
5.385553290061921
 11
96.784500484334785
 21
3.5855532900621938
  0
LINE
  8
_0-1_
  6
PHANTOM1
 62
  152
 10
96.784500484334785
 20
3.5855532900621938
 11
105.68450048433488
 21
3.5855532900621938
  0
LINE
  8
_0-1_
  6
PHANTOM1
 62
  152
 10
105.68450048433488
 20
3.5855532900621938
 11
105.68450048433488
 21
12.485553290062285
  0
LINE
  8
_0-1_
  6
PHANTOM1
 62
  152
 10
103.88450048433515
 20
12.485553290062285
 11
105.68450048433488
 21
12.485553290062285
  0
LINE
  8
_0-1_
  6
PHANTOM1
 62
  152
 10
103.88450048433515
 20
12.485553290062285
 11
103.88450048433515
 21
10.085553290062194
  0
LINE
  8
_0-1_
  6
PHANTOM1
 62
  152
 10
103.88450048433515
 20
10.085553290062194
 11
100.6845004843351
 21
10.085553290062194
  0
LINE
  8
_0-1_
  6
PHANTOM1
 62
  152
 10
99.484500484335058
 20
11.285553290062012
 11
100.6845004843351
 21
10.085553290062194
  0
LINE
  8
_0-1_
  6
PHANTOM1
 62
  152
 10
99.484500484335058
 20
11.285553290062012
 11
99.484500484335058
 21
20.885553290062148
  0
LINE
  8
_0-1_
  6
PHANTOM1
 62
  152
 10
99.484500484335058
 20
20.885553290062148
 11
100.6845004843351
 21
22.085553290062194
  0
LINE
  8
_0-1_
  6
PHANTOM1
 62
  152
 10
100.6845004843351
 20
22.085553290062194
 11
103.88450048433515
 21
22.085553290062194
  0
LINE
  8
_0-1_
  6
PHANTOM1
 62
  152
 10
103.88450048433515
 20
22.085553290062194
 11
103.88450048433515
 21
19.685553290062103
  0
LINE
  8
_0-1_
  6
PHANTOM1
 62
  152
 10
105.68450048433488
 20
19.685553290062103
 11
103.88450048433515
 21
19.685553290062103
  0
LINE
  8
_0-1_
  6
PHANTOM1
 62
  152
 10
105.68450048433488
 20
19.685553290062103
 11
105.68450048433488
 21
28.585553290062194
  0
LINE
  8
_0-1_
  6
PHANTOM1
 62
  152
 10
105.68450048433488
 20
28.585553290062194
 11
96.784500484334785
 21
28.585553290062194
  0
LINE
  8
_0-1_
  6
PHANTOM1
 62
  152
 10
96.784500484334785
 20
26.785553290062467
 11
96.784500484334785
 21
28.585553290062194
  0
LINE
  8
_0-1_
  6
PHANTOM1
 62
  152
 10
96.784500484334785
 20
26.785553290062467
 11
99.184500484334876
 21
26.785553290062467
  0
LINE
  8
_0-1_
  6
PHANTOM1
 62
  152
 10
99.184500484334876
 20
26.785553290062467
 11
99.184500484334876
 21
23.585553290062705
  0
LINE
  8
_0-1_
  6
PHANTOM1
 62
  152
 10
99.184500484334876
 20
23.585553290062705
 11
97.984500484335058
 21
22.385553290062376
  0
LINE
  8
_0-1_
  6
PHANTOM1
 62
  152
 10
97.984500484335058
 20
22.385553290062376
 11
88.384500484334694
 21
22.385553290062376
  0
LINE
  8
_0-1_
  6
PHANTOM1
 62
  152
 10
88.384500484334694
 20
22.385553290062376
 11
87.184500484334762
 21
23.585553290062194
  0
LINE
  8
_0-1_
  6
PHANTOM1
 62
  152
 10
87.184500484334762
 20
23.585553290062194
 11
87.184500484334762
 21
26.785553290062467
  0
LINE
  8
_0-1_
  6
PHANTOM1
 62
  152
 10
87.184500484334762
 20
26.785553290062467
 11
89.584500484334512
 21
26.785553290062467
  0
LINE
  8
_0-1_
  6
PHANTOM1
 62
  152
 10
89.584500484334512
 20
26.785553290062467
 11
89.584500484334512
 21
28.585553290062194
  0
LINE
  8
_0-1_
  6
PHANTOM1
 62
  152
 10
89.584500484334512
 20
28.585553290062194
 11
80.684500484334762
 21
28.585553290062194
  0
LINE
  8
_0-1_
  6
PHANTOM1
 62
  152
 10
80.684500484334762
 20
28.585553290062194
 11
80.684500484334762
 21
19.685553290062103
  0
LINE
  8
_0-1_
  6
PHANTOM1
 62
  152
 10
82.48450048433449
 20
19.685553290062103
 11
80.684500484334762
 21
19.685553290062103
  0
LINE
  8
_0-1_
  6
PHANTOM1
 62
  152
 10
82.48450048433449
 20
19.685553290062103
 11
82.48450048433449
 21
22.085553290062194
  0
LINE
  8
_0-1_
  6
PHANTOM1
 62
  152
 10
85.684500484334535
 20
22.085553290062194
 11
82.48450048433449
 21
22.085553290062194
  0
LINE
  8
_0-1_
  6
PHANTOM1
 62
  152
 10
85.684500484334535
 20
22.085553290062194
 11
86.884500484334581
 21
20.885553290062376
  0
LINE
  8
_0-1_
  6
PHANTOM1
 62
  152
 10
86.884500484334581
 20
11.285553290062239
 11
86.884500484334581
 21
20.885553290062376
  0
LINE
  8
_0-1_
  6
PHANTOM1
 62
  152
 10
151.48450048433449
 20
10.085553290062251
 11
154.68450048433454
 21
10.085553290062251
  0
LINE
  8
_0-1_
  6
PHANTOM1
 62
  152
 10
158.58450048433451
 20
5.3855532900619778
 11
158.58450048433451
 21
3.5855532900622507
  0
LINE
  8
_0-1_
  6
PHANTOM1
 62
  152
 10
158.58450048433451
 20
5.3855532900619778
 11
156.18450048433476
 21
5.3855532900619778
  0
LINE
  8
_0-1_
  6
PHANTOM1
 62
  152
 10
158.58450048433451
 20
3.5855532900622507
 11
149.68450048433476
 21
3.5855532900622507
  0
LINE
  8
_0-1_
  6
PHANTOM1
 62
  152
 10
149.68450048433476
 20
3.5855532900622507
 11
149.68450048433476
 21
12.485553290062342
  0
LINE
  8
_0-1_
  6
PHANTOM1
 62
  152
 10
149.68450048433476
 20
12.485553290062342
 11
151.48450048433449
 21
12.485553290062342
  0
LINE
  8
_0-1_
  6
PHANTOM1
 62
  152
 10
151.48450048433449
 20
12.485553290062342
 11
151.48450048433449
 21
10.085553290062251
  0
LINE
  8
_0-1_
  6
PHANTOM1
 62
  152
 10
154.68450048433454
 20
10.085553290062251
 11
155.88450048433458
 21
11.285553290062296
  0
LINE
  8
_0-1_
  6
PHANTOM1
 62
  152
 10
156.18450048433476
 20
5.3855532900619778
 11
156.18450048433476
 21
8.5855532900622507
  0
LINE
  8
_0-1_
  6
PHANTOM1
 62
  152
 10
157.38450048433469
 20
9.7855532900620688
 11
156.18450048433476
 21
8.5855532900622507
  0
LINE
  8
_0-1_
  6
PHANTOM1
 62
  152
 10
157.38450048433469
 20
9.7855532900620688
 11
166.9845004843346
 21
9.7855532900620688
  0
LINE
  8
_0-1_
  6
PHANTOM1
 62
  152
 10
166.9845004843346
 20
9.7855532900620688
 11
168.18450048433488
 21
8.5855532900617959
  0
LINE
  8
_0-1_
  6
PHANTOM1
 62
  152
 10
168.18450048433488
 20
8.5855532900617959
 11
168.18450048433488
 21
5.3855532900619778
  0
LINE
  8
_0-1_
  6
PHANTOM1
 62
  152
 10
165.78450048433479
 20
5.3855532900619778
 11
168.18450048433488
 21
5.3855532900619778
  0
LINE
  8
_0-1_
  6
PHANTOM1
 62
  152
 10
165.78450048433479
 20
5.3855532900619778
 11
165.78450048433479
 21
3.5855532900622507
  0
LINE
  8
_0-1_
  6
PHANTOM1
 62
  152
 10
165.78450048433479
 20
3.5855532900622507
 11
174.68450048433488
 21
3.5855532900622507
  0
LINE
  8
_0-1_
  6
PHANTOM1
 62
  152
 10
174.68450048433488
 20
3.5855532900622507
 11
174.68450048433488
 21
12.485553290062342
  0
LINE
  8
_0-1_
  6
PHANTOM1
 62
  152
 10
172.88450048433515
 20
12.485553290062342
 11
174.68450048433488
 21
12.485553290062342
  0
LINE
  8
_0-1_
  6
PHANTOM1
 62
  152
 10
172.88450048433515
 20
12.485553290062342
 11
172.88450048433515
 21
10.085553290062251
  0
LINE
  8
_0-1_
  6
PHANTOM1
 62
  152
 10
172.88450048433515
 20
10.085553290062251
 11
169.6845004843351
 21
10.085553290062251
  0
LINE
  8
_0-1_
  6
PHANTOM1
 62
  152
 10
168.48450048433506
 20
11.285553290062069
 11
169.6845004843351
 21
10.085553290062251
  0
LINE
  8
_0-1_
  6
PHANTOM1
 62
  152
 10
168.48450048433506
 20
11.285553290062069
 11
168.48450048433506
 21
20.885553290062205
  0
LINE
  8
_0-1_
  6
PHANTOM1
 62
  152
 10
168.48450048433506
 20
20.885553290062205
 11
169.6845004843351
 21
22.085553290062251
  0
LINE
  8
_0-1_
  6
PHANTOM1
 62
  152
 10
169.6845004843351
 20
22.085553290062251
 11
172.88450048433515
 21
22.085553290062251
  0
LINE
  8
_0-1_
  6
PHANTOM1
 62
  152
 10
172.88450048433515
 20
22.085553290062251
 11
172.88450048433515
 21
19.68555329006216
  0
LINE
  8
_0-1_
  6
PHANTOM1
 62
  152
 10
174.68450048433488
 20
19.68555329006216
 11
172.88450048433515
 21
19.68555329006216
  0
LINE
  8
_0-1_
  6
PHANTOM1
 62
  152
 10
174.68450048433488
 20
19.68555329006216
 11
174.68450048433488
 21
28.585553290062251
  0
LINE
  8
_0-1_
  6
PHANTOM1
 62
  152
 10
174.68450048433488
 20
28.585553290062251
 11
165.78450048433479
 21
28.585553290062251
  0
LINE
  8
_0-1_
  6
PHANTOM1
 62
  152
 10
165.78450048433479
 20
26.785553290062524
 11
165.78450048433479
 21
28.585553290062251
  0
LINE
  8
_0-1_
  6
PHANTOM1
 62
  152
 10
165.78450048433479
 20
26.785553290062524
 11
168.18450048433488
 21
26.785553290062524
  0
LINE
  8
_0-1_
  6
PHANTOM1
 62
  152
 10
168.18450048433488
 20
26.785553290062524
 11
168.18450048433488
 21
23.585553290062762
  0
LINE
  8
_0-1_
  6
PHANTOM1
 62
  152
 10
168.18450048433488
 20
23.585553290062762
 11
166.98450048433506
 21
22.385553290062433
  0
LINE
  8
_0-1_
  6
PHANTOM1
 62
  152
 10
166.98450048433506
 20
22.385553290062433
 11
157.38450048433469
 21
22.385553290062433
  0
LINE
  8
_0-1_
  6
PHANTOM1
 62
  152
 10
157.38450048433469
 20
22.385553290062433
 11
156.18450048433476
 21
23.585553290062251
  0
LINE
  8
_0-1_
  6
PHANTOM1
 62
  152
 10
156.18450048433476
 20
23.585553290062251
 11
156.18450048433476
 21
26.785553290062524
  0
LINE
  8
_0-1_
  6
PHANTOM1
 62
  152
 10
156.18450048433476
 20
26.785553290062524
 11
158.58450048433451
 21
26.785553290062524
  0
LINE
  8
_0-1_
  6
PHANTOM1
 62
  152
 10
158.58450048433451
 20
26.785553290062524
 11
158.58450048433451
 21
28.585553290062251
  0
LINE
  8
_0-1_
  6
PHANTOM1
 62
  152
 10
158.58450048433451
 20
28.585553290062251
 11
149.68450048433476
 21
28.585553290062251
  0
LINE
  8
_0-1_
  6
PHANTOM1
 62
  152
 10
149.68450048433476
 20
28.585553290062251
 11
149.68450048433476
 21
19.68555329006216
  0
LINE
  8
_0-1_
  6
PHANTOM1
 62
  152
 10
151.48450048433449
 20
19.68555329006216
 11
149.68450048433476
 21
19.68555329006216
  0
LINE
  8
_0-1_
  6
PHANTOM1
 62
  152
 10
151.48450048433449
 20
19.68555329006216
 11
151.48450048433449
 21
22.085553290062251
  0
LINE
  8
_0-1_
  6
PHANTOM1
 62
  152
 10
154.68450048433454
 20
22.085553290062251
 11
151.48450048433449
 21
22.085553290062251
  0
LINE
  8
_0-1_
  6
PHANTOM1
 62
  152
 10
154.68450048433454
 20
22.085553290062251
 11
155.88450048433458
 21
20.885553290062433
  0
LINE
  8
_0-1_
  6
PHANTOM1
 62
  152
 10
155.88450048433458
 20
11.285553290062296
 11
155.88450048433458
 21
20.885553290062433
  0
LINE
  8
_0-1_
  6
PHANTOM1
 62
  152
 10
263.27178664799362
 20
10.085553290062137
 11
266.47178664799367
 21
10.085553290062137
  0
LINE
  8
_0-1_
  6
PHANTOM1
 62
  152
 10
270.37178664799364
 20
5.3855532900618641
 11
270.37178664799364
 21
3.585553290062137
  0
LINE
  8
_0-1_
  6
PHANTOM1
 62
  152
 10
270.37178664799364
 20
5.3855532900618641
 11
267.97178664799389
 21
5.3855532900618641
  0
LINE
  8
_0-1_
  6
PHANTOM1
 62
  152
 10
270.37178664799364
 20
3.585553290062137
 11
261.47178664799389
 21
3.585553290062137
  0
LINE
  8
_0-1_
  6
PHANTOM1
 62
  152
 10
261.47178664799389
 20
3.585553290062137
 11
261.47178664799389
 21
12.485553290062228
  0
LINE
  8
_0-1_
  6
PHANTOM1
 62
  152
 10
261.47178664799389
 20
12.485553290062228
 11
263.27178664799362
 21
12.485553290062228
  0
LINE
  8
_0-1_
  6
PHANTOM1
 62
  152
 10
263.27178664799362
 20
12.485553290062228
 11
263.27178664799362
 21
10.085553290062137
  0
LINE
  8
_0-1_
  6
PHANTOM1
 62
  152
 10
266.47178664799367
 20
10.085553290062137
 11
267.67178664799371
 21
11.285553290062182
  0
LINE
  8
_0-1_
  6
PHANTOM1
 62
  152
 10
267.97178664799389
 20
5.3855532900618641
 11
267.97178664799389
 21
8.585553290062137
  0
LINE
  8
_0-1_
  6
PHANTOM1
 62
  152
 10
269.17178664799383
 20
9.7855532900619551
 11
267.97178664799389
 21
8.585553290062137
  0
LINE
  8
_0-1_
  6
PHANTOM1
 62
  152
 10
269.17178664799383
 20
9.7855532900619551
 11
278.77178664799374
 21
9.7855532900619551
  0
LINE
  8
_0-1_
  6
PHANTOM1
 62
  152
 10
278.77178664799374
 20
9.7855532900619551
 11
279.97178664799401
 21
8.5855532900616822
  0
LINE
  8
_0-1_
  6
PHANTOM1
 62
  152
 10
279.97178664799401
 20
8.5855532900616822
 11
279.97178664799401
 21
5.3855532900618641
  0
LINE
  8
_0-1_
  6
PHANTOM1
 62
  152
 10
277.57178664799392
 20
5.3855532900618641
 11
279.97178664799401
 21
5.3855532900618641
  0
LINE
  8
_0-1_
  6
PHANTOM1
 62
  152
 10
277.57178664799392
 20
5.3855532900618641
 11
277.57178664799392
 21
3.585553290062137
  0
LINE
  8
_0-1_
  6
PHANTOM1
 62
  152
 10
277.57178664799392
 20
3.585553290062137
 11
286.47178664799401
 21
3.585553290062137
  0
LINE
  8
_0-1_
  6
PHANTOM1
 62
  152
 10
286.47178664799401
 20
3.585553290062137
 11
286.47178664799401
 21
12.485553290062228
  0
LINE
  8
_0-1_
  6
PHANTOM1
 62
  152
 10
284.67178664799428
 20
12.485553290062228
 11
286.47178664799401
 21
12.485553290062228
  0
LINE
  8
_0-1_
  6
PHANTOM1
 62
  152
 10
284.67178664799428
 20
12.485553290062228
 11
284.67178664799428
 21
10.085553290062137
  0
LINE
  8
_0-1_
  6
PHANTOM1
 62
  152
 10
284.67178664799428
 20
10.085553290062137
 11
281.47178664799424
 21
10.085553290062137
  0
LINE
  8
_0-1_
  6
PHANTOM1
 62
  152
 10
280.27178664799419
 20
11.285553290061955
 11
281.47178664799424
 21
10.085553290062137
  0
LINE
  8
_0-1_
  6
PHANTOM1
 62
  152
 10
280.27178664799419
 20
11.285553290061955
 11
280.27178664799419
 21
20.885553290062091
  0
LINE
  8
_0-1_
  6
PHANTOM1
 62
  152
 10
280.27178664799419
 20
20.885553290062091
 11
281.47178664799424
 21
22.085553290062137
  0
LINE
  8
_0-1_
  6
PHANTOM1
 62
  152
 10
281.47178664799424
 20
22.085553290062137
 11
284.67178664799428
 21
22.085553290062137
  0
LINE
  8
_0-1_
  6
PHANTOM1
 62
  152
 10
284.67178664799428
 20
22.085553290062137
 11
284.67178664799428
 21
19.685553290062046
  0
LINE
  8
_0-1_
  6
PHANTOM1
 62
  152
 10
286.47178664799401
 20
19.685553290062046
 11
284.67178664799428
 21
19.685553290062046
  0
LINE
  8
_0-1_
  6
PHANTOM1
 62
  152
 10
286.47178664799401
 20
19.685553290062046
 11
286.47178664799401
 21
28.585553290062137
  0
LINE
  8
_0-1_
  6
PHANTOM1
 62
  152
 10
286.47178664799401
 20
28.585553290062137
 11
277.57178664799392
 21
28.585553290062137
  0
LINE
  8
_0-1_
  6
PHANTOM1
 62
  152
 10
277.57178664799392
 20
26.78555329006241
 11
277.57178664799392
 21
28.585553290062137
  0
LINE
  8
_0-1_
  6
PHANTOM1
 62
  152
 10
277.57178664799392
 20
26.78555329006241
 11
279.97178664799401
 21
26.78555329006241
  0
LINE
  8
_0-1_
  6
PHANTOM1
 62
  152
 10
279.97178664799401
 20
26.78555329006241
 11
279.97178664799401
 21
23.585553290062649
  0
LINE
  8
_0-1_
  6
PHANTOM1
 62
  152
 10
279.97178664799401
 20
23.585553290062649
 11
278.77178664799419
 21
22.385553290062319
  0
LINE
  8
_0-1_
  6
PHANTOM1
 62
  152
 10
278.77178664799419
 20
22.385553290062319
 11
269.17178664799383
 21
22.385553290062319
  0
LINE
  8
_0-1_
  6
PHANTOM1
 62
  152
 10
269.17178664799383
 20
22.385553290062319
 11
267.97178664799389
 21
23.585553290062137
  0
LINE
  8
_0-1_
  6
PHANTOM1
 62
  152
 10
267.97178664799389
 20
23.585553290062137
 11
267.97178664799389
 21
26.78555329006241
  0
LINE
  8
_0-1_
  6
PHANTOM1
 62
  152
 10
267.97178664799389
 20
26.78555329006241
 11
270.37178664799364
 21
26.78555329006241
  0
LINE
  8
_0-1_
  6
PHANTOM1
 62
  152
 10
270.37178664799364
 20
26.78555329006241
 11
270.37178664799364
 21
28.585553290062137
  0
LINE
  8
_0-1_
  6
PHANTOM1
 62
  152
 10
270.37178664799364
 20
28.585553290062137
 11
261.47178664799389
 21
28.585553290062137
  0
LINE
  8
_0-1_
  6
PHANTOM1
 62
  152
 10
261.47178664799389
 20
28.585553290062137
 11
261.47178664799389
 21
19.685553290062046
  0
LINE
  8
_0-1_
  6
PHANTOM1
 62
  152
 10
263.27178664799362
 20
19.685553290062046
 11
261.47178664799389
 21
19.685553290062046
  0
LINE
  8
_0-1_
  6
PHANTOM1
 62
  152
 10
263.27178664799362
 20
19.685553290062046
 11
263.27178664799362
 21
22.085553290062137
  0
LINE
  8
_0-1_
  6
PHANTOM1
 62
  152
 10
266.47178664799367
 20
22.085553290062137
 11
263.27178664799362
 21
22.085553290062137
  0
LINE
  8
_0-1_
  6
PHANTOM1
 62
  152
 10
266.47178664799367
 20
22.085553290062137
 11
267.67178664799371
 21
20.885553290062319
  0
LINE
  8
_0-1_
  6
PHANTOM1
 62
  152
 10
267.67178664799371
 20
11.285553290062182
 11
267.67178664799371
 21
20.885553290062319
  0
TEXT
  8
_0-1_
 62
    7
 10
2.2622359397944365
 20
49.752487322535274
 40
5
 41
1
 50
0
  1
RP2M
  0
TEXT
  8
_0-1_
 62
    7
 10
256.18294256347781
 20
38.250810982594544
 40
5
 41
1
 50
0
  1
t5用
  0
TEXT
  8
_0-1_
 62
    7
 10
1.7822466931337431
 20
37.014198471650275
 40
5
 41
1
 50
0
  1
t1.5用
  0
TEXT
  8
_0-1_
 62
    7
 10
76.770517333717294
 20
37.083557124626964
 40
5
 41
1
 50
0
  1
t3用
  0
TEXT
  8
_0-1_
 62
    7
 10
144.70541885210696
 20
37.886903528766993
 40
5
 41
1
 50
0
  1
t4用
  0
TEXT
  8
_0-1_
 62
    7
 10
250.97277594042487
 20
46.257179920902388
 40
5
 41
1
 50
0
  1
RP2S
  0
ENDSEC
  0
EOF
