  0
SECTION
  2
HEADER
  9
$ACADVER
  1
AC1009
  9
$INSBASE
 10
0
 20
0
 30
0
  9
$EXTMIN
 10
0
 20
0
  9
$EXTMAX
 10
1189
 20
841
  9
$LIMMIN
 10
0
 20
0
  9
$LIMMAX
 10
1189
 20
841
  9
$LTSCALE
 40
1
  0
ENDSEC
  0
SECTION
  2
TABLES
  0
TABLE
  2
LTYPE
 70
     9
  0
LTYPE
  2
CONTINUOUS
 70
    64
  3
実線
 72
    65
 73
     0
 40
0.0
  0
LTYPE
  2
DASHED1
 70
    64
  3
--  --  --  --  --  --  --  --  
 72
    65
 73
     2
 40
2.5
 49
1.25
 49
-1.25
  0
LTYPE
  2
DASHED2
 70
    64
  3
----    ----    ----    ----    
 72
    65
 73
     2
 40
5.0
 49
2.5
 49
-2.5
  0
LTYPE
  2
DASHED3
 70
    64
  3
------  ------  ------  ------  
 72
    65
 73
     2
 40
5.0
 49
3.75
 49
-1.25
  0
LTYPE
  2
CENTER1
 70
    64
  3
----- - ----- - ----- - ----- - 
 72
    65
 73
     4
 40
10.0
 49
6.25
 49
-1.25
 49
1.25
 49
-1.25
  0
LTYPE
  2
CENTER2
 70
    64
  3
----------  --  ----------  --  
 72
    65
 73
     4
 40
20.0
 49
12.5
 49
-2.5
 49
2.5
 49
-2.5
  0
LTYPE
  2
PHANTOM1
 70
    64
  3
--- - - --- - - --- - - --- - - 
 72
    65
 73
     6
 40
10.0
 49
3.25
 49
-1.25
 49
1.25
 49
-1.25
 49
1.25
 49
-1.25
  0
LTYPE
  2
PHANTOM2
 70
    64
  3
--------  -  -  --------  -  -  
 72
    65
 73
     6
 40
20.0
 49
10.0
 49
-2.5
 49
1.25
 49
-2.5
 49
1.25
 49
-2.5
  0
LTYPE
  2
DOT
 70
    64
  3
-   -   -   -   -   -   -   -   
 72
    65
 73
     2
 40
2.5
 49
0.625
 49
-1.875
  0
LTYPE
  2
DUMMY
 70
    64
  3
ダミー
 72
    65
 73
     0
 40
0.0
  0
LTYPE
  2
RAND1
 70
    64
  3
ランダム線1
 72
    65
 73
     4
 40
10.0
 49
1.0
 49
-2.0
 49
3.0
 49
-4.0
  0
LTYPE
  2
RAND2
 70
    64
  3
ランダム線2
 72
    65
 73
     4
 40
14.0
 49
2.0
 49
-3.0
 49
4.0
 49
-5.0
  0
LTYPE
  2
RAND3
 70
    64
  3
ランダム線3
 72
    65
 73
     4
 40
18.0
 49
3.0
 49
-4.0
 49
5.0
 49
-6.0
  0
LTYPE
  2
RAND4
 70
    64
  3
ランダム線4
 72
    65
 73
     4
 40
22.0
 49
4.0
 49
-5.0
 49
6.0
 49
-7.0
  0
LTYPE
  2
RAND5
 70
    64
  3
ランダム線5
 72
    65
 73
     4
 40
26.0
 49
5.0
 49
-6.0
 49
7.0
 49
-8.0
  0
LTYPE
  2
LONG1
 70
    64
  3
----------  --  ----------  --  
 72
    65
 73
     4
 40
40.0
 49
32.5
 49
-2.5
 49
2.5
 49
-2.5
  0
LTYPE
  2
LONG2
 70
    64
  3
--------  -  -  --------  -  -  
 72
    65
 73
     6
 40
40.0
 49
30.0
 49
-2.5
 49
1.25
 49
-2.5
 49
1.25
 49
-2.5
  0
LTYPE
  2
LONG3
 70
    64
  3
+++++++++++++++..+++++++++++++++
 72
    65
 73
     2
 40
40.0
 49
37.5
 49
-2.5
  0
LTYPE
  2
LONG4
 70
    64
  3
+++++++++++++++..+++++++++++++++
 72
    65
 73
     2
 40
80.0
 49
75.0
 49
-5.0
  0
LTYPE
  2
LONG5
 70
    64
  3
----------  --  ----------  --  
 72
    65
 73
     4
 40
60.0
 49
37.5
 49
-7.5
 49
7.5
 49
-7.5
  0
LTYPE
  2
dashed
 70
   64
  3
-------   -------------   ------
 72
   65
 73
    2
 40
7.5
 49
6
 49
-1.5
  0
LTYPE
  2
dashed_spaced
 70
   64
  3
----        --------        ----
 72
   65
 73
    2
 40
12
 49
6
 49
-6
  0
LTYPE
  2
long_dashed_dotted
 70
   64
  3
------------- --- --------------
 72
   65
 73
    4
 40
15.25
 49
12
 49
-1.5
 49
0.25
 49
-1.5
  0
LTYPE
  2
long_dashed_double-dotted
 70
   64
  3
----------- --- --- ------------
 72
   65
 73
    6
 40
17
 49
12
 49
-1.5
 49
0.25
 49
-1.5
 49
0.25
 49
-1.5
  0
LTYPE
  2
long_dashed_triplicate-dotted
 70
   64
  3
--------- --- --- --- ----------
 72
   65
 73
    8
 40
18.75
 49
12
 49
-1.5
 49
0.25
 49
-1.5
 49
0.25
 49
-1.5
 49
0.25
 49
-1.5
  0
LTYPE
  2
dotted
 70
   64
  3
   -       -       -       -    
 72
   65
 73
    2
 40
1.75
 49
0.25
 49
-1.5
  0
LTYPE
  2
chain
 70
   64
  3
-------------- -- --------------
 72
   65
 73
    4
 40
18.5
 49
12
 49
-1.5
 49
3.5
 49
-1.5
  0
LTYPE
  2
chain_double_dash
 70
   64
  3
------------ -- -- -------------
 72
   65
 73
    6
 40
23.5
 49
12
 49
-1.5
 49
3.5
 49
-1.5
 49
3.5
 49
-1.5
  0
LTYPE
  2
dashed_dotted
 70
   64
  3
-----------     -     ----------
 72
   65
 73
    4
 40
9.25
 49
6
 49
-1.5
 49
0.25
 49
-1.5
  0
LTYPE
  2
double-dashed_dotted
 70
   64
  3
------   -----------   -   -----
 72
   65
 73
    6
 40
16.75
 49
6
 49
-1.5
 49
6
 49
-1.5
 49
0.25
 49
-1.5
  0
LTYPE
  2
dashed_double-dotted
 70
   64
  3
---------    -    -    ---------
 72
   65
 73
    6
 40
11
 49
6
 49
-1.5
 49
0.25
 49
-1.5
 49
0.25
 49
-1.5
  0
LTYPE
  2
double-dashed_double-dotted
 70
   64
  3
-----   ---------   -   -   ----
 72
   65
 73
    8
 40
18.5
 49
6
 49
-1.5
 49
6
 49
-1.5
 49
0.25
 49
-1.5
 49
0.25
 49
-1.5
  0
LTYPE
  2
dashed_triplicate-dotted
 70
   64
  3
-------    -    -    -    ------
 72
   65
 73
    8
 40
12.75
 49
6
 49
-1.5
 49
0.25
 49
-1.5
 49
0.25
 49
-1.5
 49
0.25
 49
-1.5
  0
LTYPE
  2
double-dashed_triplicate-dotted
 70
   64
  3
-----  ---------  -  -  -  -----
 72
   65
 73
   10
 40
20.25
 49
6
 49
-1.5
 49
6
 49
-1.5
 49
0.25
 49
-1.5
 49
0.25
 49
-1.5
 49
0.25
 49
-1.5
  0
LTYPE
  2
undefined
 70
   64
  3
--------------------------------
 72
   65
 73
    0
 40
0
  0
ENDTAB
  0
TABLE
  2
STYLE
  5
3
100
AcDbSymbolTable
 70
     1
  0
STYLE
  5
10
100
AcDbSymbolTableRecord
100
AcDbTextStyleTableRecord
  2
STANDARD
 70
     0
 40
0.0
 41
1.0
 50
0.0
 71
     0
 42
0.2
  3
txt
  4
bigfont.shx
  0
STYLE
  5
26
100
AcDbSymbolTableRecord
100
AcDbTextStyleTableRecord
  2
TATEGAKI
 70
    68
 40
0.0
 41
1.0
 50
0.0
 71
     0
 42
1.0
  3
txt
  4
bigfont.shx
  0
ENDTAB
  0
TABLE
  2
LAYER
 70
    5
  0
LAYER
  2
_0-0_
 70
   64
 62
    7
  6
CONTINUOUS
  0
LAYER
  2
_0-1_
 70
   64
 62
    7
  6
CONTINUOUS
  0
LAYER
  2
_0-7_
 70
   64
 62
    7
  6
CONTINUOUS
  0
LAYER
  2
_0-8_
 70
   64
 62
    7
  6
CONTINUOUS
  0
LAYER
  2
ADD_LINE
 70
   64
 62
    7
  6
CONTINUOUS
  0
ENDTAB
  0
ENDSEC
  0
SECTION
  2
BLOCKS
  0
ENDSEC
  0
SECTION
  2
ENTITIES
  0
TEXT
  8
_0-7_
 62
    7
 10
165.99607326348649
 20
59.882515581454811
 40
4.2999999999999998
 41
0.744186046511628
 50
0
  1
t5用
  0
TEXT
  8
_0-7_
 62
    7
 10
110.66336489297578
 20
59.882515581454811
 40
4.2999999999999998
 41
0.744186046511628
 50
0
  1
t3用
  0
TEXT
  8
_0-7_
 62
    7
 10
53.183642114739428
 20
59.882515581454811
 40
4.2999999999999998
 41
0.744186046511628
 50
0
  1
t1.5用
  0
LINE
  8
_0-0_
  6
CONTINUOUS
 62
    7
 10
56.583642114739177
 20
39.504188023197685
 11
56.78364211473945
 21
39.304188023197753
  0
LINE
  8
_0-0_
  6
CONTINUOUS
 62
    7
 10
56.78364211473945
 20
39.304188023197753
 11
56.983642114739268
 21
39.504188023197685
  0
LINE
  8
_0-8_
  6
CONTINUOUS
 62
    7
 10
58.183642114619374
 20
44.404188023197776
 11
59.283642114679424
 21
43.904188023197776
  0
LINE
  8
_0-8_
  6
CONTINUOUS
 62
    7
 10
58.183642114619374
 20
47.404188023197776
 11
58.268257499239439
 21
46.362766666960454
  0
LINE
  8
_0-8_
  6
CONTINUOUS
 62
    7
 10
58.183642114619374
 20
40.404188023197776
 11
58.268257499239439
 21
41.98752135653109
  0
LINE
  8
_0-8_
  6
CONTINUOUS
 62
    7
 10
58.183642114619374
 20
44.904188023197776
 11
58.183642114619374
 21
44.404188023197776
  0
LINE
  8
_0-8_
  6
CONTINUOUS
 62
    7
 10
58.183642114619374
 20
47.404188023197776
 11
58.183642114619374
 21
40.404188023197776
  0
LINE
  8
_0-8_
  6
CONTINUOUS
 62
    7
 10
60.383642114739359
 20
43.904188023197776
 11
60.806719037839343
 21
43.904188023197776
  0
LINE
  8
_0-8_
  6
CONTINUOUS
 62
    7
 10
58.183642114619374
 20
44.904188023197776
 11
59.283642114679424
 21
44.404188023197776
  0
LINE
  8
_0-8_
  6
CONTINUOUS
 62
    7
 10
58.183642114619353
 20
40.40418802319774
 11
58.183642114619353
 21
40.40418802319774
  0
LINE
  8
_0-8_
  6
CONTINUOUS
 62
    7
 10
58.183642114619353
 20
40.40418802319774
 11
58.945862630461136
 21
40.935592029535769
  0
LINE
  8
_0-8_
  6
CONTINUOUS
 62
    7
 10
58.945862630461136
 20
40.935592029535769
 11
59.618422480088945
 21
41.615346146426269
  0
LINE
  8
_0-8_
  6
CONTINUOUS
 62
    7
 10
59.618422480088945
 20
41.615346146426269
 11
60.180886272803534
 21
42.422796388999707
  0
LINE
  8
_0-8_
  6
CONTINUOUS
 62
    7
 10
60.180886272803534
 20
42.422796388999707
 11
60.616163830883693
 21
43.333408790225029
  0
LINE
  8
_0-8_
  6
CONTINUOUS
 62
    7
 10
60.616163830883693
 20
43.333408790225029
 11
60.806719037839358
 21
43.90418802319774
  0
LINE
  8
_0-8_
  6
CONTINUOUS
 62
    7
 10
61.284862923311721
 20
47.16516112293607
 11
58.183642114619374
 21
47.404188023197776
  0
LINE
  8
_0-8_
  6
CONTINUOUS
 62
    7
 10
62.075949807139438
 20
46.167281016970264
 11
62.075949807139438
 21
46.167281016970264
  0
LINE
  8
_0-8_
  6
CONTINUOUS
 62
    7
 10
62.075949807139438
 20
46.167281016970264
 11
62.063094828918302
 21
46.340929194637198
  0
LINE
  8
_0-8_
  6
CONTINUOUS
 62
    7
 10
62.063094828918302
 20
46.340929194637198
 11
62.024920486263198
 21
46.509301160295934
  0
LINE
  8
_0-8_
  6
CONTINUOUS
 62
    7
 10
62.024920486263198
 20
46.509301160295934
 11
61.96258668725855
 21
46.667281016970264
  0
LINE
  8
_0-8_
  6
CONTINUOUS
 62
    7
 10
61.96258668725855
 20
46.667281016970264
 11
61.877987412844703
 21
46.8100686266568
  0
LINE
  8
_0-8_
  6
CONTINUOUS
 62
    7
 10
61.877987412844703
 20
46.8100686266568
 11
61.773693169165412
 21
46.933325460089243
  0
LINE
  8
_0-8_
  6
CONTINUOUS
 62
    7
 10
61.773693169165412
 20
46.933325460089243
 11
61.652872884039439
 21
47.033306420754705
  0
LINE
  8
_0-8_
  6
CONTINUOUS
 62
    7
 10
61.652872884039439
 20
47.033306420754705
 11
61.519197620692331
 21
47.10697363775617
  0
LINE
  8
_0-8_
  6
CONTINUOUS
 62
    7
 10
61.519197620692331
 20
47.10697363775617
 11
61.376729034357936
 21
47.15208876998247
  0
LINE
  8
_0-8_
  6
CONTINUOUS
 62
    7
 10
61.376729034357936
 20
47.15208876998247
 11
61.284862923311799
 21
47.165161122936084
  0
LINE
  8
_0-8_
  6
CONTINUOUS
 62
    7
 10
58.74123979714193
 20
46.150734531155877
 11
58.183642114619374
 21
46.404188023197776
  0
LINE
  8
_0-8_
  6
CONTINUOUS
 62
    7
 10
59.283642114679424
 20
45.217388924952843
 11
59.283642114679424
 21
44.404188023197776
  0
LINE
  8
_0-8_
  6
CONTINUOUS
 62
    7
 10
59.283642114679338
 20
45.217388924952843
 11
59.283642114679338
 21
45.217388924952843
  0
LINE
  8
_0-8_
  6
CONTINUOUS
 62
    7
 10
59.283642114679338
 20
45.217388924952843
 11
59.270787136458203
 21
45.391037102619777
  0
LINE
  8
_0-8_
  6
CONTINUOUS
 62
    7
 10
59.270787136458203
 20
45.391037102619777
 11
59.232612793803099
 21
45.559409068278512
  0
LINE
  8
_0-8_
  6
CONTINUOUS
 62
    7
 10
59.232612793803099
 20
45.559409068278512
 11
59.170278994798451
 21
45.717388924952843
  0
LINE
  8
_0-8_
  6
CONTINUOUS
 62
    7
 10
59.170278994798451
 20
45.717388924952843
 11
59.085679720384604
 21
45.860176534639379
  0
LINE
  8
_0-8_
  6
CONTINUOUS
 62
    7
 10
59.085679720384604
 20
45.860176534639379
 11
58.981385476705313
 21
45.983433368071822
  0
LINE
  8
_0-8_
  6
CONTINUOUS
 62
    7
 10
58.981385476705313
 20
45.983433368071822
 11
58.86056519157934
 21
46.083414328737284
  0
LINE
  8
_0-8_
  6
CONTINUOUS
 62
    7
 10
58.86056519157934
 20
46.083414328737284
 11
58.74123979714188
 21
46.150734531155905
  0
LINE
  8
_0-8_
  6
CONTINUOUS
 62
    7
 10
58.183642114619367
 20
41.904188023197754
 11
58.183642114619367
 21
41.904188023197754
  0
LINE
  8
_0-8_
  6
CONTINUOUS
 62
    7
 10
58.183642114619367
 20
41.904188023197754
 11
58.603516539486954
 21
42.394006713897333
  0
LINE
  8
_0-8_
  6
CONTINUOUS
 62
    7
 10
58.603516539486954
 20
42.394006713897333
 11
58.945041562745793
 21
42.962550828377843
  0
LINE
  8
_0-8_
  6
CONTINUOUS
 62
    7
 10
58.945041562745793
 20
42.962550828377843
 11
59.197840119384146
 21
43.592545441417997
  0
LINE
  8
_0-8_
  6
CONTINUOUS
 62
    7
 10
59.197840119384146
 20
43.592545441417997
 11
59.283642114679367
 21
43.904188023197754
  0
LINE
  8
_0-8_
  6
CONTINUOUS
 62
    7
 10
56.183642114619374
 20
47.404188023197776
 11
56.183642114619374
 21
40.404188023197776
  0
ARC
  8
_0-8_
  6
CONTINUOUS
 62
    7
 10
54.933642114619374
 20
45.529188023197776
 40
0.25
 50
90
 51
270
  0
ARC
  8
_0-8_
  6
CONTINUOUS
 62
    7
 10
54.933642114619374
 20
43.904188023197776
 40
0.25
 50
90
 51
270
  0
ARC
  8
_0-8_
  6
CONTINUOUS
 62
    7
 10
54.933642114619374
 20
42.279188023197776
 40
0.25
 50
90
 51
270
  0
LINE
  8
_0-8_
  6
CONTINUOUS
 62
    7
 10
54.933642114619374
 20
40.904188023197776
 11
54.933642114619374
 21
42.029188023197776
  0
LINE
  8
_0-8_
  6
CONTINUOUS
 62
    7
 10
54.933642114619374
 20
42.529188023197776
 11
54.933642114619374
 21
43.654188023197776
  0
LINE
  8
_0-8_
  6
CONTINUOUS
 62
    7
 10
54.933642114619374
 20
44.154188023197776
 11
54.933642114619374
 21
45.279188023197776
  0
LINE
  8
_0-8_
  6
CONTINUOUS
 62
    7
 10
54.933642114619374
 20
45.779188023197776
 11
54.933642114619374
 21
46.904188023197776
  0
LINE
  8
_0-8_
  6
CONTINUOUS
 62
    7
 10
58.183642114619374
 20
47.404188023197776
 11
54.933642114619374
 21
47.404188023197776
  0
ARC
  8
_0-8_
  6
CONTINUOUS
 62
    7
 10
54.933642114619374
 20
47.154188023197776
 40
0.25
 50
90
 51
270
  0
LINE
  8
_0-8_
  6
CONTINUOUS
 62
    7
 10
54.933642114619374
 20
40.404188023197776
 11
58.183642114619374
 21
40.404188023197776
  0
ARC
  8
_0-8_
  6
CONTINUOUS
 62
    7
 10
54.933642114619374
 20
40.654188023197776
 40
0.25
 50
90
 51
270
  0
ARC
  8
_0-8_
  6
CONTINUOUS
 62
    7
 10
56.433642114619374
 20
45.529188023197776
 40
0.25
 50
90
 51
270
  0
ARC
  8
_0-8_
  6
CONTINUOUS
 62
    7
 10
56.433642114619374
 20
43.904188023197776
 40
0.25
 50
90
 51
270
  0
ARC
  8
_0-8_
  6
CONTINUOUS
 62
    7
 10
56.433642114619374
 20
42.279188023197776
 40
0.25
 50
90
 51
270
  0
LINE
  8
_0-8_
  6
CONTINUOUS
 62
    7
 10
56.433642114619374
 20
40.904188023197776
 11
56.433642114619374
 21
42.029188023197776
  0
LINE
  8
_0-8_
  6
CONTINUOUS
 62
    7
 10
56.433642114619374
 20
42.529188023197776
 11
56.433642114619374
 21
43.654188023197776
  0
LINE
  8
_0-8_
  6
CONTINUOUS
 62
    7
 10
56.433642114619374
 20
44.154188023197776
 11
56.433642114619374
 21
45.279188023197776
  0
LINE
  8
_0-8_
  6
CONTINUOUS
 62
    7
 10
56.433642114619374
 20
45.779188023197776
 11
56.433642114619374
 21
46.904188023197776
  0
ARC
  8
_0-8_
  6
CONTINUOUS
 62
    7
 10
56.433642114619374
 20
47.154188023197776
 40
0.25
 50
90
 51
270
  0
ARC
  8
_0-8_
  6
CONTINUOUS
 62
    7
 10
56.433642114619374
 20
40.654188023197776
 40
0.25
 50
90
 51
270
  0
LINE
  8
_0-8_
  6
CONTINUOUS
 62
    7
 10
62.075949807139409
 20
46.167281016970264
 11
62.075949807139409
 21
45.704188023197503
  0
LINE
  8
_0-8_
  6
CONTINUOUS
 62
    7
 10
60.383642114739359
 20
45.704188023197503
 11
60.383642114739359
 21
43.904188023197776
  0
LINE
  8
_0-1_
  6
CONTINUOUS
 62
    5
 10
53.183642114739428
 20
40.204188023197503
 11
54.683642114739428
 21
40.204188023197503
  0
LINE
  8
_0-1_
  6
CONTINUOUS
 62
    5
 10
53.183642114739428
 20
52.359110513811402
 11
53.183642114739428
 21
40.204188023197503
  0
LINE
  8
_0-1_
  6
CONTINUOUS
 62
    5
 10
54.683642114739428
 20
52.359110513811402
 11
54.683642114739428
 21
40.204188023197503
  0
LINE
  8
_0-1_
  6
CONTINUOUS
 62
    5
 10
113.61336489297571
 20
47.154188023197776
 11
113.30348626511898
 21
47.154188023197776
  0
LINE
  8
_0-8_
  6
CONTINUOUS
 62
    7
 10
115.66336489285572
 20
44.404188023197605
 11
116.76336489291577
 21
43.904188023197605
  0
LINE
  8
_0-8_
  6
CONTINUOUS
 62
    7
 10
115.66336489285572
 20
47.404188023197605
 11
115.74798027747579
 21
46.362766666960283
  0
LINE
  8
_0-8_
  6
CONTINUOUS
 62
    7
 10
115.66336489285572
 20
40.404188023197605
 11
115.74798027747579
 21
41.98752135653092
  0
LINE
  8
_0-8_
  6
CONTINUOUS
 62
    7
 10
115.66336489285572
 20
44.904188023197605
 11
115.66336489285572
 21
44.404188023197605
  0
LINE
  8
_0-8_
  6
CONTINUOUS
 62
    7
 10
115.66336489285572
 20
47.404188023197605
 11
115.66336489285572
 21
40.404188023197605
  0
LINE
  8
_0-8_
  6
CONTINUOUS
 62
    7
 10
117.86336489297571
 20
43.904188023197605
 11
118.28644181607569
 21
43.904188023197605
  0
LINE
  8
_0-8_
  6
CONTINUOUS
 62
    7
 10
115.66336489285572
 20
44.904188023197605
 11
116.76336489291577
 21
44.404188023197605
  0
LINE
  8
_0-8_
  6
CONTINUOUS
 62
    7
 10
115.6633648928557
 20
40.40418802319757
 11
115.6633648928557
 21
40.40418802319757
  0
LINE
  8
_0-8_
  6
CONTINUOUS
 62
    7
 10
115.6633648928557
 20
40.40418802319757
 11
116.42558540869749
 21
40.935592029535599
  0
LINE
  8
_0-8_
  6
CONTINUOUS
 62
    7
 10
116.42558540869749
 20
40.935592029535599
 11
117.09814525832529
 21
41.615346146426099
  0
LINE
  8
_0-8_
  6
CONTINUOUS
 62
    7
 10
117.09814525832529
 20
41.615346146426099
 11
117.66060905103988
 21
42.422796388999537
  0
LINE
  8
_0-8_
  6
CONTINUOUS
 62
    7
 10
117.66060905103988
 20
42.422796388999537
 11
118.09588660912004
 21
43.333408790224858
  0
LINE
  8
_0-8_
  6
CONTINUOUS
 62
    7
 10
118.09588660912004
 20
43.333408790224858
 11
118.28644181607571
 21
43.90418802319757
  0
LINE
  8
_0-8_
  6
CONTINUOUS
 62
    7
 10
118.76458570154807
 20
47.165161122935899
 11
115.66336489285572
 21
47.404188023197605
  0
LINE
  8
_0-8_
  6
CONTINUOUS
 62
    7
 10
119.55567258537579
 20
46.167281016970094
 11
119.55567258537579
 21
46.167281016970094
  0
LINE
  8
_0-8_
  6
CONTINUOUS
 62
    7
 10
119.55567258537579
 20
46.167281016970094
 11
119.54281760715465
 21
46.340929194637027
  0
LINE
  8
_0-8_
  6
CONTINUOUS
 62
    7
 10
119.54281760715465
 20
46.340929194637027
 11
119.50464326449955
 21
46.509301160295763
  0
LINE
  8
_0-8_
  6
CONTINUOUS
 62
    7
 10
119.50464326449955
 20
46.509301160295763
 11
119.4423094654949
 21
46.667281016970094
  0
LINE
  8
_0-8_
  6
CONTINUOUS
 62
    7
 10
119.4423094654949
 20
46.667281016970094
 11
119.35771019108105
 21
46.81006862665663
  0
LINE
  8
_0-8_
  6
CONTINUOUS
 62
    7
 10
119.35771019108105
 20
46.81006862665663
 11
119.25341594740176
 21
46.933325460089073
  0
LINE
  8
_0-8_
  6
CONTINUOUS
 62
    7
 10
119.25341594740176
 20
46.933325460089073
 11
119.13259566227579
 21
47.033306420754535
  0
LINE
  8
_0-8_
  6
CONTINUOUS
 62
    7
 10
119.13259566227579
 20
47.033306420754535
 11
118.99892039892868
 21
47.106973637755999
  0
LINE
  8
_0-8_
  6
CONTINUOUS
 62
    7
 10
118.99892039892868
 20
47.106973637755999
 11
118.85645181259429
 21
47.152088769982299
  0
LINE
  8
_0-8_
  6
CONTINUOUS
 62
    7
 10
118.85645181259429
 20
47.152088769982299
 11
118.76458570154814
 21
47.165161122935913
  0
LINE
  8
_0-8_
  6
CONTINUOUS
 62
    7
 10
116.22096257537828
 20
46.150734531155706
 11
115.66336489285572
 21
46.404188023197605
  0
LINE
  8
_0-8_
  6
CONTINUOUS
 62
    7
 10
116.76336489291577
 20
45.217388924952672
 11
116.76336489291577
 21
44.404188023197605
  0
LINE
  8
_0-8_
  6
CONTINUOUS
 62
    7
 10
116.76336489291569
 20
45.217388924952672
 11
116.76336489291569
 21
45.217388924952672
  0
LINE
  8
_0-8_
  6
CONTINUOUS
 62
    7
 10
116.76336489291569
 20
45.217388924952672
 11
116.75050991469455
 21
45.391037102619606
  0
LINE
  8
_0-8_
  6
CONTINUOUS
 62
    7
 10
116.75050991469455
 20
45.391037102619606
 11
116.71233557203945
 21
45.559409068278342
  0
LINE
  8
_0-8_
  6
CONTINUOUS
 62
    7
 10
116.71233557203945
 20
45.559409068278342
 11
116.6500017730348
 21
45.717388924952672
  0
LINE
  8
_0-8_
  6
CONTINUOUS
 62
    7
 10
116.6500017730348
 20
45.717388924952672
 11
116.56540249862095
 21
45.860176534639209
  0
LINE
  8
_0-8_
  6
CONTINUOUS
 62
    7
 10
116.56540249862095
 20
45.860176534639209
 11
116.46110825494166
 21
45.983433368071651
  0
LINE
  8
_0-8_
  6
CONTINUOUS
 62
    7
 10
116.46110825494166
 20
45.983433368071651
 11
116.34028796981569
 21
46.083414328737113
  0
LINE
  8
_0-8_
  6
CONTINUOUS
 62
    7
 10
116.34028796981569
 20
46.083414328737113
 11
116.22096257537822
 21
46.150734531155734
  0
LINE
  8
_0-8_
  6
CONTINUOUS
 62
    7
 10
115.66336489285571
 20
41.904188023197584
 11
115.66336489285571
 21
41.904188023197584
  0
LINE
  8
_0-8_
  6
CONTINUOUS
 62
    7
 10
115.66336489285571
 20
41.904188023197584
 11
116.08323931772331
 21
42.394006713897163
  0
LINE
  8
_0-8_
  6
CONTINUOUS
 62
    7
 10
116.08323931772331
 20
42.394006713897163
 11
116.42476434098214
 21
42.962550828377672
  0
LINE
  8
_0-8_
  6
CONTINUOUS
 62
    7
 10
116.42476434098214
 20
42.962550828377672
 11
116.67756289762049
 21
43.592545441417826
  0
LINE
  8
_0-8_
  6
CONTINUOUS
 62
    7
 10
116.67756289762049
 20
43.592545441417826
 11
116.76336489291572
 21
43.904188023197584
  0
LINE
  8
_0-8_
  6
CONTINUOUS
 62
    7
 10
113.91336489285572
 20
40.404188023197776
 11
115.66336489285572
 21
40.404188023197776
  0
ARC
  8
_0-8_
  6
CONTINUOUS
 62
    7
 10
113.91336489285572
 20
40.654188023197776
 40
0.25
 50
90
 51
270
  0
LINE
  8
_0-8_
  6
CONTINUOUS
 62
    7
 10
115.66336489285572
 20
47.404188023197776
 11
113.91336489285572
 21
47.404188023197776
  0
ARC
  8
_0-8_
  6
CONTINUOUS
 62
    7
 10
113.91336489285572
 20
47.154188023197776
 40
0.25
 50
90
 51
270
  0
LINE
  8
_0-8_
  6
CONTINUOUS
 62
    7
 10
113.91336489285572
 20
45.779188023197776
 11
113.91336489285572
 21
46.904188023197776
  0
LINE
  8
_0-8_
  6
CONTINUOUS
 62
    7
 10
113.91336489285572
 20
44.154188023197776
 11
113.91336489285572
 21
45.279188023197776
  0
LINE
  8
_0-8_
  6
CONTINUOUS
 62
    7
 10
113.91336489285572
 20
42.529188023197776
 11
113.91336489285572
 21
43.654188023197776
  0
LINE
  8
_0-8_
  6
CONTINUOUS
 62
    7
 10
113.91336489285572
 20
40.904188023197776
 11
113.91336489285572
 21
42.029188023197776
  0
ARC
  8
_0-8_
  6
CONTINUOUS
 62
    7
 10
113.91336489285572
 20
42.279188023197776
 40
0.25
 50
90
 51
270
  0
ARC
  8
_0-8_
  6
CONTINUOUS
 62
    7
 10
113.91336489285572
 20
43.904188023197776
 40
0.25
 50
90
 51
270
  0
ARC
  8
_0-8_
  6
CONTINUOUS
 62
    7
 10
113.91336489285572
 20
45.529188023197776
 40
0.25
 50
90
 51
270
  0
LINE
  8
_0-8_
  6
CONTINUOUS
 62
    7
 10
117.86336489297571
 20
45.704188023197503
 11
117.86336489297571
 21
43.904188023197605
  0
LINE
  8
_0-8_
  6
CONTINUOUS
 62
    7
 10
119.55567258537576
 20
46.167281016970094
 11
119.55567258537576
 21
45.704188023197503
  0
LINE
  8
_0-1_
  6
CONTINUOUS
 62
    5
 10
110.66336489297578
 20
40.204188023197503
 11
113.66336489297578
 21
40.204188023197503
  0
LINE
  8
_0-1_
  6
CONTINUOUS
 62
    5
 10
113.66336489297578
 20
52.359110513811459
 11
113.66336489297578
 21
40.204188023197503
  0
LINE
  8
_0-1_
  6
CONTINUOUS
 62
    5
 10
110.66336489297578
 20
52.359110513811459
 11
110.66336489297578
 21
40.204188023197503
  0
LINE
  8
_0-8_
  6
CONTINUOUS
 62
    7
 10
171.553670945889
 20
46.150734531155933
 11
170.99607326336644
 21
46.404188023197776
  0
LINE
  8
_0-8_
  6
CONTINUOUS
 62
    7
 10
170.99607326336644
 20
44.404188023197776
 11
172.09607326342649
 21
43.904188023197776
  0
LINE
  8
_0-8_
  6
CONTINUOUS
 62
    7
 10
170.99607326336644
 20
44.904188023197776
 11
170.99607326336644
 21
44.404188023197776
  0
LINE
  8
_0-8_
  6
CONTINUOUS
 62
    7
 10
173.19607326348643
 20
43.904188023197776
 11
173.61915018658641
 21
43.904188023197776
  0
LINE
  8
_0-8_
  6
CONTINUOUS
 62
    7
 10
170.99607326336644
 20
44.904188023197776
 11
172.09607326342649
 21
44.404188023197776
  0
LINE
  8
_0-8_
  6
CONTINUOUS
 62
    7
 10
170.99607326336641
 20
40.404188023197797
 11
170.99607326336641
 21
40.404188023197797
  0
LINE
  8
_0-8_
  6
CONTINUOUS
 62
    7
 10
170.99607326336641
 20
40.404188023197797
 11
171.7582937792082
 21
40.935592029535826
  0
LINE
  8
_0-8_
  6
CONTINUOUS
 62
    7
 10
171.7582937792082
 20
40.935592029535826
 11
172.43085362883602
 21
41.615346146426326
  0
LINE
  8
_0-8_
  6
CONTINUOUS
 62
    7
 10
172.43085362883602
 20
41.615346146426326
 11
172.99331742155061
 21
42.422796388999764
  0
LINE
  8
_0-8_
  6
CONTINUOUS
 62
    7
 10
172.99331742155061
 20
42.422796388999764
 11
173.42859497963076
 21
43.333408790225086
  0
LINE
  8
_0-8_
  6
CONTINUOUS
 62
    7
 10
173.42859497963076
 20
43.333408790225086
 11
173.61915018658641
 21
43.904188023197797
  0
LINE
  8
_0-8_
  6
CONTINUOUS
 62
    7
 10
174.09729407205879
 20
47.165161122936127
 11
170.99607326336644
 21
47.404188023197776
  0
LINE
  8
_0-8_
  6
CONTINUOUS
 62
    7
 10
174.8883809558865
 20
46.167281016970264
 11
174.8883809558865
 21
46.167281016970264
  0
LINE
  8
_0-8_
  6
CONTINUOUS
 62
    7
 10
174.8883809558865
 20
46.167281016970264
 11
174.87552597766538
 21
46.340929194637198
  0
LINE
  8
_0-8_
  6
CONTINUOUS
 62
    7
 10
174.87552597766538
 20
46.340929194637198
 11
174.83735163501026
 21
46.509301160295934
  0
LINE
  8
_0-8_
  6
CONTINUOUS
 62
    7
 10
174.83735163501026
 20
46.509301160295934
 11
174.77501783600562
 21
46.667281016970264
  0
LINE
  8
_0-8_
  6
CONTINUOUS
 62
    7
 10
174.77501783600562
 20
46.667281016970264
 11
174.69041856159177
 21
46.8100686266568
  0
LINE
  8
_0-8_
  6
CONTINUOUS
 62
    7
 10
174.69041856159177
 20
46.8100686266568
 11
174.58612431791246
 21
46.933325460089243
  0
LINE
  8
_0-8_
  6
CONTINUOUS
 62
    7
 10
174.58612431791246
 20
46.933325460089243
 11
174.46530403278652
 21
47.033306420754705
  0
LINE
  8
_0-8_
  6
CONTINUOUS
 62
    7
 10
174.46530403278652
 20
47.033306420754705
 11
174.33162876943939
 21
47.10697363775617
  0
LINE
  8
_0-8_
  6
CONTINUOUS
 62
    7
 10
174.33162876943939
 20
47.10697363775617
 11
174.189160183105
 21
47.15208876998247
  0
LINE
  8
_0-8_
  6
CONTINUOUS
 62
    7
 10
174.189160183105
 20
47.15208876998247
 11
174.09729407205887
 21
47.165161122936084
  0
LINE
  8
_0-8_
  6
CONTINUOUS
 62
    7
 10
172.09607326342649
 20
45.217388924952843
 11
172.09607326342649
 21
44.404188023197776
  0
LINE
  8
_0-8_
  6
CONTINUOUS
 62
    7
 10
172.0960732634264
 20
45.217388924952843
 11
172.0960732634264
 21
45.217388924952843
  0
LINE
  8
_0-8_
  6
CONTINUOUS
 62
    7
 10
172.0960732634264
 20
45.217388924952843
 11
172.08321828520528
 21
45.391037102619777
  0
LINE
  8
_0-8_
  6
CONTINUOUS
 62
    7
 10
172.08321828520528
 20
45.391037102619777
 11
172.04504394255017
 21
45.559409068278512
  0
LINE
  8
_0-8_
  6
CONTINUOUS
 62
    7
 10
172.04504394255017
 20
45.559409068278512
 11
171.98271014354552
 21
45.717388924952843
  0
LINE
  8
_0-8_
  6
CONTINUOUS
 62
    7
 10
171.98271014354552
 20
45.717388924952843
 11
171.89811086913167
 21
45.860176534639379
  0
LINE
  8
_0-8_
  6
CONTINUOUS
 62
    7
 10
171.89811086913167
 20
45.860176534639379
 11
171.79381662545237
 21
45.983433368071822
  0
LINE
  8
_0-8_
  6
CONTINUOUS
 62
    7
 10
171.79381662545237
 20
45.983433368071822
 11
171.67299634032642
 21
46.083414328737284
  0
LINE
  8
_0-8_
  6
CONTINUOUS
 62
    7
 10
171.67299634032642
 20
46.083414328737284
 11
171.55367094588894
 21
46.150734531155905
  0
LINE
  8
_0-8_
  6
CONTINUOUS
 62
    7
 10
170.99607326336644
 20
41.904188023197754
 11
170.99607326336644
 21
41.904188023197754
  0
LINE
  8
_0-8_
  6
CONTINUOUS
 62
    7
 10
170.99607326336644
 20
41.904188023197754
 11
171.41594768823401
 21
42.394006713897333
  0
LINE
  8
_0-8_
  6
CONTINUOUS
 62
    7
 10
171.41594768823401
 20
42.394006713897333
 11
171.75747271149285
 21
42.962550828377843
  0
LINE
  8
_0-8_
  6
CONTINUOUS
 62
    7
 10
171.75747271149285
 20
42.962550828377843
 11
172.01027126813122
 21
43.592545441417997
  0
LINE
  8
_0-8_
  6
CONTINUOUS
 62
    7
 10
172.01027126813122
 20
43.592545441417997
 11
172.09607326342643
 21
43.904188023197754
  0
LINE
  8
_0-8_
  6
CONTINUOUS
 62
    7
 10
173.19607326348643
 20
45.704188023197503
 11
173.19607326348643
 21
43.904188023197776
  0
LINE
  8
_0-8_
  6
CONTINUOUS
 62
    7
 10
174.88838095588648
 20
46.167281016970264
 11
174.88838095588648
 21
45.704188023197503
  0
LINE
  8
_0-1_
  6
CONTINUOUS
 62
    5
 10
165.99607326348649
 20
40.204188023197503
 11
170.99607326348649
 21
40.204188023197503
  0
LINE
  8
_0-1_
  6
CONTINUOUS
 62
    5
 10
165.99607326348649
 20
52.359110513811459
 11
165.99607326348649
 21
40.204188023197503
  0
LINE
  8
_0-1_
  6
CONTINUOUS
 62
    5
 10
170.99607326348649
 20
52.359110513811459
 11
170.99607326348649
 21
40.204188023197503
  0
LINE
  8
_0-8_
  6
DASHED2
 62
  152
 10
44.28364211473945
 20
37.104188023197594
 11
44.28364211473945
 21
44.704188023197503
  0
ARC
  8
_0-8_
  6
DASHED2
 62
  152
 10
45.28364211473945
 20
44.704188023197503
 40
1
 50
90
 51
180
  0
LINE
  8
_0-8_
  6
DASHED2
 62
  152
 10
45.28364211473945
 20
45.704188023197503
 11
52.883642114739359
 21
45.704188023197503
  0
LINE
  8
_0-8_
  6
DASHED2
 62
  152
 10
53.183642114739087
 20
45.404188023197321
 11
53.183642114739087
 21
44.204188023197503
  0
LINE
  8
_0-8_
  6
DASHED2
 62
  152
 10
52.883642114739359
 20
43.904188023197776
 11
51.083642114739177
 21
43.904188023197776
  0
LINE
  8
_0-8_
  6
DASHED2
 62
  152
 10
50.78364211473945
 20
43.604188023197594
 11
50.78364211473945
 21
40.828452091909412
  0
LINE
  8
_0-8_
  6
DASHED2
 62
  152
 10
50.871510080383359
 20
40.616320057553594
 11
51.895774149095359
 21
39.592055988841594
  0
LINE
  8
_0-8_
  6
DASHED2
 62
  152
 10
52.107906183451178
 20
39.504188023197685
 11
56.583642114739177
 21
39.504188023197685
  0
LINE
  8
_0-8_
  6
DASHED2
 62
  152
 10
56.983642114739268
 20
39.504188023197685
 11
61.459378046027268
 21
39.504188023197685
  0
LINE
  8
_0-8_
  6
DASHED2
 62
  152
 10
61.671510080383541
 20
39.592055988841594
 11
62.695774149095087
 21
40.616320057553594
  0
LINE
  8
_0-8_
  6
DASHED2
 62
  152
 10
62.78364211473945
 20
40.828452091909412
 11
62.78364211473945
 21
43.604188023197594
  0
LINE
  8
_0-8_
  6
DASHED2
 62
  152
 10
62.483642114739268
 20
43.904188023197776
 11
60.683642114739541
 21
43.904188023197776
  0
LINE
  8
_0-8_
  6
DASHED2
 62
  152
 10
60.383642114739359
 20
44.204188023197503
 11
60.383642114739359
 21
45.404188023197321
  0
ARC
  8
_0-8_
  6
DASHED2
 62
  152
 10
52.883642114739359
 20
44.204188023197503
 40
0.2999999999999998
 50
270
 51
0
  0
ARC
  8
_0-8_
  6
DASHED2
 62
  152
 10
51.083642114739177
 20
43.604188023197594
 40
0.2999999999999998
 50
90
 51
180
  0
ARC
  8
_0-8_
  6
DASHED2
 62
  152
 10
51.083642114739177
 20
40.828452091909412
 40
0.2999999999999998
 50
180
 51
225
  0
ARC
  8
_0-8_
  6
DASHED2
 62
  152
 10
52.107906183451178
 20
39.804188023197867
 40
0.2999999999999998
 50
225.00000000000037
 51
270
  0
ARC
  8
_0-8_
  6
DASHED2
 62
  152
 10
62.483642114739268
 20
40.828452091909412
 40
0.2999999999999998
 50
314.99999999999966
 51
0
  0
ARC
  8
_0-8_
  6
DASHED2
 62
  152
 10
62.483642114739268
 20
43.604188023197594
 40
0.2999999999999998
 50
0
 51
90
  0
ARC
  8
_0-8_
  6
DASHED2
 62
  152
 10
60.683642114739541
 20
44.204188023197503
 40
0.2999999999999998
 50
180
 51
270
  0
ARC
  8
_0-8_
  6
DASHED2
 62
  152
 10
61.459378046027268
 20
39.804188023197867
 40
0.2999999999999998
 50
270
 51
315
  0
ARC
  8
_0-8_
  6
DASHED2
 62
  152
 10
52.883642114739359
 20
45.404188023197321
 40
0.2999999999999998
 50
0
 51
90.000000000000028
  0
ARC
  8
_0-8_
  6
DASHED2
 62
  152
 10
68.283642114739564
 20
44.704188023197503
 40
1
 50
0
 51
90.000000000000028
  0
LINE
  8
_0-8_
  6
DASHED2
 62
  152
 10
69.283642114739564
 20
44.704188023197503
 11
69.283642114739564
 21
37.104188023197594
  0
LINE
  8
_0-8_
  6
CONTINUOUS
 62
    7
 10
62.075949807139409
 20
45.704188023197503
 11
60.383642114739359
 21
45.704188023197503
  0
ARC
  8
_0-8_
  6
DASHED2
 62
  152
 10
60.683642114739087
 20
45.404188023197321
 40
0.2999999999999998
 50
90
 51
180
  0
LINE
  8
_0-8_
  6
DASHED2
 62
  152
 10
60.683642114739087
 20
45.704188023197503
 11
68.283642114739564
 21
45.704188023197503
  0
LINE
  8
_0-8_
  6
CONTINUOUS
 62
    7
 10
117.86336489297571
 20
45.704188023197503
 11
119.55567258537576
 21
45.704188023197503
  0
LINE
  8
_0-8_
  6
CONTINUOUS
 62
    7
 10
173.19607326348643
 20
45.704188023197503
 11
174.88838095588648
 21
45.704188023197503
  0
LINE
  8
_0-8_
  6
DASHED2
 62
  152
 10
101.7633648929758
 20
37.104188023197594
 11
101.7633648929758
 21
44.704188023197503
  0
ARC
  8
_0-8_
  6
DASHED2
 62
  152
 10
102.7633648929758
 20
44.704188023197503
 40
1
 50
90
 51
180
  0
LINE
  8
_0-8_
  6
DASHED2
 62
  152
 10
102.7633648929758
 20
45.704188023197503
 11
110.36336489297571
 21
45.704188023197503
  0
LINE
  8
_0-8_
  6
DASHED2
 62
  152
 10
110.66336489297544
 20
45.404188023197321
 11
110.66336489297544
 21
44.204188023197503
  0
LINE
  8
_0-8_
  6
DASHED2
 62
  152
 10
110.36336489297571
 20
43.904188023197776
 11
108.56336489297553
 21
43.904188023197776
  0
LINE
  8
_0-8_
  6
DASHED2
 62
  152
 10
108.2633648929758
 20
43.604188023197594
 11
108.2633648929758
 21
40.828452091909412
  0
LINE
  8
_0-8_
  6
DASHED2
 62
  152
 10
108.35123285861971
 20
40.616320057553594
 11
109.37549692733171
 21
39.592055988841594
  0
LINE
  8
_0-8_
  6
DASHED2
 62
  152
 10
109.58762896168753
 20
39.504188023197685
 11
114.06336489297553
 21
39.504188023197685
  0
LINE
  8
_0-8_
  6
DASHED2
 62
  152
 10
114.46336489297562
 20
39.504188023197685
 11
118.93910082426362
 21
39.504188023197685
  0
LINE
  8
_0-8_
  6
DASHED2
 62
  152
 10
119.15123285861989
 20
39.592055988841594
 11
120.17549692733144
 21
40.616320057553594
  0
LINE
  8
_0-8_
  6
DASHED2
 62
  152
 10
120.2633648929758
 20
40.828452091909412
 11
120.2633648929758
 21
43.604188023197594
  0
LINE
  8
_0-8_
  6
DASHED2
 62
  152
 10
119.96336489297562
 20
43.904188023197776
 11
118.16336489297589
 21
43.904188023197776
  0
LINE
  8
_0-8_
  6
DASHED2
 62
  152
 10
117.86336489297571
 20
44.204188023197503
 11
117.86336489297571
 21
45.404188023197321
  0
ARC
  8
_0-8_
  6
DASHED2
 62
  152
 10
110.36336489297571
 20
44.204188023197503
 40
0.2999999999999998
 50
270
 51
0
  0
ARC
  8
_0-8_
  6
DASHED2
 62
  152
 10
108.56336489297553
 20
43.604188023197594
 40
0.2999999999999998
 50
90
 51
180
  0
ARC
  8
_0-8_
  6
DASHED2
 62
  152
 10
108.56336489297553
 20
40.828452091909412
 40
0.2999999999999998
 50
180
 51
225
  0
ARC
  8
_0-8_
  6
DASHED2
 62
  152
 10
109.58762896168753
 20
39.804188023197867
 40
0.2999999999999998
 50
225.00000000000037
 51
270
  0
ARC
  8
_0-8_
  6
DASHED2
 62
  152
 10
119.96336489297562
 20
40.828452091909412
 40
0.2999999999999998
 50
314.99999999999966
 51
0
  0
ARC
  8
_0-8_
  6
DASHED2
 62
  152
 10
119.96336489297562
 20
43.604188023197594
 40
0.2999999999999998
 50
0
 51
90
  0
ARC
  8
_0-8_
  6
DASHED2
 62
  152
 10
118.16336489297589
 20
44.204188023197503
 40
0.2999999999999998
 50
180
 51
270
  0
ARC
  8
_0-8_
  6
DASHED2
 62
  152
 10
118.93910082426362
 20
39.804188023197867
 40
0.2999999999999998
 50
270
 51
315
  0
ARC
  8
_0-8_
  6
DASHED2
 62
  152
 10
110.36336489297571
 20
45.404188023197321
 40
0.2999999999999998
 50
0
 51
90.000000000000028
  0
ARC
  8
_0-8_
  6
DASHED2
 62
  152
 10
125.76336489297591
 20
44.704188023197503
 40
1
 50
0
 51
90.000000000000028
  0
LINE
  8
_0-8_
  6
DASHED2
 62
  152
 10
126.76336489297591
 20
44.704188023197503
 11
126.76336489297591
 21
37.104188023197594
  0
ARC
  8
_0-8_
  6
DASHED2
 62
  152
 10
118.16336489297544
 20
45.404188023197321
 40
0.2999999999999998
 50
90
 51
180
  0
LINE
  8
_0-8_
  6
DASHED2
 62
  152
 10
118.16336489297544
 20
45.704188023197503
 11
125.76336489297591
 21
45.704188023197503
  0
LINE
  8
_0-8_
  6
DASHED2
 62
  152
 10
157.09607326348652
 20
37.104188023197594
 11
157.09607326348652
 21
44.704188023197503
  0
ARC
  8
_0-8_
  6
DASHED2
 62
  152
 10
158.09607326348652
 20
44.704188023197503
 40
1
 50
90
 51
180
  0
LINE
  8
_0-8_
  6
DASHED2
 62
  152
 10
158.09607326348652
 20
45.704188023197503
 11
165.69607326348643
 21
45.704188023197503
  0
LINE
  8
_0-8_
  6
DASHED2
 62
  152
 10
165.99607326348615
 20
45.404188023197321
 11
165.99607326348615
 21
44.204188023197503
  0
LINE
  8
_0-8_
  6
DASHED2
 62
  152
 10
165.69607326348643
 20
43.904188023197776
 11
163.89607326348624
 21
43.904188023197776
  0
LINE
  8
_0-8_
  6
DASHED2
 62
  152
 10
163.59607326348652
 20
43.604188023197594
 11
163.59607326348652
 21
40.828452091909412
  0
LINE
  8
_0-8_
  6
DASHED2
 62
  152
 10
163.68394122913043
 20
40.616320057553594
 11
164.70820529784243
 21
39.592055988841594
  0
LINE
  8
_0-8_
  6
DASHED2
 62
  152
 10
164.92033733219824
 20
39.504188023197685
 11
169.39607326348624
 21
39.504188023197685
  0
LINE
  8
_0-8_
  6
DASHED2
 62
  152
 10
169.79607326348633
 20
39.504188023197685
 11
174.27180919477433
 21
39.504188023197685
  0
LINE
  8
_0-8_
  6
DASHED2
 62
  152
 10
174.48394122913061
 20
39.592055988841594
 11
175.50820529784215
 21
40.616320057553594
  0
LINE
  8
_0-8_
  6
DASHED2
 62
  152
 10
175.59607326348652
 20
40.828452091909412
 11
175.59607326348652
 21
43.604188023197594
  0
LINE
  8
_0-8_
  6
DASHED2
 62
  152
 10
175.29607326348633
 20
43.904188023197776
 11
173.49607326348661
 21
43.904188023197776
  0
LINE
  8
_0-8_
  6
DASHED2
 62
  152
 10
173.19607326348643
 20
44.204188023197503
 11
173.19607326348643
 21
45.404188023197321
  0
ARC
  8
_0-8_
  6
DASHED2
 62
  152
 10
165.69607326348643
 20
44.204188023197503
 40
0.2999999999999998
 50
270
 51
0
  0
ARC
  8
_0-8_
  6
DASHED2
 62
  152
 10
163.89607326348624
 20
43.604188023197594
 40
0.2999999999999998
 50
90
 51
180
  0
ARC
  8
_0-8_
  6
DASHED2
 62
  152
 10
163.89607326348624
 20
40.828452091909412
 40
0.2999999999999998
 50
180
 51
225
  0
ARC
  8
_0-8_
  6
DASHED2
 62
  152
 10
164.92033733219824
 20
39.804188023197867
 40
0.2999999999999998
 50
225.00000000000037
 51
270
  0
ARC
  8
_0-8_
  6
DASHED2
 62
  152
 10
175.29607326348633
 20
40.828452091909412
 40
0.2999999999999998
 50
314.99999999999966
 51
0
  0
ARC
  8
_0-8_
  6
DASHED2
 62
  152
 10
175.29607326348633
 20
43.604188023197594
 40
0.2999999999999998
 50
0
 51
90
  0
ARC
  8
_0-8_
  6
DASHED2
 62
  152
 10
173.49607326348661
 20
44.204188023197503
 40
0.2999999999999998
 50
180
 51
270
  0
ARC
  8
_0-8_
  6
DASHED2
 62
  152
 10
174.27180919477433
 20
39.804188023197867
 40
0.2999999999999998
 50
270
 51
315
  0
ARC
  8
_0-8_
  6
DASHED2
 62
  152
 10
165.69607326348643
 20
45.404188023197321
 40
0.2999999999999998
 50
0
 51
90.000000000000028
  0
ARC
  8
_0-8_
  6
DASHED2
 62
  152
 10
181.09607326348663
 20
44.704188023197503
 40
1
 50
0
 51
90.000000000000028
  0
LINE
  8
_0-8_
  6
DASHED2
 62
  152
 10
182.09607326348663
 20
44.704188023197503
 11
182.09607326348663
 21
37.104188023197594
  0
ARC
  8
_0-8_
  6
DASHED2
 62
  152
 10
173.49607326348615
 20
45.404188023197321
 40
0.2999999999999998
 50
90
 51
180
  0
LINE
  8
_0-8_
  6
DASHED2
 62
  152
 10
173.49607326348615
 20
45.704188023197503
 11
181.09607326348663
 21
45.704188023197503
  0
TEXT
  8
_0-7_
 62
    7
 10
33.896097625708535
 20
69.999132198071436
 40
4.2999999999999998
 41
0.744186046511628
 50
0
  1
RP2C
  0
ENDSEC
  0
EOF
