  0
SECTION
  2
HEADER
  9
$ACADVER
  1
AC1009
  9
$INSBASE
 10
0
 20
0
 30
0
  9
$EXTMIN
 10
0
 20
0
  9
$EXTMAX
 10
1189
 20
841
  9
$LIMMIN
 10
0
 20
0
  9
$LIMMAX
 10
1189
 20
841
  9
$LTSCALE
 40
1
  0
ENDSEC
  0
SECTION
  2
TABLES
  0
TABLE
  2
LTYPE
 70
     9
  0
LTYPE
  2
CONTINUOUS
 70
    64
  3
実線
 72
    65
 73
     0
 40
0.0
  0
LTYPE
  2
DASHED1
 70
    64
  3
--  --  --  --  --  --  --  --  
 72
    65
 73
     2
 40
2.5
 49
1.25
 49
-1.25
  0
LTYPE
  2
DASHED2
 70
    64
  3
----    ----    ----    ----    
 72
    65
 73
     2
 40
5.0
 49
2.5
 49
-2.5
  0
LTYPE
  2
DASHED3
 70
    64
  3
------  ------  ------  ------  
 72
    65
 73
     2
 40
5.0
 49
3.75
 49
-1.25
  0
LTYPE
  2
CENTER1
 70
    64
  3
----- - ----- - ----- - ----- - 
 72
    65
 73
     4
 40
10.0
 49
6.25
 49
-1.25
 49
1.25
 49
-1.25
  0
LTYPE
  2
CENTER2
 70
    64
  3
----------  --  ----------  --  
 72
    65
 73
     4
 40
20.0
 49
12.5
 49
-2.5
 49
2.5
 49
-2.5
  0
LTYPE
  2
PHANTOM1
 70
    64
  3
--- - - --- - - --- - - --- - - 
 72
    65
 73
     6
 40
10.0
 49
3.25
 49
-1.25
 49
1.25
 49
-1.25
 49
1.25
 49
-1.25
  0
LTYPE
  2
PHANTOM2
 70
    64
  3
--------  -  -  --------  -  -  
 72
    65
 73
     6
 40
20.0
 49
10.0
 49
-2.5
 49
1.25
 49
-2.5
 49
1.25
 49
-2.5
  0
LTYPE
  2
DOT
 70
    64
  3
-   -   -   -   -   -   -   -   
 72
    65
 73
     2
 40
2.5
 49
0.625
 49
-1.875
  0
LTYPE
  2
DUMMY
 70
    64
  3
ダミー
 72
    65
 73
     0
 40
0.0
  0
LTYPE
  2
RAND1
 70
    64
  3
ランダム線1
 72
    65
 73
     4
 40
10.0
 49
1.0
 49
-2.0
 49
3.0
 49
-4.0
  0
LTYPE
  2
RAND2
 70
    64
  3
ランダム線2
 72
    65
 73
     4
 40
14.0
 49
2.0
 49
-3.0
 49
4.0
 49
-5.0
  0
LTYPE
  2
RAND3
 70
    64
  3
ランダム線3
 72
    65
 73
     4
 40
18.0
 49
3.0
 49
-4.0
 49
5.0
 49
-6.0
  0
LTYPE
  2
RAND4
 70
    64
  3
ランダム線4
 72
    65
 73
     4
 40
22.0
 49
4.0
 49
-5.0
 49
6.0
 49
-7.0
  0
LTYPE
  2
RAND5
 70
    64
  3
ランダム線5
 72
    65
 73
     4
 40
26.0
 49
5.0
 49
-6.0
 49
7.0
 49
-8.0
  0
LTYPE
  2
LONG1
 70
    64
  3
----------  --  ----------  --  
 72
    65
 73
     4
 40
40.0
 49
32.5
 49
-2.5
 49
2.5
 49
-2.5
  0
LTYPE
  2
LONG2
 70
    64
  3
--------  -  -  --------  -  -  
 72
    65
 73
     6
 40
40.0
 49
30.0
 49
-2.5
 49
1.25
 49
-2.5
 49
1.25
 49
-2.5
  0
LTYPE
  2
LONG3
 70
    64
  3
+++++++++++++++..+++++++++++++++
 72
    65
 73
     2
 40
40.0
 49
37.5
 49
-2.5
  0
LTYPE
  2
LONG4
 70
    64
  3
+++++++++++++++..+++++++++++++++
 72
    65
 73
     2
 40
80.0
 49
75.0
 49
-5.0
  0
LTYPE
  2
LONG5
 70
    64
  3
----------  --  ----------  --  
 72
    65
 73
     4
 40
60.0
 49
37.5
 49
-7.5
 49
7.5
 49
-7.5
  0
LTYPE
  2
dashed
 70
   64
  3
-------   -------------   ------
 72
   65
 73
    2
 40
7.5
 49
6
 49
-1.5
  0
LTYPE
  2
dashed_spaced
 70
   64
  3
----        --------        ----
 72
   65
 73
    2
 40
12
 49
6
 49
-6
  0
LTYPE
  2
long_dashed_dotted
 70
   64
  3
------------- --- --------------
 72
   65
 73
    4
 40
15.25
 49
12
 49
-1.5
 49
0.25
 49
-1.5
  0
LTYPE
  2
long_dashed_double-dotted
 70
   64
  3
----------- --- --- ------------
 72
   65
 73
    6
 40
17
 49
12
 49
-1.5
 49
0.25
 49
-1.5
 49
0.25
 49
-1.5
  0
LTYPE
  2
long_dashed_triplicate-dotted
 70
   64
  3
--------- --- --- --- ----------
 72
   65
 73
    8
 40
18.75
 49
12
 49
-1.5
 49
0.25
 49
-1.5
 49
0.25
 49
-1.5
 49
0.25
 49
-1.5
  0
LTYPE
  2
dotted
 70
   64
  3
   -       -       -       -    
 72
   65
 73
    2
 40
1.75
 49
0.25
 49
-1.5
  0
LTYPE
  2
chain
 70
   64
  3
-------------- -- --------------
 72
   65
 73
    4
 40
18.5
 49
12
 49
-1.5
 49
3.5
 49
-1.5
  0
LTYPE
  2
chain_double_dash
 70
   64
  3
------------ -- -- -------------
 72
   65
 73
    6
 40
23.5
 49
12
 49
-1.5
 49
3.5
 49
-1.5
 49
3.5
 49
-1.5
  0
LTYPE
  2
dashed_dotted
 70
   64
  3
-----------     -     ----------
 72
   65
 73
    4
 40
9.25
 49
6
 49
-1.5
 49
0.25
 49
-1.5
  0
LTYPE
  2
double-dashed_dotted
 70
   64
  3
------   -----------   -   -----
 72
   65
 73
    6
 40
16.75
 49
6
 49
-1.5
 49
6
 49
-1.5
 49
0.25
 49
-1.5
  0
LTYPE
  2
dashed_double-dotted
 70
   64
  3
---------    -    -    ---------
 72
   65
 73
    6
 40
11
 49
6
 49
-1.5
 49
0.25
 49
-1.5
 49
0.25
 49
-1.5
  0
LTYPE
  2
double-dashed_double-dotted
 70
   64
  3
-----   ---------   -   -   ----
 72
   65
 73
    8
 40
18.5
 49
6
 49
-1.5
 49
6
 49
-1.5
 49
0.25
 49
-1.5
 49
0.25
 49
-1.5
  0
LTYPE
  2
dashed_triplicate-dotted
 70
   64
  3
-------    -    -    -    ------
 72
   65
 73
    8
 40
12.75
 49
6
 49
-1.5
 49
0.25
 49
-1.5
 49
0.25
 49
-1.5
 49
0.25
 49
-1.5
  0
LTYPE
  2
double-dashed_triplicate-dotted
 70
   64
  3
-----  ---------  -  -  -  -----
 72
   65
 73
   10
 40
20.25
 49
6
 49
-1.5
 49
6
 49
-1.5
 49
0.25
 49
-1.5
 49
0.25
 49
-1.5
 49
0.25
 49
-1.5
  0
LTYPE
  2
undefined
 70
   64
  3
--------------------------------
 72
   65
 73
    0
 40
0
  0
ENDTAB
  0
TABLE
  2
STYLE
  5
3
100
AcDbSymbolTable
 70
     1
  0
STYLE
  5
10
100
AcDbSymbolTableRecord
100
AcDbTextStyleTableRecord
  2
STANDARD
 70
     0
 40
0.0
 41
1.0
 50
0.0
 71
     0
 42
0.2
  3
txt
  4
bigfont.shx
  0
STYLE
  5
26
100
AcDbSymbolTableRecord
100
AcDbTextStyleTableRecord
  2
TATEGAKI
 70
    68
 40
0.0
 41
1.0
 50
0.0
 71
     0
 42
1.0
  3
txt
  4
bigfont.shx
  0
ENDTAB
  0
TABLE
  2
LAYER
 70
    3
  0
LAYER
  2
_0-0_
 70
   64
 62
    7
  6
CONTINUOUS
  0
LAYER
  2
_0-1_
 70
   64
 62
    7
  6
CONTINUOUS
  0
LAYER
  2
ADD_LINE
 70
   64
 62
    7
  6
CONTINUOUS
  0
ENDTAB
  0
ENDSEC
  0
SECTION
  2
BLOCKS
  0
ENDSEC
  0
SECTION
  2
ENTITIES
  0
LINE
  8
_0-0_
  6
CONTINUOUS
 62
    7
 10
74.737970921122951
 20
53.72357468500968
 11
74.365583321181248
 21
53.462826080394734
  0
LINE
  8
_0-0_
  6
CONTINUOUS
 62
    7
 10
74.365583321181248
 20
53.462826080394734
 11
74.056705938946834
 21
53.771703462629375
  0
LINE
  8
_0-0_
  6
CONTINUOUS
 62
    7
 10
74.056705938946834
 20
53.771703462629375
 11
73.615583321181248
 21
53.462826080395189
  0
LINE
  8
_0-0_
  6
CONTINUOUS
 62
    7
 10
73.615583321181248
 20
53.462826080395189
 11
73.366039242876695
 21
53.712370158699741
  0
LINE
  8
_0-0_
  6
CONTINUOUS
 62
    7
 10
73.237970921122951
 20
53.72357468500968
 11
72.865583321181248
 21
53.462826080394734
  0
LINE
  8
_0-0_
  6
CONTINUOUS
 62
    7
 10
72.865583321181248
 20
53.462826080394734
 11
72.556705938946834
 21
53.771703462629375
  0
LINE
  8
_0-0_
  6
CONTINUOUS
 62
    7
 10
72.556705938946834
 20
53.771703462629375
 11
72.115583321181248
 21
53.462826080395189
  0
LINE
  8
_0-0_
  6
CONTINUOUS
 62
    7
 10
72.115583321181248
 20
53.462826080395189
 11
71.866039242876695
 21
53.712370158699741
  0
LINE
  8
_0-0_
  6
CONTINUOUS
 62
    7
 10
71.737970921122951
 20
53.72357468500968
 11
71.365583321181248
 21
53.462826080394734
  0
LINE
  8
_0-0_
  6
CONTINUOUS
 62
    7
 10
71.365583321181248
 20
53.462826080394734
 11
71.056705938946834
 21
53.771703462629375
  0
LINE
  8
_0-0_
  6
CONTINUOUS
 62
    7
 10
71.056705938946834
 20
53.771703462629375
 11
70.615583321181248
 21
53.462826080395189
  0
LINE
  8
_0-0_
  6
CONTINUOUS
 62
    7
 10
70.615583321181248
 20
53.462826080395189
 11
68.065583321181293
 21
53.462826080395189
  0
LINE
  8
_0-0_
  6
CONTINUOUS
 62
    7
 10
67.565583321181293
 20
52.962826080395189
 11
67.565583321181293
 21
52.462826080395189
  0
LINE
  8
_0-0_
  6
CONTINUOUS
 62
    7
 10
68.065583321181293
 20
51.962826080395189
 11
69.815583321181293
 21
51.962826080395189
  0
LINE
  8
_0-0_
  6
CONTINUOUS
 62
    7
 10
69.815583321181293
 20
51.962826080395189
 11
69.815583321181293
 21
50.962826080395189
  0
LINE
  8
_0-0_
  6
CONTINUOUS
 62
    7
 10
69.815583321181293
 20
50.962826080395189
 11
71.365583321181248
 21
50.962826080395189
  0
LINE
  8
_0-0_
  6
CONTINUOUS
 62
    7
 10
71.865583321181248
 20
51.462826080395189
 11
73.365583321181248
 21
51.462826080395189
  0
LINE
  8
_0-0_
  6
CONTINUOUS
 62
    7
 10
73.865583321181248
 20
50.962826080395189
 11
73.865583321181248
 21
44.462826080395132
  0
LINE
  8
_0-0_
  6
CONTINUOUS
 62
    7
 10
73.365583321181248
 20
43.962826080395132
 11
72.707141762739639
 21
43.962826080395132
  0
LINE
  8
_0-0_
  6
CONTINUOUS
 62
    7
 10
72.254200586269008
 20
44.251061374512517
 11
70.139303718431165
 21
48.774590786277201
  0
LINE
  8
_0-0_
  6
CONTINUOUS
 62
    7
 10
69.686362541960534
 20
49.062826080395098
 11
69.465583321181157
 21
49.062826080395098
  0
LINE
  8
_0-0_
  6
CONTINUOUS
 62
    7
 10
69.012642144710526
 20
48.351061374512426
 11
71.630823962892464
 21
42.751061374512517
  0
LINE
  8
_0-0_
  6
CONTINUOUS
 62
    7
 10
72.083765139363095
 20
42.462826080395132
 11
77.447401502999355
 21
42.462826080395132
  0
LINE
  8
_0-0_
  6
CONTINUOUS
 62
    7
 10
77.900342679469986
 20
42.751061374512517
 11
80.518524497651924
 21
48.351061374512426
  0
LINE
  8
_0-0_
  6
CONTINUOUS
 62
    7
 10
80.065583321181293
 20
49.062826080395098
 11
79.844804100401916
 21
49.062826080395098
  0
LINE
  8
_0-0_
  6
CONTINUOUS
 62
    7
 10
79.391862923931512
 20
48.774590786277201
 11
77.276966056093443
 21
44.251061374512517
  0
LINE
  8
_0-0_
  6
CONTINUOUS
 62
    7
 10
76.824024879622812
 20
43.962826080395132
 11
76.16558332118143
 21
43.962826080395132
  0
LINE
  8
_0-0_
  6
CONTINUOUS
 62
    7
 10
75.66558332118143
 20
44.462826080395132
 11
75.66558332118143
 21
50.962826080395189
  0
LINE
  8
_0-0_
  6
CONTINUOUS
 62
    7
 10
76.16558332118143
 20
51.462826080395189
 11
77.66558332118143
 21
51.462826080395189
  0
LINE
  8
_0-0_
  6
CONTINUOUS
 62
    7
 10
78.16558332118143
 20
50.962826080395189
 11
79.715583321181384
 21
50.962826080395189
  0
LINE
  8
_0-0_
  6
CONTINUOUS
 62
    7
 10
79.715583321181384
 20
50.962826080395189
 11
79.715583321181384
 21
51.962826080395189
  0
LINE
  8
_0-0_
  6
CONTINUOUS
 62
    7
 10
79.715583321181384
 20
51.962826080395189
 11
81.965583321181157
 21
51.962826080395189
  0
LINE
  8
_0-0_
  6
CONTINUOUS
 62
    7
 10
82.465583321181157
 20
52.462826080395189
 11
82.465583321181157
 21
57.255719299208522
  0
LINE
  8
_0-0_
  6
CONTINUOUS
 62
    7
 10
82.31913671177449
 20
57.609272689801855
 11
81.412029930588005
 21
58.51637947098834
  0
LINE
  8
_0-0_
  6
CONTINUOUS
 62
    7
 10
81.265583321181111
 20
58.869932861581674
 11
81.265583321181111
 21
61.462826080395189
  0
LINE
  8
_0-0_
  6
CONTINUOUS
 62
    7
 10
82.265583321181111
 20
62.462826080395189
 11
82.265583321181111
 21
63.462826080395189
  0
LINE
  8
_0-0_
  6
CONTINUOUS
 62
    7
 10
81.765583321181111
 20
63.962826080395189
 11
77.065583321181293
 21
63.962826080395189
  0
LINE
  8
_0-0_
  6
CONTINUOUS
 62
    7
 10
76.565583321181293
 20
63.462826080395189
 11
76.565583321181293
 21
62.462826080395189
  0
LINE
  8
_0-0_
  6
CONTINUOUS
 62
    7
 10
77.065583321181293
 20
61.962826080395189
 11
78.265583321181111
 21
61.962826080395189
  0
LINE
  8
_0-0_
  6
CONTINUOUS
 62
    7
 10
78.765583321181111
 20
61.462826080395189
 11
78.765583321181111
 21
59.869932861581219
  0
LINE
  8
_0-0_
  6
CONTINUOUS
 62
    7
 10
78.619136711774445
 20
59.516379470987886
 11
76.71202993058796
 21
57.609272689801855
  0
LINE
  8
_0-0_
  6
CONTINUOUS
 62
    7
 10
76.358476539994626
 20
57.462826080395189
 11
73.565583321181293
 21
57.462826080395189
  0
LINE
  8
_0-0_
  6
CONTINUOUS
 62
    7
 10
73.065583321181293
 20
56.962826080395189
 11
73.065583321181293
 21
56.66802860530197
  0
LINE
  8
_0-0_
  6
CONTINUOUS
 62
    7
 10
72.557713370172678
 20
56.449380545494023
 11
72.557713370172678
 21
57.661000614809836
  0
LINE
  8
_0-0_
  6
CONTINUOUS
 62
    7
 10
72.603543367237762
 20
57.870116870596121
 11
75.060950980708185
 21
63.207247735078909
  0
LINE
  8
_0-0_
  6
CONTINUOUS
 62
    7
 10
75.065533484760635
 20
63.228381992989398
 11
75.058902969509518
 21
64.717485005311119
  0
LINE
  8
_0-0_
  6
CONTINUOUS
 62
    7
 10
74.965339892242355
 20
64.816832419670845
 11
74.442359573394924
 21
64.850561000779635
  0
LINE
  8
_0-0_
  6
CONTINUOUS
 62
    7
 10
74.335962996926128
 20
64.753573574389065
 11
74.296913817544919
 21
63.362119160147358
  0
LINE
  8
_0-0_
  6
CONTINUOUS
 62
    7
 10
74.291569195542024
 20
63.340990602758666
 11
71.59391017363555
 21
57.996757393291773
  0
LINE
  8
_0-0_
  6
CONTINUOUS
 62
    7
 10
71.488455687390569
 20
57.606628779592938
 11
71.357713370172632
 21
55.449380545494023
  0
LINE
  8
_0-0_
  6
CONTINUOUS
 62
    7
 10
71.357713370172632
 20
55.449380545494023
 11
71.357713370172632
 21
54.649380545493841
  0
LINE
  8
_0-0_
  6
CONTINUOUS
 62
    7
 10
71.457713370172542
 20
54.549380545493932
 11
72.116292013935208
 21
54.549380545493932
  0
LINE
  8
_0-0_
  6
CONTINUOUS
 62
    7
 10
72.187002692053966
 20
54.520091223612781
 11
72.629902295030206
 21
54.077191620636313
  0
LINE
  8
_0-0_
  6
CONTINUOUS
 62
    7
 10
72.697018757084834
 20
54.047966911574804
 11
75.393731905360482
 21
53.950978547482009
  0
LINE
  8
_0-0_
  6
CONTINUOUS
 62
    7
 10
75.46674213360825
 20
53.915321921270333
 11
75.793434609204041
 21
53.525984989805693
  0
LINE
  8
_0-0_
  6
CONTINUOUS
 62
    7
 10
75.865583321181248
 20
53.462826080394734
 11
76.237970921122951
 21
53.72357468500968
  0
LINE
  8
_0-0_
  6
CONTINUOUS
 62
    7
 10
76.221226992485754
 20
53.75440469190471
 11
75.93431781448453
 21
53.513659306462614
  0
LINE
  8
_0-0_
  6
CONTINUOUS
 62
    7
 10
75.865583321181248
 20
53.462826080394734
 11
75.556705938946834
 21
53.771703462629375
  0
LINE
  8
_0-0_
  6
CONTINUOUS
 62
    7
 10
75.556705938946834
 20
53.771703462629375
 11
75.115583321181248
 21
53.462826080395189
  0
LINE
  8
_0-0_
  6
CONTINUOUS
 62
    7
 10
75.115583321181248
 20
53.462826080395189
 11
74.866039242876695
 21
53.712370158699741
  0
LINE
  8
_0-0_
  6
CONTINUOUS
 62
    7
 10
76.366039242876695
 20
53.712370158699741
 11
76.615583321181248
 21
53.462826080395189
  0
LINE
  8
_0-0_
  6
CONTINUOUS
 62
    7
 10
76.615583321181248
 20
53.462826080395189
 11
77.329657324552272
 21
53.962826080395189
  0
LINE
  8
_0-0_
  6
CONTINUOUS
 62
    7
 10
77.329657324552272
 20
53.962826080395189
 11
79.465583321181157
 21
53.962826080395189
  0
LINE
  8
_0-0_
  6
CONTINUOUS
 62
    7
 10
79.965583321181157
 20
54.462826080395189
 11
79.965583321181157
 21
55.662826080395007
  0
LINE
  8
_0-0_
  6
CONTINUOUS
 62
    7
 10
79.665583321181202
 20
55.962826080395189
 11
74.331409569974994
 21
55.962826080395189
  0
LINE
  8
_0-0_
  6
CONTINUOUS
 62
    7
 10
74.202000047423553
 20
55.979863167250642
 11
73.436173798629852
 21
56.185065692157423
  0
LINE
  8
_0-0_
  6
CONTINUOUS
 62
    7
 10
73.557713370172678
 20
55.449380545494023
 11
77.778178472020272
 21
55.449380545494023
  0
LINE
  8
_0-0_
  6
CONTINUOUS
 62
    7
 10
77.812380486352822
 20
55.455411283415287
 11
79.086743486754585
 21
55.919116439592017
  0
LINE
  8
_0-0_
  6
CONTINUOUS
 62
    7
 10
78.98612418343555
 20
54.978527040028894
 11
77.203590166469667
 21
53.949380545494023
  0
LINE
  8
_0-0_
  6
CONTINUOUS
 62
    7
 10
77.203590166469667
 20
53.949380545494023
 11
76.68431781448453
 21
53.513659306462614
  0
LINE
  8
_0-0_
  6
CONTINUOUS
 62
    7
 10
76.543434609204041
 20
53.525984989805693
 11
76.362110197766242
 21
53.742079008561632
  0
ARC
  8
_0-0_
  6
CONTINUOUS
 62
    7
 10
71.865583321181248
 20
50.962826080395189
 40
0.5
 50
90
 51
180
  0
ARC
  8
_0-0_
  6
CONTINUOUS
 62
    7
 10
73.365583321181248
 20
50.962826080395189
 40
0.5
 50
0
 51
90.000000000000028
  0
ARC
  8
_0-0_
  6
CONTINUOUS
 62
    7
 10
76.16558332118143
 20
50.962826080395189
 40
0.5
 50
90
 51
180
  0
ARC
  8
_0-0_
  6
CONTINUOUS
 62
    7
 10
77.66558332118143
 20
50.962826080395189
 40
0.5
 50
0
 51
90.000000000000028
  0
ARC
  8
_0-0_
  6
CONTINUOUS
 62
    7
 10
68.065583321181293
 20
52.462826080395189
 40
0.5
 50
180
 51
270
  0
ARC
  8
_0-0_
  6
CONTINUOUS
 62
    7
 10
68.065583321181293
 20
52.962826080395189
 40
0.5
 50
90
 51
180
  0
ARC
  8
_0-0_
  6
CONTINUOUS
 62
    7
 10
73.365583321181248
 20
44.462826080395132
 40
0.5
 50
270
 51
0
  0
ARC
  8
_0-0_
  6
CONTINUOUS
 62
    7
 10
76.16558332118143
 20
44.462826080395132
 40
0.5
 50
180
 51
270
  0
ARC
  8
_0-0_
  6
CONTINUOUS
 62
    7
 10
69.465583321181157
 20
48.562826080395041
 40
0.5
 50
90
 51
205.05761541830333
  0
ARC
  8
_0-0_
  6
CONTINUOUS
 62
    7
 10
80.065583321181293
 20
48.562826080395041
 40
0.5
 50
334.94238458169667
 51
90
  0
ARC
  8
_0-0_
  6
CONTINUOUS
 62
    7
 10
69.686362541960534
 20
48.562826080395041
 40
0.5
 50
25.05761541830292
 51
90
  0
ARC
  8
_0-0_
  6
CONTINUOUS
 62
    7
 10
72.707141762739639
 20
44.462826080395132
 40
0.5
 50
205.05761541830293
 51
270
  0
ARC
  8
_0-0_
  6
CONTINUOUS
 62
    7
 10
79.844804100401916
 20
48.562826080395041
 40
0.5
 50
90
 51
154.94238458169724
  0
ARC
  8
_0-0_
  6
CONTINUOUS
 62
    7
 10
76.824024879622812
 20
44.462826080395132
 40
0.5
 50
270
 51
334.94238458169724
  0
ARC
  8
_0-0_
  6
CONTINUOUS
 62
    7
 10
78.265583321181111
 20
59.869932861581219
 40
0.5
 50
314.99999999999875
 51
359.99999999999994
  0
ARC
  8
_0-0_
  6
CONTINUOUS
 62
    7
 10
74.376960695370371
 20
53.592870062443126
 40
0.1
 50
224.99999999999866
 51
305.00000000000114
  0
ARC
  8
_0-0_
  6
CONTINUOUS
 62
    7
 10
74.045328564757938
 20
53.641659480580984
 40
0.1
 50
44.999999999998629
 51
125.0000000000024
  0
ARC
  8
_0-0_
  6
CONTINUOUS
 62
    7
 10
73.626960695370371
 20
53.592870062443126
 40
0.1
 50
225
 51
304.9999999999992
  0
ARC
  8
_0-0_
  6
CONTINUOUS
 62
    7
 10
73.295328564757938
 20
53.641659480580984
 40
0.1
 50
44.999999999998067
 51
125.00000000000365
  0
ARC
  8
_0-0_
  6
CONTINUOUS
 62
    7
 10
75.876960695370371
 20
53.592870062443126
 40
0.1
 50
224.99999999999866
 51
305.00000000000114
  0
ARC
  8
_0-0_
  6
CONTINUOUS
 62
    7
 10
75.545328564757938
 20
53.641659480580984
 40
0.1
 50
44.999999999998629
 51
125.0000000000024
  0
ARC
  8
_0-0_
  6
CONTINUOUS
 62
    7
 10
75.126960695370371
 20
53.592870062443126
 40
0.1
 50
225
 51
304.9999999999992
  0
ARC
  8
_0-0_
  6
CONTINUOUS
 62
    7
 10
74.795328564757938
 20
53.641659480580984
 40
0.1
 50
44.999999999998067
 51
125.00000000000365
  0
ARC
  8
_0-0_
  6
CONTINUOUS
 62
    7
 10
76.626960695370371
 20
53.592870062443126
 40
0.1
 50
225
 51
304.9999999999992
  0
ARC
  8
_0-0_
  6
CONTINUOUS
 62
    7
 10
76.295328564757938
 20
53.641659480580984
 40
0.1
 50
44.999999999998067
 51
125.00000000000365
  0
ARC
  8
_0-0_
  6
CONTINUOUS
 62
    7
 10
72.876960695370371
 20
53.592870062443126
 40
0.1
 50
224.99999999999866
 51
305.00000000000114
  0
ARC
  8
_0-0_
  6
CONTINUOUS
 62
    7
 10
72.545328564757938
 20
53.641659480580984
 40
0.1
 50
44.999999999998629
 51
125.0000000000024
  0
ARC
  8
_0-0_
  6
CONTINUOUS
 62
    7
 10
72.126960695370371
 20
53.592870062443126
 40
0.1
 50
225
 51
304.9999999999992
  0
ARC
  8
_0-0_
  6
CONTINUOUS
 62
    7
 10
71.795328564757938
 20
53.641659480580984
 40
0.1
 50
44.999999999998067
 51
125.00000000000365
  0
ARC
  8
_0-0_
  6
CONTINUOUS
 62
    7
 10
71.376960695370371
 20
53.592870062443126
 40
0.1
 50
224.99999999999866
 51
305.00000000000114
  0
ARC
  8
_0-0_
  6
CONTINUOUS
 62
    7
 10
71.045328564757938
 20
53.641659480580984
 40
0.1
 50
44.999999999998629
 51
125.0000000000024
  0
ARC
  8
_0-0_
  6
CONTINUOUS
 62
    7
 10
79.665583321181202
 20
55.662826080395007
 40
0.2999999999999999
 50
0
 51
90.000000000000028
  0
ARC
  8
_0-0_
  6
CONTINUOUS
 62
    7
 10
77.065583321181293
 20
63.462826080395189
 40
0.5
 50
90
 51
180
  0
ARC
  8
_0-0_
  6
CONTINUOUS
 62
    7
 10
81.765583321181111
 20
63.462826080395189
 40
0.5
 50
0
 51
90.000000000000028
  0
ARC
  8
_0-0_
  6
CONTINUOUS
 62
    7
 10
81.765583321181111
 20
61.462826080395189
 40
0.5
 50
90
 51
180
  0
ARC
  8
_0-0_
  6
CONTINUOUS
 62
    7
 10
81.765583321181111
 20
62.462826080395189
 40
0.5
 50
270
 51
0
  0
ARC
  8
_0-0_
  6
CONTINUOUS
 62
    7
 10
76.358476539994626
 20
57.962826080395189
 40
0.5
 50
270
 51
314.9999999999992
  0
ARC
  8
_0-0_
  6
CONTINUOUS
 62
    7
 10
73.565583321181293
 20
56.962826080395189
 40
0.5
 50
90
 51
180
  0
ARC
  8
_0-0_
  6
CONTINUOUS
 62
    7
 10
73.565583321181293
 20
56.66802860530197
 40
0.5
 50
180
 51
254.99999999999838
  0
ARC
  8
_0-0_
  6
CONTINUOUS
 62
    7
 10
79.465583321181157
 20
54.462826080395189
 40
0.5
 50
270
 51
0
  0
ARC
  8
_0-0_
  6
CONTINUOUS
 62
    7
 10
81.765583321181111
 20
58.869932861581674
 40
0.5
 50
180
 51
224.99999999999918
  0
ARC
  8
_0-0_
  6
CONTINUOUS
 62
    7
 10
81.965583321181157
 20
57.255719299208522
 40
0.5
 50
0.0000000000000508
 51
44.999999999999211
  0
ARC
  8
_0-0_
  6
CONTINUOUS
 62
    7
 10
74.331409569974994
 20
56.462826080395189
 40
0.5
 50
254.99999999999747
 51
270
  0
ARC
  8
_0-0_
  6
CONTINUOUS
 62
    7
 10
77.065583321181293
 20
62.462826080395189
 40
0.5
 50
180
 51
270
  0
ARC
  8
_0-0_
  6
CONTINUOUS
 62
    7
 10
78.265583321181111
 20
61.462826080395189
 40
0.5
 50
0
 51
90.000000000000028
  0
ARC
  8
_0-0_
  6
CONTINUOUS
 62
    7
 10
81.965583321181157
 20
52.462826080395189
 40
0.5
 50
270
 51
0
  0
ARC
  8
_0-0_
  6
CONTINUOUS
 62
    7
 10
72.083765139363095
 20
42.962826080395132
 40
0.5
 50
205.05761541830438
 51
270
  0
ARC
  8
_0-0_
  6
CONTINUOUS
 62
    7
 10
77.447401502999355
 20
42.962826080395132
 40
0.5
 50
270
 51
334.94238458169701
  0
ARC
  8
_0-0_
  6
CONTINUOUS
 62
    7
 10
74.435923641970248
 20
64.750768321756368
 40
0.1
 50
86.309932474025302
 51
178.39249775375112
  0
ARC
  8
_0-0_
  6
CONTINUOUS
 62
    7
 10
74.958903960817679
 20
64.717039740647124
 40
0.1
 50
0.2551187030587807
 51
86.309932474023597
  0
ARC
  8
_0-0_
  6
CONTINUOUS
 62
    7
 10
73.557713370172678
 20
56.449380545494023
 40
1
 50
180
 51
270
  0
ARC
  8
_0-0_
  6
CONTINUOUS
 62
    7
 10
71.457713370172542
 20
54.649380545493841
 40
0.1
 50
180
 51
270
  0
ARC
  8
_0-0_
  6
CONTINUOUS
 62
    7
 10
72.116292013935208
 20
54.449380545494023
 40
0.1
 50
45.000000000001677
 51
90.000000000000057
  0
ARC
  8
_0-0_
  6
CONTINUOUS
 62
    7
 10
72.700612973148736
 20
54.147902298755071
 40
0.1
 50
225.0000000000035
 51
267.94022224279126
  0
ARC
  8
_0-0_
  6
CONTINUOUS
 62
    7
 10
75.39013768929658
 20
53.851043160301742
 40
0.1
 50
40.000000000003006
 51
87.940222242791222
  0
ARC
  8
_0-0_
  6
CONTINUOUS
 62
    7
 10
75.870039053515939
 20
53.590263750774284
 40
0.1
 50
220.00000000000441
 51
310.0000000000025
  0
ARC
  8
_0-0_
  6
CONTINUOUS
 62
    7
 10
76.285505753454345
 20
53.677800247593041
 40
0.1
 50
40.000000000003304
 51
130.00000000000358
  0
ARC
  8
_0-0_
  6
CONTINUOUS
 62
    7
 10
76.620039053515939
 20
53.590263750774284
 40
0.1
 50
220.0000000000048
 51
310.00000000000335
  0
ARC
  8
_0-0_
  6
CONTINUOUS
 62
    7
 10
79.257713370172496
 20
55.449380545494023
 40
0.4998824974328499
 50
248.32214288913158
 51
110.00000000000512
  0
ARC
  8
_0-0_
  6
CONTINUOUS
 62
    7
 10
79.036124183435504
 20
54.891924499650486
 40
0.1
 50
68.322142889133517
 51
120.00000000000783
  0
ARC
  8
_0-0_
  6
CONTINUOUS
 62
    7
 10
77.778178472020272
 20
55.549380545493932
 40
0.1
 50
270
 51
290.00000000000023
  0
ARC
  8
_0-0_
  6
CONTINUOUS
 62
    7
 10
74.246933495022631
 20
63.363521786463934
 40
0.05
 50
333.21629472401474
 51
358.39249775375248
  0
ARC
  8
_0-0_
  6
CONTINUOUS
 62
    7
 10
75.015533980414602
 20
63.228159360657628
 40
0.05
 50
335.27695124788744
 51
0.2551187030538762
  0
ARC
  8
_0-0_
  6
CONTINUOUS
 62
    7
 10
73.057713370172678
 20
57.661000614809836
 40
0.5
 50
155.27695124788727
 51
180
  0
ARC
  8
_0-0_
  6
CONTINUOUS
 62
    7
 10
72.486624184021821
 20
57.546133719190948
 40
1
 50
153.2162947240148
 51
176.5317707410839
  0
LINE
  8
_0-0_
  6
CONTINUOUS
 62
    7
 10
137.56558332118135
 20
52.462826080395189
 11
137.56558332118135
 21
52.962826080395189
  0
LINE
  8
_0-0_
  6
CONTINUOUS
 62
    7
 10
138.06558332118135
 20
53.462826080395189
 11
140.6155833211813
 21
53.462826080395189
  0
LINE
  8
_0-0_
  6
CONTINUOUS
 62
    7
 10
140.6155833211813
 20
53.462826080395189
 11
141.05670593894689
 21
53.771703462629375
  0
LINE
  8
_0-0_
  6
CONTINUOUS
 62
    7
 10
141.05670593894689
 20
53.771703462629375
 11
141.3655833211813
 21
53.462826080394734
  0
LINE
  8
_0-0_
  6
CONTINUOUS
 62
    7
 10
141.3655833211813
 20
53.462826080394734
 11
141.73797092112301
 21
53.72357468500968
  0
LINE
  8
_0-0_
  6
CONTINUOUS
 62
    7
 10
141.86603924287675
 20
53.712370158699741
 11
142.1155833211813
 21
53.462826080395189
  0
LINE
  8
_0-0_
  6
CONTINUOUS
 62
    7
 10
142.1155833211813
 20
53.462826080395189
 11
142.55670593894689
 21
53.771703462629375
  0
LINE
  8
_0-0_
  6
CONTINUOUS
 62
    7
 10
142.55670593894689
 20
53.771703462629375
 11
142.8655833211813
 21
53.462826080394734
  0
LINE
  8
_0-0_
  6
CONTINUOUS
 62
    7
 10
142.8655833211813
 20
53.462826080394734
 11
143.23797092112301
 21
53.72357468500968
  0
LINE
  8
_0-0_
  6
CONTINUOUS
 62
    7
 10
143.36603924287675
 20
53.712370158699741
 11
143.6155833211813
 21
53.462826080395189
  0
LINE
  8
_0-0_
  6
CONTINUOUS
 62
    7
 10
143.6155833211813
 20
53.462826080395189
 11
144.05670593894689
 21
53.771703462629375
  0
LINE
  8
_0-0_
  6
CONTINUOUS
 62
    7
 10
144.05670593894689
 20
53.771703462629375
 11
144.3655833211813
 21
53.462826080394734
  0
LINE
  8
_0-0_
  6
CONTINUOUS
 62
    7
 10
144.3655833211813
 20
53.462826080394734
 11
144.73797092112301
 21
53.72357468500968
  0
LINE
  8
_0-0_
  6
CONTINUOUS
 62
    7
 10
144.72122699248604
 20
53.75440469190471
 11
144.43431781448459
 21
53.513659306462614
  0
LINE
  8
_0-0_
  6
CONTINUOUS
 62
    7
 10
144.2934346092041
 20
53.525984989805693
 11
143.96674213360853
 21
53.915321921270333
  0
LINE
  8
_0-0_
  6
CONTINUOUS
 62
    7
 10
143.89373190536077
 20
53.950978547482009
 11
141.19701875708489
 21
54.047966911574804
  0
LINE
  8
_0-0_
  6
CONTINUOUS
 62
    7
 10
141.12990229503026
 20
54.077191620636313
 11
140.68700269205402
 21
54.520091223612781
  0
LINE
  8
_0-0_
  6
CONTINUOUS
 62
    7
 10
140.61629201393549
 20
54.549380545493932
 11
139.95771337017283
 21
54.549380545493932
  0
LINE
  8
_0-0_
  6
CONTINUOUS
 62
    7
 10
139.85771337017269
 20
54.649380545493841
 11
139.85771337017269
 21
55.449380545494023
  0
LINE
  8
_0-0_
  6
CONTINUOUS
 62
    7
 10
139.85771337017269
 20
55.449380545494023
 11
139.98845568739085
 21
57.606628779592938
  0
LINE
  8
_0-0_
  6
CONTINUOUS
 62
    7
 10
140.09391017363583
 20
57.996757393291773
 11
142.79156919554231
 21
63.340990602758666
  0
LINE
  8
_0-0_
  6
CONTINUOUS
 62
    7
 10
142.79691381754498
 20
63.362119160147358
 11
142.83596299692618
 21
64.753573574389065
  0
LINE
  8
_0-0_
  6
CONTINUOUS
 62
    7
 10
142.94235957339521
 20
64.850561000779635
 11
143.46533989224241
 21
64.816832419670845
  0
LINE
  8
_0-0_
  6
CONTINUOUS
 62
    7
 10
143.5589029695098
 20
64.717485005311119
 11
143.56553348476069
 21
63.228381992989398
  0
LINE
  8
_0-0_
  6
CONTINUOUS
 62
    7
 10
143.56095098070824
 20
63.207247735078909
 11
141.10354336723782
 21
57.870116870596121
  0
LINE
  8
_0-0_
  6
CONTINUOUS
 62
    7
 10
141.05771337017273
 20
57.661000614809836
 11
141.05771337017273
 21
56.449380545494023
  0
LINE
  8
_0-0_
  6
CONTINUOUS
 62
    7
 10
142.05771337017273
 20
55.449380545494023
 11
146.27817847202033
 21
55.449380545494023
  0
LINE
  8
_0-0_
  6
CONTINUOUS
 62
    7
 10
146.31238048635288
 20
55.455411283415287
 11
147.58674348675487
 21
55.919116439592017
  0
LINE
  8
_0-0_
  6
CONTINUOUS
 62
    7
 10
147.48612418343561
 20
54.978527040028894
 11
145.70359016646972
 21
53.949380545494023
  0
LINE
  8
_0-0_
  6
CONTINUOUS
 62
    7
 10
145.70359016646972
 20
53.949380545494023
 11
145.18431781448459
 21
53.513659306462614
  0
LINE
  8
_0-0_
  6
CONTINUOUS
 62
    7
 10
145.1155833211813
 20
53.462826080395189
 11
145.55670593894689
 21
53.771703462629375
  0
LINE
  8
_0-0_
  6
CONTINUOUS
 62
    7
 10
145.55670593894689
 20
53.771703462629375
 11
145.8655833211813
 21
53.462826080394734
  0
LINE
  8
_0-0_
  6
CONTINUOUS
 62
    7
 10
145.8655833211813
 20
53.462826080394734
 11
146.23797092112301
 21
53.72357468500968
  0
LINE
  8
_0-0_
  6
CONTINUOUS
 62
    7
 10
146.36603924287675
 20
53.712370158699741
 11
146.6155833211813
 21
53.462826080395189
  0
LINE
  8
_0-0_
  6
CONTINUOUS
 62
    7
 10
146.6155833211813
 20
53.462826080395189
 11
147.32965732455233
 21
53.962826080395189
  0
LINE
  8
_0-0_
  6
CONTINUOUS
 62
    7
 10
147.32965732455233
 20
53.962826080395189
 11
149.46558332118121
 21
53.962826080395189
  0
LINE
  8
_0-0_
  6
CONTINUOUS
 62
    7
 10
149.96558332118121
 20
54.462826080395189
 11
149.96558332118121
 21
55.662826080395007
  0
LINE
  8
_0-0_
  6
CONTINUOUS
 62
    7
 10
149.66558332118126
 20
55.962826080395189
 11
144.33140956997505
 21
55.962826080395189
  0
LINE
  8
_0-0_
  6
CONTINUOUS
 62
    7
 10
144.20200004742361
 20
55.979863167250642
 11
143.43617379862991
 21
56.185065692157423
  0
LINE
  8
_0-0_
  6
CONTINUOUS
 62
    7
 10
143.06558332118135
 20
56.66802860530197
 11
143.06558332118135
 21
56.962826080395189
  0
LINE
  8
_0-0_
  6
CONTINUOUS
 62
    7
 10
143.56558332118135
 20
57.462826080395189
 11
146.35847653999468
 21
57.462826080395189
  0
LINE
  8
_0-0_
  6
CONTINUOUS
 62
    7
 10
146.71202993058802
 20
57.609272689801855
 11
148.6191367117745
 21
59.516379470987886
  0
LINE
  8
_0-0_
  6
CONTINUOUS
 62
    7
 10
148.76558332118117
 20
59.869932861581219
 11
148.76558332118117
 21
61.462826080395189
  0
LINE
  8
_0-0_
  6
CONTINUOUS
 62
    7
 10
148.26558332118117
 20
61.962826080395189
 11
147.06558332118135
 21
61.962826080395189
  0
LINE
  8
_0-0_
  6
CONTINUOUS
 62
    7
 10
146.56558332118135
 20
62.462826080395189
 11
146.56558332118135
 21
63.462826080395189
  0
LINE
  8
_0-0_
  6
CONTINUOUS
 62
    7
 10
147.06558332118135
 20
63.962826080395189
 11
151.76558332118117
 21
63.962826080395189
  0
LINE
  8
_0-0_
  6
CONTINUOUS
 62
    7
 10
152.26558332118117
 20
63.462826080395189
 11
152.26558332118117
 21
62.462826080395189
  0
LINE
  8
_0-0_
  6
CONTINUOUS
 62
    7
 10
151.26558332118117
 20
61.462826080395189
 11
151.26558332118117
 21
58.869932861581674
  0
LINE
  8
_0-0_
  6
CONTINUOUS
 62
    7
 10
151.41202993058806
 20
58.51637947098834
 11
152.31913671177455
 21
57.609272689801855
  0
LINE
  8
_0-0_
  6
CONTINUOUS
 62
    7
 10
152.46558332118121
 20
57.255719299208522
 11
152.46558332118121
 21
52.462826080395189
  0
LINE
  8
_0-0_
  6
CONTINUOUS
 62
    7
 10
151.96558332118121
 20
51.962826080395189
 11
149.71558332118144
 21
51.962826080395189
  0
LINE
  8
_0-0_
  6
CONTINUOUS
 62
    7
 10
149.71558332118144
 20
51.962826080395189
 11
149.71558332118144
 21
50.962826080395189
  0
LINE
  8
_0-0_
  6
CONTINUOUS
 62
    7
 10
149.71558332118144
 20
50.962826080395189
 11
148.16558332118149
 21
50.962826080395189
  0
LINE
  8
_0-0_
  6
CONTINUOUS
 62
    7
 10
147.66558332118149
 20
51.462826080395189
 11
146.16558332118149
 21
51.462826080395189
  0
LINE
  8
_0-0_
  6
CONTINUOUS
 62
    7
 10
145.66558332118149
 20
50.962826080395189
 11
145.66558332118149
 21
44.462826080395132
  0
LINE
  8
_0-0_
  6
CONTINUOUS
 62
    7
 10
146.16558332118149
 20
43.962826080395132
 11
146.82402487962287
 21
43.962826080395132
  0
LINE
  8
_0-0_
  6
CONTINUOUS
 62
    7
 10
147.27696605609327
 20
44.251061374512517
 11
149.39186292393157
 21
48.774590786277201
  0
LINE
  8
_0-0_
  6
CONTINUOUS
 62
    7
 10
149.84480410040197
 20
49.062826080395098
 11
150.06558332118135
 21
49.062826080395098
  0
LINE
  8
_0-0_
  6
CONTINUOUS
 62
    7
 10
150.51852449765198
 20
48.351061374512426
 11
147.90034267947004
 21
42.751061374512517
  0
LINE
  8
_0-0_
  6
CONTINUOUS
 62
    7
 10
147.44740150299941
 20
42.462826080395132
 11
142.08376513936315
 21
42.462826080395132
  0
LINE
  8
_0-0_
  6
CONTINUOUS
 62
    7
 10
141.63082396289252
 20
42.751061374512517
 11
139.01264214471058
 21
48.351061374512426
  0
LINE
  8
_0-0_
  6
CONTINUOUS
 62
    7
 10
139.46558332118121
 20
49.062826080395098
 11
139.68636254196059
 21
49.062826080395098
  0
LINE
  8
_0-0_
  6
CONTINUOUS
 62
    7
 10
140.13930371843122
 20
48.774590786277201
 11
142.25420058626906
 21
44.251061374512517
  0
LINE
  8
_0-0_
  6
CONTINUOUS
 62
    7
 10
142.7071417627397
 20
43.962826080395132
 11
143.3655833211813
 21
43.962826080395132
  0
LINE
  8
_0-0_
  6
CONTINUOUS
 62
    7
 10
143.8655833211813
 20
44.462826080395132
 11
143.8655833211813
 21
50.962826080395189
  0
LINE
  8
_0-0_
  6
CONTINUOUS
 62
    7
 10
143.3655833211813
 20
51.462826080395189
 11
141.8655833211813
 21
51.462826080395189
  0
LINE
  8
_0-0_
  6
CONTINUOUS
 62
    7
 10
141.3655833211813
 20
50.962826080395189
 11
139.81558332118135
 21
50.962826080395189
  0
LINE
  8
_0-0_
  6
CONTINUOUS
 62
    7
 10
139.81558332118135
 20
50.962826080395189
 11
139.81558332118135
 21
51.962826080395189
  0
LINE
  8
_0-0_
  6
CONTINUOUS
 62
    7
 10
139.81558332118135
 20
51.962826080395189
 11
138.06558332118135
 21
51.962826080395189
  0
LINE
  8
_0-0_
  6
CONTINUOUS
 62
    7
 10
145.0434346092041
 20
53.525984989805693
 11
144.86211019776653
 21
53.742079008561632
  0
LINE
  8
_0-0_
  6
CONTINUOUS
 62
    7
 10
144.86603924287675
 20
53.712370158699741
 11
145.1155833211813
 21
53.462826080395189
  0
ARC
  8
_0-0_
  6
CONTINUOUS
 62
    7
 10
141.8655833211813
 20
50.962826080395189
 40
0.5
 50
90
 51
180
  0
ARC
  8
_0-0_
  6
CONTINUOUS
 62
    7
 10
143.3655833211813
 20
50.962826080395189
 40
0.5
 50
0
 51
90.000000000000028
  0
ARC
  8
_0-0_
  6
CONTINUOUS
 62
    7
 10
146.16558332118149
 20
50.962826080395189
 40
0.5
 50
90
 51
180
  0
ARC
  8
_0-0_
  6
CONTINUOUS
 62
    7
 10
147.66558332118149
 20
50.962826080395189
 40
0.5
 50
0
 51
90.000000000000028
  0
ARC
  8
_0-0_
  6
CONTINUOUS
 62
    7
 10
138.06558332118135
 20
52.462826080395189
 40
0.5
 50
180
 51
270
  0
ARC
  8
_0-0_
  6
CONTINUOUS
 62
    7
 10
138.06558332118135
 20
52.962826080395189
 40
0.5
 50
90
 51
180
  0
ARC
  8
_0-0_
  6
CONTINUOUS
 62
    7
 10
143.3655833211813
 20
44.462826080395132
 40
0.5
 50
270
 51
0
  0
ARC
  8
_0-0_
  6
CONTINUOUS
 62
    7
 10
146.16558332118149
 20
44.462826080395132
 40
0.5
 50
180
 51
270
  0
ARC
  8
_0-0_
  6
CONTINUOUS
 62
    7
 10
139.46558332118121
 20
48.562826080395041
 40
0.5
 50
90
 51
205.05761541830333
  0
ARC
  8
_0-0_
  6
CONTINUOUS
 62
    7
 10
150.06558332118135
 20
48.562826080395041
 40
0.5
 50
334.94238458169667
 51
90
  0
ARC
  8
_0-0_
  6
CONTINUOUS
 62
    7
 10
139.68636254196059
 20
48.562826080395041
 40
0.5
 50
25.05761541830292
 51
90
  0
ARC
  8
_0-0_
  6
CONTINUOUS
 62
    7
 10
142.7071417627397
 20
44.462826080395132
 40
0.5
 50
205.05761541830293
 51
270
  0
ARC
  8
_0-0_
  6
CONTINUOUS
 62
    7
 10
149.84480410040197
 20
48.562826080395041
 40
0.5
 50
90
 51
154.94238458169724
  0
ARC
  8
_0-0_
  6
CONTINUOUS
 62
    7
 10
146.82402487962287
 20
44.462826080395132
 40
0.5
 50
270
 51
334.94238458169724
  0
ARC
  8
_0-0_
  6
CONTINUOUS
 62
    7
 10
148.26558332118117
 20
59.869932861581219
 40
0.5
 50
314.99999999999875
 51
359.99999999999994
  0
ARC
  8
_0-0_
  6
CONTINUOUS
 62
    7
 10
144.37696069537043
 20
53.592870062443126
 40
0.1
 50
224.99999999999866
 51
305.00000000000114
  0
ARC
  8
_0-0_
  6
CONTINUOUS
 62
    7
 10
144.04532856475799
 20
53.641659480580984
 40
0.1
 50
44.999999999998629
 51
125.0000000000024
  0
ARC
  8
_0-0_
  6
CONTINUOUS
 62
    7
 10
143.62696069537043
 20
53.592870062443126
 40
0.1
 50
225
 51
304.9999999999992
  0
ARC
  8
_0-0_
  6
CONTINUOUS
 62
    7
 10
143.29532856475799
 20
53.641659480580984
 40
0.1
 50
44.999999999998067
 51
125.00000000000365
  0
ARC
  8
_0-0_
  6
CONTINUOUS
 62
    7
 10
145.87696069537043
 20
53.592870062443126
 40
0.1
 50
224.99999999999866
 51
305.00000000000114
  0
ARC
  8
_0-0_
  6
CONTINUOUS
 62
    7
 10
145.54532856475799
 20
53.641659480580984
 40
0.1
 50
44.999999999998629
 51
125.0000000000024
  0
ARC
  8
_0-0_
  6
CONTINUOUS
 62
    7
 10
145.12696069537043
 20
53.592870062443126
 40
0.1
 50
225
 51
304.9999999999992
  0
ARC
  8
_0-0_
  6
CONTINUOUS
 62
    7
 10
144.79532856475799
 20
53.641659480580984
 40
0.1
 50
44.999999999998067
 51
125.00000000000365
  0
ARC
  8
_0-0_
  6
CONTINUOUS
 62
    7
 10
146.62696069537043
 20
53.592870062443126
 40
0.1
 50
225
 51
304.9999999999992
  0
ARC
  8
_0-0_
  6
CONTINUOUS
 62
    7
 10
146.29532856475799
 20
53.641659480580984
 40
0.1
 50
44.999999999998067
 51
125.00000000000365
  0
ARC
  8
_0-0_
  6
CONTINUOUS
 62
    7
 10
142.87696069537043
 20
53.592870062443126
 40
0.1
 50
224.99999999999866
 51
305.00000000000114
  0
ARC
  8
_0-0_
  6
CONTINUOUS
 62
    7
 10
142.54532856475799
 20
53.641659480580984
 40
0.1
 50
44.999999999998629
 51
125.0000000000024
  0
ARC
  8
_0-0_
  6
CONTINUOUS
 62
    7
 10
142.12696069537043
 20
53.592870062443126
 40
0.1
 50
225
 51
304.9999999999992
  0
ARC
  8
_0-0_
  6
CONTINUOUS
 62
    7
 10
141.79532856475799
 20
53.641659480580984
 40
0.1
 50
44.999999999998067
 51
125.00000000000365
  0
ARC
  8
_0-0_
  6
CONTINUOUS
 62
    7
 10
141.37696069537043
 20
53.592870062443126
 40
0.1
 50
224.99999999999866
 51
305.00000000000114
  0
ARC
  8
_0-0_
  6
CONTINUOUS
 62
    7
 10
141.04532856475799
 20
53.641659480580984
 40
0.1
 50
44.999999999998629
 51
125.0000000000024
  0
ARC
  8
_0-0_
  6
CONTINUOUS
 62
    7
 10
149.66558332118126
 20
55.662826080395007
 40
0.2999999999999999
 50
0
 51
90.000000000000028
  0
ARC
  8
_0-0_
  6
CONTINUOUS
 62
    7
 10
147.06558332118135
 20
63.462826080395189
 40
0.5
 50
90
 51
180
  0
ARC
  8
_0-0_
  6
CONTINUOUS
 62
    7
 10
151.76558332118117
 20
63.462826080395189
 40
0.5
 50
0
 51
90.000000000000028
  0
ARC
  8
_0-0_
  6
CONTINUOUS
 62
    7
 10
151.76558332118117
 20
61.462826080395189
 40
0.5
 50
90
 51
180
  0
ARC
  8
_0-0_
  6
CONTINUOUS
 62
    7
 10
151.76558332118117
 20
62.462826080395189
 40
0.5
 50
270
 51
0
  0
ARC
  8
_0-0_
  6
CONTINUOUS
 62
    7
 10
146.35847653999468
 20
57.962826080395189
 40
0.5
 50
270
 51
314.9999999999992
  0
ARC
  8
_0-0_
  6
CONTINUOUS
 62
    7
 10
143.56558332118135
 20
56.962826080395189
 40
0.5
 50
90
 51
180
  0
ARC
  8
_0-0_
  6
CONTINUOUS
 62
    7
 10
143.56558332118135
 20
56.66802860530197
 40
0.5
 50
180
 51
254.99999999999838
  0
ARC
  8
_0-0_
  6
CONTINUOUS
 62
    7
 10
149.46558332118121
 20
54.462826080395189
 40
0.5
 50
270
 51
0
  0
ARC
  8
_0-0_
  6
CONTINUOUS
 62
    7
 10
151.76558332118117
 20
58.869932861581674
 40
0.5
 50
180
 51
224.99999999999918
  0
ARC
  8
_0-0_
  6
CONTINUOUS
 62
    7
 10
151.96558332118121
 20
57.255719299208522
 40
0.5
 50
0.0000000000000508
 51
44.999999999999211
  0
ARC
  8
_0-0_
  6
CONTINUOUS
 62
    7
 10
144.33140956997505
 20
56.462826080395189
 40
0.5
 50
254.99999999999747
 51
270
  0
ARC
  8
_0-0_
  6
CONTINUOUS
 62
    7
 10
147.06558332118135
 20
62.462826080395189
 40
0.5
 50
180
 51
270
  0
ARC
  8
_0-0_
  6
CONTINUOUS
 62
    7
 10
148.26558332118117
 20
61.462826080395189
 40
0.5
 50
0
 51
90.000000000000028
  0
ARC
  8
_0-0_
  6
CONTINUOUS
 62
    7
 10
151.96558332118121
 20
52.462826080395189
 40
0.5
 50
270
 51
0
  0
ARC
  8
_0-0_
  6
CONTINUOUS
 62
    7
 10
142.08376513936315
 20
42.962826080395132
 40
0.5
 50
205.05761541830438
 51
270
  0
ARC
  8
_0-0_
  6
CONTINUOUS
 62
    7
 10
147.44740150299941
 20
42.962826080395132
 40
0.5
 50
270
 51
334.94238458169701
  0
ARC
  8
_0-0_
  6
CONTINUOUS
 62
    7
 10
142.93592364197053
 20
64.750768321756368
 40
0.1
 50
86.309932474025302
 51
178.39249775375112
  0
ARC
  8
_0-0_
  6
CONTINUOUS
 62
    7
 10
143.45890396081774
 20
64.717039740647124
 40
0.1
 50
0.2551187030587807
 51
86.309932474023597
  0
ARC
  8
_0-0_
  6
CONTINUOUS
 62
    7
 10
142.05771337017273
 20
56.449380545494023
 40
1
 50
180
 51
270
  0
ARC
  8
_0-0_
  6
CONTINUOUS
 62
    7
 10
139.95771337017283
 20
54.649380545493841
 40
0.1
 50
180
 51
270
  0
ARC
  8
_0-0_
  6
CONTINUOUS
 62
    7
 10
140.61629201393549
 20
54.449380545494023
 40
0.1
 50
45.000000000001677
 51
90.000000000000057
  0
ARC
  8
_0-0_
  6
CONTINUOUS
 62
    7
 10
141.20061297314902
 20
54.147902298755071
 40
0.1
 50
225.0000000000035
 51
267.94022224279126
  0
ARC
  8
_0-0_
  6
CONTINUOUS
 62
    7
 10
143.89013768929664
 20
53.851043160301742
 40
0.1
 50
40.000000000003006
 51
87.940222242791222
  0
ARC
  8
_0-0_
  6
CONTINUOUS
 62
    7
 10
144.370039053516
 20
53.590263750774284
 40
0.1
 50
220.00000000000441
 51
310.0000000000025
  0
ARC
  8
_0-0_
  6
CONTINUOUS
 62
    7
 10
144.78550575345463
 20
53.677800247593041
 40
0.1
 50
40.000000000003304
 51
130.00000000000358
  0
ARC
  8
_0-0_
  6
CONTINUOUS
 62
    7
 10
145.120039053516
 20
53.590263750774284
 40
0.1
 50
220.0000000000048
 51
310.00000000000335
  0
ARC
  8
_0-0_
  6
CONTINUOUS
 62
    7
 10
147.75771337017278
 20
55.449380545494023
 40
0.4998824974328499
 50
248.32214288913158
 51
110.00000000000512
  0
ARC
  8
_0-0_
  6
CONTINUOUS
 62
    7
 10
147.53612418343579
 20
54.891924499650486
 40
0.1
 50
68.322142889133517
 51
120.00000000000783
  0
ARC
  8
_0-0_
  6
CONTINUOUS
 62
    7
 10
146.27817847202033
 20
55.549380545493932
 40
0.1
 50
270
 51
290.00000000000023
  0
ARC
  8
_0-0_
  6
CONTINUOUS
 62
    7
 10
142.74693349502292
 20
63.363521786463934
 40
0.05
 50
333.21629472401474
 51
358.39249775375248
  0
ARC
  8
_0-0_
  6
CONTINUOUS
 62
    7
 10
143.51553398041489
 20
63.228159360657628
 40
0.05
 50
335.27695124788744
 51
0.2551187030538762
  0
ARC
  8
_0-0_
  6
CONTINUOUS
 62
    7
 10
141.55771337017273
 20
57.661000614809836
 40
0.5
 50
155.27695124788727
 51
180
  0
ARC
  8
_0-0_
  6
CONTINUOUS
 62
    7
 10
140.98662418402211
 20
57.546133719190948
 40
1
 50
153.2162947240148
 51
176.5317707410839
  0
LINE
  8
_0-0_
  6
CONTINUOUS
 62
    7
 10
208.06558332118135
 20
53.462826080395189
 11
210.61558332118153
 21
53.462826080395189
  0
LINE
  8
_0-0_
  6
CONTINUOUS
 62
    7
 10
210.61558332118153
 20
53.462826080395189
 11
211.05670593894712
 21
53.771703462629375
  0
LINE
  8
_0-0_
  6
CONTINUOUS
 62
    7
 10
211.05670593894712
 20
53.771703462629375
 11
211.36558332118153
 21
53.462826080394734
  0
LINE
  8
_0-0_
  6
CONTINUOUS
 62
    7
 10
211.36558332118153
 20
53.462826080394734
 11
211.73797092112301
 21
53.72357468500968
  0
LINE
  8
_0-0_
  6
CONTINUOUS
 62
    7
 10
211.86603924287675
 20
53.712370158699741
 11
212.11558332118153
 21
53.462826080395189
  0
LINE
  8
_0-0_
  6
CONTINUOUS
 62
    7
 10
212.11558332118153
 20
53.462826080395189
 11
212.55670593894712
 21
53.771703462629375
  0
LINE
  8
_0-0_
  6
CONTINUOUS
 62
    7
 10
212.55670593894712
 20
53.771703462629375
 11
212.86558332118153
 21
53.462826080394734
  0
LINE
  8
_0-0_
  6
CONTINUOUS
 62
    7
 10
212.86558332118153
 20
53.462826080394734
 11
213.23797092112301
 21
53.72357468500968
  0
LINE
  8
_0-0_
  6
CONTINUOUS
 62
    7
 10
213.36603924287675
 20
53.712370158699741
 11
213.61558332118153
 21
53.462826080395189
  0
LINE
  8
_0-0_
  6
CONTINUOUS
 62
    7
 10
213.61558332118153
 20
53.462826080395189
 11
214.05670593894712
 21
53.771703462629375
  0
LINE
  8
_0-0_
  6
CONTINUOUS
 62
    7
 10
214.05670593894712
 20
53.771703462629375
 11
214.36558332118153
 21
53.462826080394734
  0
LINE
  8
_0-0_
  6
CONTINUOUS
 62
    7
 10
214.36558332118153
 20
53.462826080394734
 11
214.73797092112301
 21
53.72357468500968
  0
LINE
  8
_0-0_
  6
CONTINUOUS
 62
    7
 10
214.86603924287675
 20
53.712370158699741
 11
215.11558332118153
 21
53.462826080395189
  0
LINE
  8
_0-0_
  6
CONTINUOUS
 62
    7
 10
215.11558332118153
 20
53.462826080395189
 11
215.55670593894712
 21
53.771703462629375
  0
LINE
  8
_0-0_
  6
CONTINUOUS
 62
    7
 10
215.55670593894712
 20
53.771703462629375
 11
215.86558332118153
 21
53.462826080394734
  0
LINE
  8
_0-0_
  6
CONTINUOUS
 62
    7
 10
215.86558332118153
 20
53.462826080394734
 11
216.23797092112301
 21
53.72357468500968
  0
LINE
  8
_0-0_
  6
CONTINUOUS
 62
    7
 10
216.36603924287675
 20
53.712370158699741
 11
216.61558332118153
 21
53.462826080395189
  0
LINE
  8
_0-0_
  6
CONTINUOUS
 62
    7
 10
216.61558332118153
 20
53.462826080395189
 11
217.32965732455256
 21
53.962826080395189
  0
LINE
  8
_0-0_
  6
CONTINUOUS
 62
    7
 10
217.32965732455256
 20
53.962826080395189
 11
219.46558332118144
 21
53.962826080395189
  0
LINE
  8
_0-0_
  6
CONTINUOUS
 62
    7
 10
219.96558332118144
 20
54.462826080395189
 11
219.96558332118144
 21
55.662826080395007
  0
LINE
  8
_0-0_
  6
CONTINUOUS
 62
    7
 10
219.66558332118149
 20
55.962826080395189
 11
214.33140956997505
 21
55.962826080395189
  0
LINE
  8
_0-0_
  6
CONTINUOUS
 62
    7
 10
214.20200004742384
 20
55.979863167250642
 11
213.43617379863014
 21
56.185065692157423
  0
LINE
  8
_0-0_
  6
CONTINUOUS
 62
    7
 10
213.06558332118135
 20
56.66802860530197
 11
213.06558332118135
 21
56.962826080395189
  0
LINE
  8
_0-0_
  6
CONTINUOUS
 62
    7
 10
213.56558332118135
 20
57.462826080395189
 11
216.35847653999491
 21
57.462826080395189
  0
LINE
  8
_0-0_
  6
CONTINUOUS
 62
    7
 10
216.71202993058824
 20
57.609272689801855
 11
218.61913671177473
 21
59.516379470987886
  0
LINE
  8
_0-0_
  6
CONTINUOUS
 62
    7
 10
218.7655833211814
 20
59.869932861581219
 11
218.7655833211814
 21
61.462826080395189
  0
LINE
  8
_0-0_
  6
CONTINUOUS
 62
    7
 10
218.2655833211814
 20
61.962826080395189
 11
217.06558332118135
 21
61.962826080395189
  0
LINE
  8
_0-0_
  6
CONTINUOUS
 62
    7
 10
216.56558332118135
 20
62.462826080395189
 11
216.56558332118135
 21
63.462826080395189
  0
LINE
  8
_0-0_
  6
CONTINUOUS
 62
    7
 10
217.06558332118135
 20
63.962826080395189
 11
221.7655833211814
 21
63.962826080395189
  0
LINE
  8
_0-0_
  6
CONTINUOUS
 62
    7
 10
222.2655833211814
 20
63.462826080395189
 11
222.2655833211814
 21
62.462826080395189
  0
LINE
  8
_0-0_
  6
CONTINUOUS
 62
    7
 10
221.2655833211814
 20
61.462826080395189
 11
221.2655833211814
 21
58.869932861581674
  0
LINE
  8
_0-0_
  6
CONTINUOUS
 62
    7
 10
221.41202993058806
 20
58.51637947098834
 11
222.31913671177477
 21
57.609272689801855
  0
LINE
  8
_0-0_
  6
CONTINUOUS
 62
    7
 10
222.46558332118144
 20
57.255719299208522
 11
222.46558332118144
 21
52.462826080395189
  0
LINE
  8
_0-0_
  6
CONTINUOUS
 62
    7
 10
221.96558332118144
 20
51.962826080395189
 11
219.71558332118144
 21
51.962826080395189
  0
LINE
  8
_0-0_
  6
CONTINUOUS
 62
    7
 10
219.71558332118144
 20
51.962826080395189
 11
219.71558332118144
 21
50.962826080395189
  0
LINE
  8
_0-0_
  6
CONTINUOUS
 62
    7
 10
219.71558332118144
 20
50.962826080395189
 11
218.16558332118149
 21
50.962826080395189
  0
LINE
  8
_0-0_
  6
CONTINUOUS
 62
    7
 10
217.66558332118149
 20
51.462826080395189
 11
216.16558332118149
 21
51.462826080395189
  0
LINE
  8
_0-0_
  6
CONTINUOUS
 62
    7
 10
215.66558332118149
 20
50.962826080395189
 11
215.66558332118149
 21
44.462826080395132
  0
LINE
  8
_0-0_
  6
CONTINUOUS
 62
    7
 10
216.16558332118149
 20
43.962826080395132
 11
216.8240248796231
 21
43.962826080395132
  0
LINE
  8
_0-0_
  6
CONTINUOUS
 62
    7
 10
217.2769660560935
 20
44.251061374512517
 11
219.39186292393157
 21
48.774590786277201
  0
LINE
  8
_0-0_
  6
CONTINUOUS
 62
    7
 10
219.8448041004022
 20
49.062826080395098
 11
220.06558332118135
 21
49.062826080395098
  0
LINE
  8
_0-0_
  6
CONTINUOUS
 62
    7
 10
220.51852449765198
 20
48.351061374512426
 11
217.90034267947027
 21
42.751061374512517
  0
LINE
  8
_0-0_
  6
CONTINUOUS
 62
    7
 10
217.44740150299964
 20
42.462826080395132
 11
212.08376513936315
 21
42.462826080395132
  0
LINE
  8
_0-0_
  6
CONTINUOUS
 62
    7
 10
211.63082396289275
 20
42.751061374512517
 11
209.01264214471081
 21
48.351061374512426
  0
LINE
  8
_0-0_
  6
CONTINUOUS
 62
    7
 10
209.46558332118144
 20
49.062826080395098
 11
209.68636254196059
 21
49.062826080395098
  0
LINE
  8
_0-0_
  6
CONTINUOUS
 62
    7
 10
210.13930371843122
 20
48.774590786277201
 11
212.25420058626929
 21
44.251061374512517
  0
LINE
  8
_0-0_
  6
CONTINUOUS
 62
    7
 10
212.70714176273992
 20
43.962826080395132
 11
213.36558332118153
 21
43.962826080395132
  0
LINE
  8
_0-0_
  6
CONTINUOUS
 62
    7
 10
213.86558332118153
 20
44.462826080395132
 11
213.86558332118153
 21
50.962826080395189
  0
LINE
  8
_0-0_
  6
CONTINUOUS
 62
    7
 10
213.36558332118153
 20
51.462826080395189
 11
211.86558332118153
 21
51.462826080395189
  0
LINE
  8
_0-0_
  6
CONTINUOUS
 62
    7
 10
211.36558332118153
 20
50.962826080395189
 11
209.81558332118135
 21
50.962826080395189
  0
LINE
  8
_0-0_
  6
CONTINUOUS
 62
    7
 10
209.81558332118135
 20
50.962826080395189
 11
209.81558332118135
 21
51.962826080395189
  0
LINE
  8
_0-0_
  6
CONTINUOUS
 62
    7
 10
209.81558332118135
 20
51.962826080395189
 11
208.06558332118135
 21
51.962826080395189
  0
LINE
  8
_0-0_
  6
CONTINUOUS
 62
    7
 10
207.56558332118135
 20
52.462826080395189
 11
207.56558332118135
 21
52.962826080395189
  0
LINE
  8
_0-0_
  6
CONTINUOUS
 62
    7
 10
207.63062756076653
 20
54.649380545493841
 11
207.63062756076653
 21
55.449380545494023
  0
LINE
  8
_0-0_
  6
CONTINUOUS
 62
    7
 10
207.63062756076653
 20
55.449380545494023
 11
207.74832348814454
 21
57.391363347228889
  0
LINE
  8
_0-0_
  6
CONTINUOUS
 62
    7
 10
207.86197869566814
 20
57.797383282719238
 11
210.7969631294448
 21
63.362119160147358
  0
LINE
  8
_0-0_
  6
CONTINUOUS
 62
    7
 10
210.7969631294448
 20
63.362119160147358
 11
210.83601230882601
 21
64.753573574389065
  0
LINE
  8
_0-0_
  6
CONTINUOUS
 62
    7
 10
210.94240888529504
 20
64.850561000779635
 11
211.46538920414224
 21
64.816832419670845
  0
LINE
  8
_0-0_
  6
CONTINUOUS
 62
    7
 10
211.55895228140963
 20
64.717485005311119
 11
211.56558279666052
 21
63.228381992989398
  0
LINE
  8
_0-0_
  6
CONTINUOUS
 62
    7
 10
211.56558279666052
 20
63.228381992989398
 11
208.88185362662176
 21
57.765278389223568
  0
LINE
  8
_0-0_
  6
CONTINUOUS
 62
    7
 10
208.83062756076657
 20
57.544819876046404
 11
208.83062756076657
 21
56.449380545494023
  0
LINE
  8
_0-0_
  6
CONTINUOUS
 62
    7
 10
209.83062756076657
 20
55.449380545494023
 11
214.05109266261417
 21
55.449380545494023
  0
LINE
  8
_0-0_
  6
CONTINUOUS
 62
    7
 10
214.08529467694672
 20
55.455411283415287
 11
215.35965767734871
 21
55.919116439592017
  0
LINE
  8
_0-0_
  6
CONTINUOUS
 62
    7
 10
215.25903837402944
 20
54.978527040028894
 11
213.47650435706356
 21
53.949380545494023
  0
LINE
  8
_0-0_
  6
CONTINUOUS
 62
    7
 10
213.47650435706356
 20
53.949380545494023
 11
212.95723200507842
 21
53.513659306462614
  0
LINE
  8
_0-0_
  6
CONTINUOUS
 62
    7
 10
212.81634879979794
 20
53.525984989805693
 11
212.63502438836036
 21
53.742079008561632
  0
LINE
  8
_0-0_
  6
CONTINUOUS
 62
    7
 10
212.49414118307988
 20
53.75440469190471
 11
212.20723200507842
 21
53.513659306462614
  0
LINE
  8
_0-0_
  6
CONTINUOUS
 62
    7
 10
212.06634879979794
 20
53.525984989805693
 11
211.73965632420237
 21
53.915321921270333
  0
LINE
  8
_0-0_
  6
CONTINUOUS
 62
    7
 10
211.6666460959546
 20
53.950978547482009
 11
208.96993294767873
 21
54.047966911574804
  0
LINE
  8
_0-0_
  6
CONTINUOUS
 62
    7
 10
208.9028164856241
 20
54.077191620636313
 11
208.45991688264786
 21
54.520091223612781
  0
LINE
  8
_0-0_
  6
CONTINUOUS
 62
    7
 10
208.38920620452933
 20
54.549380545493932
 11
207.73062756076666
 21
54.549380545493932
  0
ARC
  8
_0-0_
  6
CONTINUOUS
 62
    7
 10
211.86558332118153
 20
50.962826080395189
 40
0.5
 50
90
 51
180
  0
ARC
  8
_0-0_
  6
CONTINUOUS
 62
    7
 10
213.36558332118153
 20
50.962826080395189
 40
0.5
 50
0
 51
90.000000000000028
  0
ARC
  8
_0-0_
  6
CONTINUOUS
 62
    7
 10
216.16558332118149
 20
50.962826080395189
 40
0.5
 50
90
 51
180
  0
ARC
  8
_0-0_
  6
CONTINUOUS
 62
    7
 10
217.66558332118149
 20
50.962826080395189
 40
0.5
 50
0
 51
90.000000000000028
  0
ARC
  8
_0-0_
  6
CONTINUOUS
 62
    7
 10
208.06558332118135
 20
52.462826080395189
 40
0.5
 50
180
 51
270
  0
ARC
  8
_0-0_
  6
CONTINUOUS
 62
    7
 10
208.06558332118135
 20
52.962826080395189
 40
0.5
 50
90
 51
180
  0
ARC
  8
_0-0_
  6
CONTINUOUS
 62
    7
 10
213.36558332118153
 20
44.462826080395132
 40
0.5
 50
270
 51
0
  0
ARC
  8
_0-0_
  6
CONTINUOUS
 62
    7
 10
216.16558332118149
 20
44.462826080395132
 40
0.5
 50
180
 51
270
  0
ARC
  8
_0-0_
  6
CONTINUOUS
 62
    7
 10
209.46558332118144
 20
48.562826080395041
 40
0.5
 50
90
 51
205.05761541830333
  0
ARC
  8
_0-0_
  6
CONTINUOUS
 62
    7
 10
220.06558332118135
 20
48.562826080395041
 40
0.5
 50
334.94238458169667
 51
90
  0
ARC
  8
_0-0_
  6
CONTINUOUS
 62
    7
 10
209.68636254196059
 20
48.562826080395041
 40
0.5
 50
25.05761541830292
 51
90
  0
ARC
  8
_0-0_
  6
CONTINUOUS
 62
    7
 10
212.70714176273992
 20
44.462826080395132
 40
0.5
 50
205.05761541830293
 51
270
  0
ARC
  8
_0-0_
  6
CONTINUOUS
 62
    7
 10
219.8448041004022
 20
48.562826080395041
 40
0.5
 50
90
 51
154.94238458169724
  0
ARC
  8
_0-0_
  6
CONTINUOUS
 62
    7
 10
216.8240248796231
 20
44.462826080395132
 40
0.5
 50
270
 51
334.94238458169724
  0
ARC
  8
_0-0_
  6
CONTINUOUS
 62
    7
 10
218.2655833211814
 20
59.869932861581219
 40
0.5
 50
314.99999999999875
 51
359.99999999999994
  0
ARC
  8
_0-0_
  6
CONTINUOUS
 62
    7
 10
214.37696069537043
 20
53.592870062443126
 40
0.1
 50
224.99999999999866
 51
305.00000000000114
  0
ARC
  8
_0-0_
  6
CONTINUOUS
 62
    7
 10
214.04532856475822
 20
53.641659480580984
 40
0.1
 50
44.999999999998629
 51
125.0000000000024
  0
ARC
  8
_0-0_
  6
CONTINUOUS
 62
    7
 10
213.62696069537043
 20
53.592870062443126
 40
0.1
 50
225
 51
304.9999999999992
  0
ARC
  8
_0-0_
  6
CONTINUOUS
 62
    7
 10
213.29532856475822
 20
53.641659480580984
 40
0.1
 50
44.999999999998067
 51
125.00000000000365
  0
ARC
  8
_0-0_
  6
CONTINUOUS
 62
    7
 10
215.87696069537043
 20
53.592870062443126
 40
0.1
 50
224.99999999999866
 51
305.00000000000114
  0
ARC
  8
_0-0_
  6
CONTINUOUS
 62
    7
 10
215.54532856475822
 20
53.641659480580984
 40
0.1
 50
44.999999999998629
 51
125.0000000000024
  0
ARC
  8
_0-0_
  6
CONTINUOUS
 62
    7
 10
215.12696069537043
 20
53.592870062443126
 40
0.1
 50
225
 51
304.9999999999992
  0
ARC
  8
_0-0_
  6
CONTINUOUS
 62
    7
 10
214.79532856475822
 20
53.641659480580984
 40
0.1
 50
44.999999999998067
 51
125.00000000000365
  0
ARC
  8
_0-0_
  6
CONTINUOUS
 62
    7
 10
216.62696069537043
 20
53.592870062443126
 40
0.1
 50
225
 51
304.9999999999992
  0
ARC
  8
_0-0_
  6
CONTINUOUS
 62
    7
 10
216.29532856475822
 20
53.641659480580984
 40
0.1
 50
44.999999999998067
 51
125.00000000000365
  0
ARC
  8
_0-0_
  6
CONTINUOUS
 62
    7
 10
212.87696069537043
 20
53.592870062443126
 40
0.1
 50
224.99999999999866
 51
305.00000000000114
  0
ARC
  8
_0-0_
  6
CONTINUOUS
 62
    7
 10
212.54532856475822
 20
53.641659480580984
 40
0.1
 50
44.999999999998629
 51
125.0000000000024
  0
ARC
  8
_0-0_
  6
CONTINUOUS
 62
    7
 10
212.12696069537043
 20
53.592870062443126
 40
0.1
 50
225
 51
304.9999999999992
  0
ARC
  8
_0-0_
  6
CONTINUOUS
 62
    7
 10
211.79532856475822
 20
53.641659480580984
 40
0.1
 50
44.999999999998067
 51
125.00000000000365
  0
ARC
  8
_0-0_
  6
CONTINUOUS
 62
    7
 10
211.37696069537043
 20
53.592870062443126
 40
0.1
 50
224.99999999999866
 51
305.00000000000114
  0
ARC
  8
_0-0_
  6
CONTINUOUS
 62
    7
 10
211.04532856475822
 20
53.641659480580984
 40
0.1
 50
44.999999999998629
 51
125.0000000000024
  0
ARC
  8
_0-0_
  6
CONTINUOUS
 62
    7
 10
219.66558332118149
 20
55.662826080395007
 40
0.2999999999999999
 50
0
 51
90.000000000000028
  0
ARC
  8
_0-0_
  6
CONTINUOUS
 62
    7
 10
217.06558332118135
 20
63.462826080395189
 40
0.5
 50
90
 51
180
  0
ARC
  8
_0-0_
  6
CONTINUOUS
 62
    7
 10
221.7655833211814
 20
63.462826080395189
 40
0.5
 50
0
 51
90.000000000000028
  0
ARC
  8
_0-0_
  6
CONTINUOUS
 62
    7
 10
221.7655833211814
 20
61.462826080395189
 40
0.5
 50
90
 51
180
  0
ARC
  8
_0-0_
  6
CONTINUOUS
 62
    7
 10
221.7655833211814
 20
62.462826080395189
 40
0.5
 50
270
 51
0
  0
ARC
  8
_0-0_
  6
CONTINUOUS
 62
    7
 10
216.35847653999491
 20
57.962826080395189
 40
0.5
 50
270
 51
314.9999999999992
  0
ARC
  8
_0-0_
  6
CONTINUOUS
 62
    7
 10
213.56558332118135
 20
56.962826080395189
 40
0.5
 50
90
 51
180
  0
ARC
  8
_0-0_
  6
CONTINUOUS
 62
    7
 10
213.56558332118135
 20
56.66802860530197
 40
0.5
 50
180
 51
254.99999999999838
  0
ARC
  8
_0-0_
  6
CONTINUOUS
 62
    7
 10
219.46558332118144
 20
54.462826080395189
 40
0.5
 50
270
 51
0
  0
ARC
  8
_0-0_
  6
CONTINUOUS
 62
    7
 10
221.7655833211814
 20
58.869932861581674
 40
0.5
 50
180
 51
224.99999999999918
  0
ARC
  8
_0-0_
  6
CONTINUOUS
 62
    7
 10
221.96558332118144
 20
57.255719299208522
 40
0.5
 50
0.0000000000000508
 51
44.999999999999211
  0
ARC
  8
_0-0_
  6
CONTINUOUS
 62
    7
 10
214.33140956997505
 20
56.462826080395189
 40
0.5
 50
254.99999999999747
 51
270
  0
ARC
  8
_0-0_
  6
CONTINUOUS
 62
    7
 10
217.06558332118135
 20
62.462826080395189
 40
0.5
 50
180
 51
270
  0
ARC
  8
_0-0_
  6
CONTINUOUS
 62
    7
 10
218.2655833211814
 20
61.462826080395189
 40
0.5
 50
0
 51
90.000000000000028
  0
ARC
  8
_0-0_
  6
CONTINUOUS
 62
    7
 10
221.96558332118144
 20
52.462826080395189
 40
0.5
 50
270
 51
0
  0
ARC
  8
_0-0_
  6
CONTINUOUS
 62
    7
 10
212.08376513936315
 20
42.962826080395132
 40
0.5
 50
205.05761541830438
 51
270
  0
ARC
  8
_0-0_
  6
CONTINUOUS
 62
    7
 10
217.44740150299964
 20
42.962826080395132
 40
0.5
 50
270
 51
334.94238458169701
  0
ARC
  8
_0-0_
  6
CONTINUOUS
 62
    7
 10
209.83062756076657
 20
56.449380545494023
 40
1
 50
180
 51
270
  0
ARC
  8
_0-0_
  6
CONTINUOUS
 62
    7
 10
207.73062756076666
 20
54.649380545493841
 40
0.1
 50
180
 51
270
  0
ARC
  8
_0-0_
  6
CONTINUOUS
 62
    7
 10
208.38920620452933
 20
54.449380545494023
 40
0.1
 50
45.000000000001677
 51
90.000000000000057
  0
ARC
  8
_0-0_
  6
CONTINUOUS
 62
    7
 10
208.97352716374286
 20
54.147902298755071
 40
0.1
 50
225.0000000000035
 51
267.94022224279126
  0
ARC
  8
_0-0_
  6
CONTINUOUS
 62
    7
 10
211.66305187989047
 20
53.851043160301742
 40
0.1
 50
40.000000000003006
 51
87.940222242791222
  0
ARC
  8
_0-0_
  6
CONTINUOUS
 62
    7
 10
212.14295324410983
 20
53.590263750774284
 40
0.1
 50
220.00000000000441
 51
310.0000000000025
  0
ARC
  8
_0-0_
  6
CONTINUOUS
 62
    7
 10
212.55841994404847
 20
53.677800247593041
 40
0.1
 50
40.000000000003304
 51
130.00000000000358
  0
ARC
  8
_0-0_
  6
CONTINUOUS
 62
    7
 10
212.89295324410983
 20
53.590263750774284
 40
0.1
 50
220.0000000000048
 51
310.00000000000335
  0
ARC
  8
_0-0_
  6
CONTINUOUS
 62
    7
 10
215.53062756076662
 20
55.449380545494023
 40
0.4998824974328499
 50
248.32214288913158
 51
110.00000000000512
  0
ARC
  8
_0-0_
  6
CONTINUOUS
 62
    7
 10
215.30903837402963
 20
54.891924499650486
 40
0.1
 50
68.322142889133517
 51
120.00000000000783
  0
ARC
  8
_0-0_
  6
CONTINUOUS
 62
    7
 10
214.05109266261417
 20
55.549380545493932
 40
0.1
 50
270
 51
290.00000000000023
  0
ARC
  8
_0-0_
  6
CONTINUOUS
 62
    7
 10
210.93597295387036
 20
64.750768321756368
 40
0.1
 50
86.309932474025302
 51
178.39249775375112
  0
ARC
  8
_0-0_
  6
CONTINUOUS
 62
    7
 10
211.45895327271757
 20
64.717039740647124
 40
0.1
 50
0.2551187030587807
 51
86.309932474023597
  0
ARC
  8
_0-0_
  6
CONTINUOUS
 62
    7
 10
208.74649198477556
 20
57.330868286826899
 40
1
 50
152.19168587954206
 51
176.5317707410845
  0
ARC
  8
_0-0_
  6
CONTINUOUS
 62
    7
 10
209.33062756076657
 20
57.544819876046404
 40
0.5
 50
153.83759432950114
 51
180
  0
LINE
  8
_0-0_
  6
CONTINUOUS
 62
    7
 10
7.4433745850276409
 20
54.649380545493955
 11
8.1019532287903075
 21
54.649380545493955
  0
LINE
  8
_0-0_
  6
CONTINUOUS
 62
    7
 10
8.1726639069090652
 20
54.620091223612803
 11
8.615563509885078
 21
54.177191620636336
  0
LINE
  8
_0-0_
  6
CONTINUOUS
 62
    7
 10
8.6826799719397059
 20
54.147966911574827
 11
11.379393120215582
 21
54.050978547482032
  0
LINE
  8
_0-0_
  6
CONTINUOUS
 62
    7
 10
11.452403348463349
 20
54.015321921270356
 11
11.779095824058913
 21
53.625984989805715
  0
LINE
  8
_0-0_
  6
CONTINUOUS
 62
    7
 10
11.919979029339402
 20
53.613659306462637
 11
12.206888207340853
 21
53.854404691904733
  0
LINE
  8
_0-0_
  6
CONTINUOUS
 62
    7
 10
12.347771412621341
 20
53.842079008561655
 11
12.529095824058913
 21
53.625984989805715
  0
LINE
  8
_0-0_
  6
CONTINUOUS
 62
    7
 10
12.669979029339402
 20
53.613659306462637
 11
13.189251381324766
 21
54.049380545494046
  0
LINE
  8
_0-0_
  6
CONTINUOUS
 62
    7
 10
13.189251381324766
 20
54.049380545494046
 11
14.971785398290422
 21
55.078527040028916
  0
LINE
  8
_0-0_
  6
CONTINUOUS
 62
    7
 10
15.072404701609685
 20
56.01911643959204
 11
13.798041701207922
 21
55.55541128341531
  0
LINE
  8
_0-0_
  6
CONTINUOUS
 62
    7
 10
13.763839686875372
 20
55.549380545494046
 11
9.54337458502755
 21
55.549380545494046
  0
LINE
  8
_0-0_
  6
CONTINUOUS
 62
    7
 10
8.54337458502755
 20
56.549380545494046
 11
8.54337458502755
 21
57.870580802377958
  0
LINE
  8
_0-0_
  6
CONTINUOUS
 62
    7
 10
7.4865982986109429
 20
57.912571819619302
 11
7.3433745850277319
 21
55.549380545494046
  0
LINE
  8
_0-0_
  6
CONTINUOUS
 62
    7
 10
7.3433745850277319
 20
55.549380545494046
 11
7.3433745850277319
 21
54.749380545493864
  0
LINE
  8
_0-0_
  6
CONTINUOUS
 62
    7
 10
8.9163651798160117
 20
58.649592487640916
 11
12.628637196639602
 21
61.637518745084094
  0
LINE
  8
_0-0_
  6
CONTINUOUS
 62
    7
 10
12.652760570330656
 20
61.665806019774777
 11
13.39706449114783
 21
62.96833788120432
  0
LINE
  8
_0-0_
  6
CONTINUOUS
 62
    7
 10
13.365710196557984
 20
63.101156804473817
 11
12.929660245311425
 21
63.39185677197122
  0
LINE
  8
_0-0_
  6
CONTINUOUS
 62
    7
 10
12.789024394018497
 20
63.361061485104187
 11
12.053627836384976
 21
62.166042078949545
  0
LINE
  8
_0-0_
  6
CONTINUOUS
 62
    7
 10
12.027598371077147
 20
62.137811321930371
 11
8.3002079646182665
 21
59.404391690527177
  0
ARC
  8
_0-0_
  6
CONTINUOUS
 62
    7
 10
9.54337458502755
 20
56.549380545494046
 40
1
 50
180
 51
270
  0
ARC
  8
_0-0_
  6
CONTINUOUS
 62
    7
 10
7.4433745850276409
 20
54.749380545493864
 40
0.1
 50
180
 51
270
  0
ARC
  8
_0-0_
  6
CONTINUOUS
 62
    7
 10
8.1019532287903075
 20
54.549380545494046
 40
0.1
 50
45.000000000001677
 51
90.000000000000057
  0
ARC
  8
_0-0_
  6
CONTINUOUS
 62
    7
 10
8.6862741880038357
 20
54.247902298755093
 40
0.1
 50
225.0000000000035
 51
267.94022224279126
  0
ARC
  8
_0-0_
  6
CONTINUOUS
 62
    7
 10
11.375798904151452
 20
53.951043160301765
 40
0.1
 50
40.000000000003006
 51
87.940222242791222
  0
ARC
  8
_0-0_
  6
CONTINUOUS
 62
    7
 10
11.855700268370811
 20
53.690263750774307
 40
0.1
 50
220.00000000000441
 51
310.0000000000025
  0
ARC
  8
_0-0_
  6
CONTINUOUS
 62
    7
 10
12.271166968309444
 20
53.777800247593063
 40
0.1
 50
40.000000000003304
 51
130.00000000000358
  0
ARC
  8
_0-0_
  6
CONTINUOUS
 62
    7
 10
12.605700268370811
 20
53.690263750774307
 40
0.1
 50
220.0000000000048
 51
310.00000000000335
  0
ARC
  8
_0-0_
  6
CONTINUOUS
 62
    7
 10
15.243374585027595
 20
55.549380545494046
 40
0.4998824974328499
 50
248.32214288913158
 51
110.00000000000512
  0
ARC
  8
_0-0_
  6
CONTINUOUS
 62
    7
 10
15.021785398290604
 20
54.991924499650509
 40
0.1
 50
68.322142889133517
 51
120.00000000000783
  0
ARC
  8
_0-0_
  6
CONTINUOUS
 62
    7
 10
13.763839686875372
 20
55.649380545493955
 40
0.1
 50
270
 51
290.00000000000023
  0
ARC
  8
_0-0_
  6
CONTINUOUS
 62
    7
 10
12.874190225688835
 20
63.308651742537791
 40
0.1
 50
56.309932474025288
 51
148.39249775375112
  0
ARC
  8
_0-0_
  6
CONTINUOUS
 62
    7
 10
13.310240176935395
 20
63.017951775039933
 40
0.1
 50
330.25511870305877
 51
56.309932474023576
  0
ARC
  8
_0-0_
  6
CONTINUOUS
 62
    7
 10
12.565936256118448
 20
61.71541991361039
 40
0.1
 50
308.82982490496772
 51
330.25511870305377
  0
ARC
  8
_0-0_
  6
CONTINUOUS
 62
    7
 10
11.968462004714411
 20
62.218451821515941
 40
0.1
 50
306.25383773744483
 51
328.39249775375094
  0
ARC
  8
_0-0_
  6
CONTINUOUS
 62
    7
 10
9.4829352918734457
 20
57.791581698815776
 40
2
 50
126.25383773744474
 51
176.53177074108308
  0
ARC
  8
_0-0_
  6
CONTINUOUS
 62
    7
 10
9.54337458502755
 20
57.870580802377958
 40
1
 50
128.82982490497074
 51
180
  0
LINE
  8
ADD_LINE
  6
DOT
 62
  152
 10
69.815583321181293
 20
31.962826080395132
 11
79.715583321181384
 21
31.962826080395132
  0
LINE
  8
ADD_LINE
  6
DOT
 62
  152
 10
74.765583321181339
 20
31.962826080395132
 11
74.765583321181339
 21
51.962826080395189
  0
LINE
  8
ADD_LINE
  6
DOT
 62
  152
 10
79.715583321181384
 20
51.962826080395189
 11
69.815583321181293
 21
51.962826080395189
  0
TEXT
  8
_0-1_
 62
    7
 10
69.837665378767269
 20
22.494857931468175
 40
5
 41
1
 50
0
  1
t1.5
  0
LINE
  8
ADD_LINE
  6
DOT
 62
  152
 10
139.81558332118135
 20
51.962826080395189
 11
149.71558332118144
 21
51.962826080395189
  0
LINE
  8
ADD_LINE
  6
DOT
 62
  152
 10
144.7655833211814
 20
51.962826080395189
 11
144.7655833211814
 21
31.962826080395132
  0
LINE
  8
ADD_LINE
  6
DOT
 62
  152
 10
149.71558332118144
 20
31.962826080395132
 11
139.81558332118135
 21
31.962826080395132
  0
TEXT
  8
_0-1_
 62
    7
 10
139.66456620125547
 20
22.306298180305873
 40
5
 41
1
 50
0
  1
t3.0
  0
LINE
  8
ADD_LINE
  6
DOT
 62
  152
 10
209.81558332118135
 20
51.962826080395189
 11
219.71558332118144
 21
51.962826080395189
  0
LINE
  8
ADD_LINE
  6
DOT
 62
  152
 10
214.7655833211814
 20
51.962826080395189
 11
214.7655833211814
 21
31.962826080395132
  0
LINE
  8
ADD_LINE
  6
DOT
 62
  152
 10
209.81558332118135
 20
31.962826080395132
 11
219.71558332118144
 21
31.962826080395132
  0
TEXT
  8
_0-1_
 62
    7
 10
210.68236895048614
 20
23.060537184954171
 40
5
 41
1
 50
0
  1
t5.0
  0
LINE
  8
_0-1_
  6
PHANTOM1
 62
  152
 10
54.765583321181339
 20
11.962826080395132
 11
94.765583321181396
 21
11.962826080395132
  0
LINE
  8
_0-1_
  6
PHANTOM1
 62
  152
 10
94.765583321181396
 20
11.962826080395132
 11
94.765583321181396
 21
51.962826080395132
  0
LINE
  8
_0-1_
  6
PHANTOM1
 62
  152
 10
94.765583321181396
 20
51.962826080395132
 11
54.765583321181339
 21
51.962826080395132
  0
LINE
  8
_0-1_
  6
PHANTOM1
 62
  152
 10
54.765583321181339
 20
51.962826080395132
 11
54.765583321181339
 21
11.962826080395132
  0
LINE
  8
_0-1_
  6
PHANTOM1
 62
  152
 10
124.7655833211814
 20
11.962826080395132
 11
164.7655833211814
 21
11.962826080395132
  0
LINE
  8
_0-1_
  6
PHANTOM1
 62
  152
 10
164.7655833211814
 20
11.962826080395132
 11
164.7655833211814
 21
51.962826080395132
  0
LINE
  8
_0-1_
  6
PHANTOM1
 62
  152
 10
164.7655833211814
 20
51.962826080395132
 11
124.7655833211814
 21
51.962826080395132
  0
LINE
  8
_0-1_
  6
PHANTOM1
 62
  152
 10
124.7655833211814
 20
51.962826080395132
 11
124.7655833211814
 21
11.962826080395132
  0
LINE
  8
_0-1_
  6
PHANTOM1
 62
  152
 10
194.7655833211814
 20
11.962826080395132
 11
234.7655833211814
 21
11.962826080395132
  0
LINE
  8
_0-1_
  6
PHANTOM1
 62
  152
 10
234.7655833211814
 20
11.962826080395132
 11
234.7655833211814
 21
51.962826080395132
  0
LINE
  8
_0-1_
  6
PHANTOM1
 62
  152
 10
234.7655833211814
 20
51.962826080395132
 11
194.7655833211814
 21
51.962826080395132
  0
LINE
  8
_0-1_
  6
PHANTOM1
 62
  152
 10
194.7655833211814
 20
51.962826080395132
 11
194.7655833211814
 21
11.962826080395132
  0
LINE
  8
_0-1_
  6
PHANTOM1
 62
  152
 10
76.565583321181293
 20
57.962826080395189
 11
75.065583321181293
 21
57.962826080395189
  0
LINE
  8
_0-1_
  6
PHANTOM1
 62
  152
 10
74.053857563112388
 20
80.432738529701794
 11
77.884616898005106
 21
79.406289659519302
  0
LINE
  8
_0-1_
  6
PHANTOM1
 62
  152
 10
76.565583321181293
 20
79.759723641218784
 11
76.565583321181293
 21
57.962826080395189
  0
LINE
  8
_0-1_
  6
PHANTOM1
 62
  152
 10
75.065583321181293
 20
80.161647429865411
 11
75.065583321181293
 21
57.962826080395189
  0
LINE
  8
_0-1_
  6
PHANTOM1
 62
  152
 10
146.56558332118135
 20
79.759723641218784
 11
146.56558332118135
 21
57.962826080395189
  0
LINE
  8
_0-1_
  6
PHANTOM1
 62
  152
 10
216.56558332118135
 20
79.759723641218784
 11
216.56558332118135
 21
57.962826080395189
  0
LINE
  8
_0-1_
  6
PHANTOM1
 62
  152
 10
142.71419835599687
 20
80.791699132381268
 11
147.88461689800505
 21
79.406289659519302
  0
LINE
  8
_0-1_
  6
PHANTOM1
 62
  152
 10
143.56558332118135
 20
80.563571218512152
 11
143.56558332118135
 21
57.962826080395189
  0
LINE
  8
_0-1_
  6
PHANTOM1
 62
  152
 10
146.56558332118135
 20
57.962826080395189
 11
143.56558332118135
 21
57.962826080395189
  0
LINE
  8
_0-1_
  6
PHANTOM1
 62
  152
 10
216.56558332118135
 20
57.962826080395189
 11
211.56558332118135
 21
57.962826080395189
  0
LINE
  8
_0-1_
  6
PHANTOM1
 62
  152
 10
210.42265507818513
 20
81.405716303091936
 11
217.88461689800505
 21
79.406289659519302
  0
LINE
  8
_0-1_
  6
PHANTOM1
 62
  152
 10
211.56558332118135
 20
81.099469603374359
 11
211.56558332118135
 21
57.962826080395189
  0
TEXT
  8
_0-1_
 62
    7
 10
8.4032173911214159
 20
47.052389348778206
 40
4.2999999999999998
 41
0.744186046511628
 50
0
  1
RMAA
  0
ENDSEC
  0
EOF
