  0
SECTION
  2
HEADER
  9
$ACADVER
  1
AC1009
  9
$INSBASE
 10
0
 20
0
 30
0
  9
$EXTMIN
 10
0
 20
0
  9
$EXTMAX
 10
1189
 20
841
  9
$LIMMIN
 10
0
 20
0
  9
$LIMMAX
 10
1189
 20
841
  9
$LTSCALE
 40
1
  0
ENDSEC
  0
SECTION
  2
TABLES
  0
TABLE
  2
LTYPE
 70
     9
  0
LTYPE
  2
CONTINUOUS
 70
    64
  3
実線
 72
    65
 73
     0
 40
0.0
  0
LTYPE
  2
DASHED1
 70
    64
  3
--  --  --  --  --  --  --  --  
 72
    65
 73
     2
 40
2.5
 49
1.25
 49
-1.25
  0
LTYPE
  2
DASHED2
 70
    64
  3
----    ----    ----    ----    
 72
    65
 73
     2
 40
5.0
 49
2.5
 49
-2.5
  0
LTYPE
  2
DASHED3
 70
    64
  3
------  ------  ------  ------  
 72
    65
 73
     2
 40
5.0
 49
3.75
 49
-1.25
  0
LTYPE
  2
CENTER1
 70
    64
  3
----- - ----- - ----- - ----- - 
 72
    65
 73
     4
 40
10.0
 49
6.25
 49
-1.25
 49
1.25
 49
-1.25
  0
LTYPE
  2
CENTER2
 70
    64
  3
----------  --  ----------  --  
 72
    65
 73
     4
 40
20.0
 49
12.5
 49
-2.5
 49
2.5
 49
-2.5
  0
LTYPE
  2
PHANTOM1
 70
    64
  3
--- - - --- - - --- - - --- - - 
 72
    65
 73
     6
 40
10.0
 49
3.25
 49
-1.25
 49
1.25
 49
-1.25
 49
1.25
 49
-1.25
  0
LTYPE
  2
PHANTOM2
 70
    64
  3
--------  -  -  --------  -  -  
 72
    65
 73
     6
 40
20.0
 49
10.0
 49
-2.5
 49
1.25
 49
-2.5
 49
1.25
 49
-2.5
  0
LTYPE
  2
DOT
 70
    64
  3
-   -   -   -   -   -   -   -   
 72
    65
 73
     2
 40
2.5
 49
0.625
 49
-1.875
  0
LTYPE
  2
DUMMY
 70
    64
  3
ダミー
 72
    65
 73
     0
 40
0.0
  0
LTYPE
  2
RAND1
 70
    64
  3
ランダム線1
 72
    65
 73
     4
 40
10.0
 49
1.0
 49
-2.0
 49
3.0
 49
-4.0
  0
LTYPE
  2
RAND2
 70
    64
  3
ランダム線2
 72
    65
 73
     4
 40
14.0
 49
2.0
 49
-3.0
 49
4.0
 49
-5.0
  0
LTYPE
  2
RAND3
 70
    64
  3
ランダム線3
 72
    65
 73
     4
 40
18.0
 49
3.0
 49
-4.0
 49
5.0
 49
-6.0
  0
LTYPE
  2
RAND4
 70
    64
  3
ランダム線4
 72
    65
 73
     4
 40
22.0
 49
4.0
 49
-5.0
 49
6.0
 49
-7.0
  0
LTYPE
  2
RAND5
 70
    64
  3
ランダム線5
 72
    65
 73
     4
 40
26.0
 49
5.0
 49
-6.0
 49
7.0
 49
-8.0
  0
LTYPE
  2
LONG1
 70
    64
  3
----------  --  ----------  --  
 72
    65
 73
     4
 40
40.0
 49
32.5
 49
-2.5
 49
2.5
 49
-2.5
  0
LTYPE
  2
LONG2
 70
    64
  3
--------  -  -  --------  -  -  
 72
    65
 73
     6
 40
40.0
 49
30.0
 49
-2.5
 49
1.25
 49
-2.5
 49
1.25
 49
-2.5
  0
LTYPE
  2
LONG3
 70
    64
  3
+++++++++++++++..+++++++++++++++
 72
    65
 73
     2
 40
40.0
 49
37.5
 49
-2.5
  0
LTYPE
  2
LONG4
 70
    64
  3
+++++++++++++++..+++++++++++++++
 72
    65
 73
     2
 40
80.0
 49
75.0
 49
-5.0
  0
LTYPE
  2
LONG5
 70
    64
  3
----------  --  ----------  --  
 72
    65
 73
     4
 40
60.0
 49
37.5
 49
-7.5
 49
7.5
 49
-7.5
  0
LTYPE
  2
dashed
 70
   64
  3
-------   -------------   ------
 72
   65
 73
    2
 40
7.5
 49
6
 49
-1.5
  0
LTYPE
  2
dashed_spaced
 70
   64
  3
----        --------        ----
 72
   65
 73
    2
 40
12
 49
6
 49
-6
  0
LTYPE
  2
long_dashed_dotted
 70
   64
  3
------------- --- --------------
 72
   65
 73
    4
 40
15.25
 49
12
 49
-1.5
 49
0.25
 49
-1.5
  0
LTYPE
  2
long_dashed_double-dotted
 70
   64
  3
----------- --- --- ------------
 72
   65
 73
    6
 40
17
 49
12
 49
-1.5
 49
0.25
 49
-1.5
 49
0.25
 49
-1.5
  0
LTYPE
  2
long_dashed_triplicate-dotted
 70
   64
  3
--------- --- --- --- ----------
 72
   65
 73
    8
 40
18.75
 49
12
 49
-1.5
 49
0.25
 49
-1.5
 49
0.25
 49
-1.5
 49
0.25
 49
-1.5
  0
LTYPE
  2
dotted
 70
   64
  3
   -       -       -       -    
 72
   65
 73
    2
 40
1.75
 49
0.25
 49
-1.5
  0
LTYPE
  2
chain
 70
   64
  3
-------------- -- --------------
 72
   65
 73
    4
 40
18.5
 49
12
 49
-1.5
 49
3.5
 49
-1.5
  0
LTYPE
  2
chain_double_dash
 70
   64
  3
------------ -- -- -------------
 72
   65
 73
    6
 40
23.5
 49
12
 49
-1.5
 49
3.5
 49
-1.5
 49
3.5
 49
-1.5
  0
LTYPE
  2
dashed_dotted
 70
   64
  3
-----------     -     ----------
 72
   65
 73
    4
 40
9.25
 49
6
 49
-1.5
 49
0.25
 49
-1.5
  0
LTYPE
  2
double-dashed_dotted
 70
   64
  3
------   -----------   -   -----
 72
   65
 73
    6
 40
16.75
 49
6
 49
-1.5
 49
6
 49
-1.5
 49
0.25
 49
-1.5
  0
LTYPE
  2
dashed_double-dotted
 70
   64
  3
---------    -    -    ---------
 72
   65
 73
    6
 40
11
 49
6
 49
-1.5
 49
0.25
 49
-1.5
 49
0.25
 49
-1.5
  0
LTYPE
  2
double-dashed_double-dotted
 70
   64
  3
-----   ---------   -   -   ----
 72
   65
 73
    8
 40
18.5
 49
6
 49
-1.5
 49
6
 49
-1.5
 49
0.25
 49
-1.5
 49
0.25
 49
-1.5
  0
LTYPE
  2
dashed_triplicate-dotted
 70
   64
  3
-------    -    -    -    ------
 72
   65
 73
    8
 40
12.75
 49
6
 49
-1.5
 49
0.25
 49
-1.5
 49
0.25
 49
-1.5
 49
0.25
 49
-1.5
  0
LTYPE
  2
double-dashed_triplicate-dotted
 70
   64
  3
-----  ---------  -  -  -  -----
 72
   65
 73
   10
 40
20.25
 49
6
 49
-1.5
 49
6
 49
-1.5
 49
0.25
 49
-1.5
 49
0.25
 49
-1.5
 49
0.25
 49
-1.5
  0
LTYPE
  2
undefined
 70
   64
  3
--------------------------------
 72
   65
 73
    0
 40
0
  0
ENDTAB
  0
TABLE
  2
STYLE
  5
3
100
AcDbSymbolTable
 70
     1
  0
STYLE
  5
10
100
AcDbSymbolTableRecord
100
AcDbTextStyleTableRecord
  2
STANDARD
 70
     0
 40
0.0
 41
1.0
 50
0.0
 71
     0
 42
0.2
  3
txt
  4
bigfont.shx
  0
STYLE
  5
26
100
AcDbSymbolTableRecord
100
AcDbTextStyleTableRecord
  2
TATEGAKI
 70
    68
 40
0.0
 41
1.0
 50
0.0
 71
     0
 42
1.0
  3
txt
  4
bigfont.shx
  0
ENDTAB
  0
TABLE
  2
LAYER
 70
    4
  0
LAYER
  2
_0-0_
 70
   64
 62
    7
  6
CONTINUOUS
  0
LAYER
  2
_0-1_
 70
   64
 62
    7
  6
CONTINUOUS
  0
LAYER
  2
_0-f_
 70
   64
 62
    7
  6
CONTINUOUS
  0
LAYER
  2
ADD_LINE
 70
   64
 62
    7
  6
CONTINUOUS
  0
ENDTAB
  0
ENDSEC
  0
SECTION
  2
BLOCKS
  0
ENDSEC
  0
SECTION
  2
ENTITIES
  0
TEXT
  8
_0-f_
 62
    7
 10
3.2361792784447516
 20
3.2704923597832476
 40
4.2999999999999998
 41
0.744186046511628
 50
0
  1
RM25
  0
LINE
  8
_0-0_
  6
CONTINUOUS
 62
    7
 10
29.827120345426806
 20
39.745301601740323
 11
29.827120345426806
 21
44.538194296032714
  0
LINE
  8
_0-0_
  6
CONTINUOUS
 62
    7
 10
29.68067373602014
 20
44.891747686626047
 11
28.773566430312599
 21
45.798854992333474
  0
LINE
  8
_0-0_
  6
CONTINUOUS
 62
    7
 10
28.627119820905932
 20
46.152408382926808
 11
28.627119820905932
 21
48.745301601740323
  0
LINE
  8
_0-0_
  6
CONTINUOUS
 62
    7
 10
29.627119820905932
 20
49.745301601740323
 11
29.627119820905932
 21
50.745301601740323
  0
LINE
  8
_0-0_
  6
CONTINUOUS
 62
    7
 10
29.127119820905932
 20
51.245301601740323
 11
24.727119820905841
 21
51.245301601740323
  0
LINE
  8
_0-0_
  6
CONTINUOUS
 62
    7
 10
24.227119820905841
 20
50.745301601740323
 11
24.227119820905841
 21
49.745301601740323
  0
LINE
  8
_0-0_
  6
CONTINUOUS
 62
    7
 10
24.727119820905841
 20
49.245301601740323
 11
25.927119820905659
 21
49.245301601740323
  0
LINE
  8
_0-0_
  6
CONTINUOUS
 62
    7
 10
26.427119820905659
 20
48.745301601740323
 11
26.427119820905659
 21
47.152408382926581
  0
LINE
  8
_0-0_
  6
CONTINUOUS
 62
    7
 10
26.280673211498993
 20
46.798854992333474
 11
24.373566430312508
 21
44.891748211146989
  0
LINE
  8
_0-0_
  6
CONTINUOUS
 62
    7
 10
24.020013039719174
 20
44.745301601740323
 11
21.227119820905841
 21
44.745301601740323
  0
LINE
  8
_0-0_
  6
CONTINUOUS
 62
    7
 10
20.727119820905841
 20
44.245301601740323
 11
20.727119820905841
 21
43.950504126647104
  0
LINE
  8
_0-0_
  6
CONTINUOUS
 62
    7
 10
20.219250394417827
 20
43.729151618390972
 11
20.219250394417827
 21
44.940771687707013
  0
LINE
  8
_0-0_
  6
CONTINUOUS
 62
    7
 10
20.265080391482911
 20
45.149887943493297
 11
22.722488004953789
 21
50.487018807975858
  0
LINE
  8
_0-0_
  6
CONTINUOUS
 62
    7
 10
22.727070509006239
 20
50.508153065886347
 11
22.720439993754894
 21
51.997256078208068
  0
LINE
  8
_0-0_
  6
CONTINUOUS
 62
    7
 10
22.626876916487504
 20
52.096603492567795
 11
22.103896597640301
 21
52.130332073676584
  0
LINE
  8
_0-0_
  6
CONTINUOUS
 62
    7
 10
21.997500021171504
 20
52.033344647286242
 11
21.958450841790523
 21
50.641890233044307
  0
LINE
  8
_0-0_
  6
CONTINUOUS
 62
    7
 10
21.953106219787401
 20
50.620761675655842
 11
19.255447197880926
 21
45.276528466188495
  0
LINE
  8
_0-0_
  6
CONTINUOUS
 62
    7
 10
19.149992711635946
 20
44.88639985248966
 11
19.019250394418009
 21
42.729151618390972
  0
LINE
  8
_0-0_
  6
CONTINUOUS
 62
    7
 10
19.019250394418009
 20
42.729151618390972
 11
19.019250394418009
 21
41.92915161839079
  0
LINE
  8
_0-0_
  6
CONTINUOUS
 62
    7
 10
19.119250394417918
 20
41.829151618390881
 11
19.777829038180585
 21
41.829151618390881
  0
LINE
  8
_0-0_
  6
CONTINUOUS
 62
    7
 10
19.848539716299342
 20
41.799862296509502
 11
20.291439319275355
 21
41.356962693533262
  0
LINE
  8
_0-0_
  6
CONTINUOUS
 62
    7
 10
20.35855578133021
 20
41.327737984471753
 11
23.055268929605859
 21
41.230749620378958
  0
LINE
  8
_0-0_
  6
CONTINUOUS
 62
    7
 10
23.128279157853626
 20
41.195092994167283
 11
23.454971633449418
 21
40.805756062702642
  0
LINE
  8
_0-0_
  6
CONTINUOUS
 62
    7
 10
23.527119820906023
 20
40.745301601740096
 11
23.218242438671382
 21
41.054178983974509
  0
LINE
  8
_0-0_
  6
CONTINUOUS
 62
    7
 10
23.218242438671382
 20
41.054178983974509
 11
22.777119820906023
 21
40.745301601740323
  0
LINE
  8
_0-0_
  6
CONTINUOUS
 62
    7
 10
22.777119820906023
 20
40.745301601740323
 11
22.527575742601016
 21
40.994845680044875
  0
LINE
  8
_0-0_
  6
CONTINUOUS
 62
    7
 10
22.399507420847272
 20
41.006050206355042
 11
22.027119820906023
 21
40.745301601740096
  0
LINE
  8
_0-0_
  6
CONTINUOUS
 62
    7
 10
22.027119820906023
 20
40.745301601740096
 11
21.718242438671382
 21
41.054178983974509
  0
LINE
  8
_0-0_
  6
CONTINUOUS
 62
    7
 10
21.718242438671382
 20
41.054178983974509
 11
21.277119820906023
 21
40.745301601740323
  0
LINE
  8
_0-0_
  6
CONTINUOUS
 62
    7
 10
21.277119820906023
 20
40.745301601740323
 11
21.027575742601016
 21
40.994845680044875
  0
LINE
  8
_0-0_
  6
CONTINUOUS
 62
    7
 10
20.899507420847272
 20
41.006050206355042
 11
20.527119820906023
 21
40.745301601740096
  0
LINE
  8
_0-0_
  6
CONTINUOUS
 62
    7
 10
20.527119820906023
 20
40.745301601740096
 11
20.218242438671382
 21
41.054178983974509
  0
LINE
  8
_0-0_
  6
CONTINUOUS
 62
    7
 10
20.218242438671382
 20
41.054178983974509
 11
19.777119820906023
 21
40.745301601740323
  0
LINE
  8
_0-0_
  6
CONTINUOUS
 62
    7
 10
19.777119820906023
 20
40.745301601740323
 11
19.527575742601016
 21
40.994845680044875
  0
LINE
  8
_0-0_
  6
CONTINUOUS
 62
    7
 10
19.399507420847272
 20
41.006050206355042
 11
19.027119820906023
 21
40.745301601740096
  0
LINE
  8
_0-0_
  6
CONTINUOUS
 62
    7
 10
19.027119820906023
 20
40.745301601740096
 11
18.718242438671382
 21
41.054178983974509
  0
LINE
  8
_0-0_
  6
CONTINUOUS
 62
    7
 10
18.718242438671382
 20
41.054178983974509
 11
18.277119820906023
 21
40.745301601740323
  0
LINE
  8
_0-0_
  6
CONTINUOUS
 62
    7
 10
18.277119820906023
 20
40.745301601740323
 11
16.42712034542626
 21
40.745301601740323
  0
LINE
  8
_0-0_
  6
CONTINUOUS
 62
    7
 10
15.92712034542626
 20
40.245301601740323
 11
15.92712034542626
 21
39.745301601740323
  0
LINE
  8
_0-0_
  6
CONTINUOUS
 62
    7
 10
16.42712034542626
 20
39.245301601740323
 11
18.927119868589557
 21
39.245301601740323
  0
LINE
  8
_0-0_
  6
CONTINUOUS
 62
    7
 10
18.927119868589557
 20
39.245301601740323
 11
19.227119820905841
 21
38.94530141100546
  0
LINE
  8
_0-0_
  6
CONTINUOUS
 62
    7
 10
19.227119820905841
 20
38.94530141100546
 11
21.377120345426533
 21
38.94530141100546
  0
LINE
  8
_0-0_
  6
CONTINUOUS
 62
    7
 10
21.677120345426715
 20
38.645301411005278
 11
21.677120345426715
 21
34.855366961661332
  0
LINE
  8
_0-0_
  6
CONTINUOUS
 62
    7
 10
21.11731272429131
 20
34.705366961661241
 11
19.333338128075752
 21
37.795301601718904
  0
LINE
  8
_0-0_
  6
CONTINUOUS
 62
    7
 10
18.813722885805305
 20
37.795301601718904
 11
18.467312724291219
 21
37.195301601718768
  0
LINE
  8
_0-0_
  6
CONTINUOUS
 62
    7
 10
18.467312724291673
 20
36.895301601719041
 11
20.488038666442549
 21
33.395301601740186
  0
LINE
  8
_0-0_
  6
CONTINUOUS
 62
    7
 10
20.747846287578227
 20
33.245301601740323
 11
24.106394403275203
 21
33.245301601740323
  0
LINE
  8
_0-0_
  6
CONTINUOUS
 62
    7
 10
24.366202024410427
 20
33.395301601740186
 11
26.386927966561757
 21
36.895301601718813
  0
LINE
  8
_0-0_
  6
CONTINUOUS
 62
    7
 10
26.386927966561757
 20
37.195301601718768
 11
26.040517805048125
 21
37.795301601718904
  0
LINE
  8
_0-0_
  6
CONTINUOUS
 62
    7
 10
25.520902562777678
 20
37.795301601718904
 11
23.736927966562121
 21
34.705366961661468
  0
LINE
  8
_0-0_
  6
CONTINUOUS
 62
    7
 10
23.177120345426715
 20
34.855366961661332
 11
23.177120345426715
 21
38.645301411005278
  0
LINE
  8
_0-0_
  6
CONTINUOUS
 62
    7
 10
23.477120345426897
 20
38.94530141100546
 11
25.627119916273273
 21
38.94530141100546
  0
LINE
  8
_0-0_
  6
CONTINUOUS
 62
    7
 10
25.627119916273273
 20
38.94530141100546
 11
25.927119868589557
 21
39.245301601740323
  0
LINE
  8
_0-0_
  6
CONTINUOUS
 62
    7
 10
25.927119868589557
 20
39.245301601740323
 11
29.327120345426806
 21
39.245301601740323
  0
LINE
  8
_0-0_
  6
CONTINUOUS
 62
    7
 10
27.627119820905932
 20
41.745301601740323
 11
27.627119820905932
 21
42.945301601740141
  0
LINE
  8
_0-0_
  6
CONTINUOUS
 62
    7
 10
27.327119820906205
 20
43.245301601740323
 11
21.992946069699315
 21
43.245301601740323
  0
LINE
  8
_0-0_
  6
CONTINUOUS
 62
    7
 10
21.863536547148101
 20
43.262338688595776
 11
21.097710298354627
 21
43.467541213502557
  0
LINE
  8
_0-0_
  6
CONTINUOUS
 62
    7
 10
21.219250394417827
 20
42.729151618390972
 11
25.439715496265649
 21
42.729151618390972
  0
LINE
  8
_0-0_
  6
CONTINUOUS
 62
    7
 10
25.473917510598199
 20
42.735182356312237
 11
26.74824032275535
 21
43.19899792878374
  0
LINE
  8
_0-0_
  6
CONTINUOUS
 62
    7
 10
26.647661207680699
 20
42.258298112925843
 11
24.865127190715043
 21
41.229151618390972
  0
LINE
  8
_0-0_
  6
CONTINUOUS
 62
    7
 10
24.865127190715043
 20
41.229151618390972
 11
24.345854838730133
 21
40.793430379359563
  0
LINE
  8
_0-0_
  6
CONTINUOUS
 62
    7
 10
24.277119820906023
 20
40.745301601740323
 11
24.991193824277047
 21
41.245301601740323
  0
LINE
  8
_0-0_
  6
CONTINUOUS
 62
    7
 10
24.991193824277047
 20
41.245301601740323
 11
27.127119820905932
 21
41.245301601740323
  0
LINE
  8
_0-0_
  6
CONTINUOUS
 62
    7
 10
24.023647222011618
 20
41.021850081458581
 11
24.204971633449418
 21
40.805756062702642
  0
LINE
  8
_0-0_
  6
CONTINUOUS
 62
    7
 10
24.277119820906023
 20
40.745301601740323
 11
24.027575742601016
 21
40.994845680044875
  0
LINE
  8
_0-0_
  6
CONTINUOUS
 62
    7
 10
23.899507420847272
 20
41.006050206355042
 11
23.527119820906023
 21
40.745301601740096
  0
LINE
  8
_0-0_
  6
CONTINUOUS
 62
    7
 10
23.595854838730133
 20
40.793430379359563
 11
23.882764016731358
 21
41.03417576480166
  0
ARC
  8
_0-0_
  6
CONTINUOUS
 62
    7
 10
22.097460666215625
 20
52.03053939465309
 40
0.1
 50
86.309932474025302
 51
178.39249775375112
  0
ARC
  8
_0-0_
  6
CONTINUOUS
 62
    7
 10
22.620440985062828
 20
51.996810813544073
 40
0.1
 50
0.2551187030587807
 51
86.309932474023597
  0
ARC
  8
_0-0_
  6
CONTINUOUS
 62
    7
 10
21.219250394417827
 20
43.729151618390972
 40
1
 50
180
 51
270
  0
ARC
  8
_0-0_
  6
CONTINUOUS
 62
    7
 10
19.119250394417918
 20
41.92915161839079
 40
0.1
 50
180
 51
270
  0
ARC
  8
_0-0_
  6
CONTINUOUS
 62
    7
 10
19.777829038180585
 20
41.729151618390972
 40
0.1
 50
45.000000000001677
 51
90.000000000000057
  0
ARC
  8
_0-0_
  6
CONTINUOUS
 62
    7
 10
20.362149997394113
 20
41.42767337165202
 40
0.1
 50
225.0000000000035
 51
267.94022224279126
  0
ARC
  8
_0-0_
  6
CONTINUOUS
 62
    7
 10
23.051674713541956
 20
41.130814233198691
 40
0.1
 50
40.000000000003006
 51
87.940222242791222
  0
ARC
  8
_0-0_
  6
CONTINUOUS
 62
    7
 10
23.531576077761088
 20
40.87003482367146
 40
0.1
 50
220.00000000000441
 51
310.0000000000025
  0
ARC
  8
_0-0_
  6
CONTINUOUS
 62
    7
 10
23.947042777699949
 20
40.95757132048999
 40
0.1
 50
40.000000000003304
 51
130.00000000000358
  0
ARC
  8
_0-0_
  6
CONTINUOUS
 62
    7
 10
24.281576077761542
 20
40.87003482367146
 40
0.1
 50
220.0000000000048
 51
310.00000000000335
  0
ARC
  8
_0-0_
  6
CONTINUOUS
 62
    7
 10
26.9192503944181
 20
42.729151618390972
 40
0.4998824974328499
 50
248.32214288913158
 51
110.00000000000512
  0
ARC
  8
_0-0_
  6
CONTINUOUS
 62
    7
 10
26.697661207680881
 20
42.171695572547435
 40
0.1
 50
68.322142889133517
 51
120.00000000000783
  0
ARC
  8
_0-0_
  6
CONTINUOUS
 62
    7
 10
25.439715496265649
 20
42.829151618390881
 40
0.1
 50
270
 51
290.00000000000023
  0
ARC
  8
_0-0_
  6
CONTINUOUS
 62
    7
 10
21.908470519268008
 20
50.643292859360884
 40
0.05
 50
333.21629472401474
 51
358.39249775375248
  0
ARC
  8
_0-0_
  6
CONTINUOUS
 62
    7
 10
22.677071004659751
 20
50.507930433554577
 40
0.05
 50
335.27695124788744
 51
0.2551187030538762
  0
ARC
  8
_0-0_
  6
CONTINUOUS
 62
    7
 10
20.719250394417827
 20
44.940771687707013
 40
0.5
 50
155.27695124788727
 51
180
  0
ARC
  8
_0-0_
  6
CONTINUOUS
 62
    7
 10
20.148161208267425
 20
44.825904792087897
 40
1
 50
153.2162947240148
 51
176.5317707410839
  0
ARC
  8
_0-0_
  6
CONTINUOUS
 62
    7
 10
16.42712034542626
 20
40.245301601740323
 40
0.5
 50
90
 51
180
  0
ARC
  8
_0-0_
  6
CONTINUOUS
 62
    7
 10
21.992946069699315
 20
43.745301601740323
 40
0.5
 50
254.99999999999412
 51
270
  0
ARC
  8
_0-0_
  6
CONTINUOUS
 62
    7
 10
21.227119820905841
 20
43.950504126647104
 40
0.5
 50
180
 51
254.99999999999517
  0
ARC
  8
_0-0_
  6
CONTINUOUS
 62
    7
 10
21.227119820905841
 20
44.245301601740323
 40
0.5
 50
90
 51
180
  0
ARC
  8
_0-0_
  6
CONTINUOUS
 62
    7
 10
24.727119820905841
 20
50.745301601740323
 40
0.5
 50
90
 51
180
  0
ARC
  8
_0-0_
  6
CONTINUOUS
 62
    7
 10
27.127119820905932
 20
41.745301601740323
 40
0.5
 50
270
 51
0
  0
ARC
  8
_0-0_
  6
CONTINUOUS
 62
    7
 10
27.327119820906205
 20
42.945301601740141
 40
0.2999999999999999
 50
0
 51
90.000000000000028
  0
ARC
  8
_0-0_
  6
CONTINUOUS
 62
    7
 10
18.706865064482713
 20
40.924135001926118
 40
0.1
 50
44.999999999998629
 51
125.0000000000024
  0
ARC
  8
_0-0_
  6
CONTINUOUS
 62
    7
 10
19.038497195094692
 20
40.875345583788487
 40
0.1
 50
224.99999999999866
 51
305.00000000000114
  0
ARC
  8
_0-0_
  6
CONTINUOUS
 62
    7
 10
19.456865064482713
 20
40.924135001926118
 40
0.1
 50
44.999999999998067
 51
125.00000000000365
  0
ARC
  8
_0-0_
  6
CONTINUOUS
 62
    7
 10
19.788497195094692
 20
40.875345583788487
 40
0.1
 50
225
 51
304.9999999999992
  0
ARC
  8
_0-0_
  6
CONTINUOUS
 62
    7
 10
20.206865064482713
 20
40.924135001926118
 40
0.1
 50
44.999999999998629
 51
125.0000000000024
  0
ARC
  8
_0-0_
  6
CONTINUOUS
 62
    7
 10
20.538497195094692
 20
40.875345583788487
 40
0.1
 50
224.99999999999866
 51
305.00000000000114
  0
ARC
  8
_0-0_
  6
CONTINUOUS
 62
    7
 10
23.956865064482713
 20
40.924135001926118
 40
0.1
 50
44.999999999998067
 51
125.00000000000365
  0
ARC
  8
_0-0_
  6
CONTINUOUS
 62
    7
 10
24.288497195094692
 20
40.875345583788487
 40
0.1
 50
225
 51
304.9999999999992
  0
ARC
  8
_0-0_
  6
CONTINUOUS
 62
    7
 10
22.456865064482713
 20
40.924135001926118
 40
0.1
 50
44.999999999998067
 51
125.00000000000365
  0
ARC
  8
_0-0_
  6
CONTINUOUS
 62
    7
 10
22.788497195094692
 20
40.875345583788487
 40
0.1
 50
225
 51
304.9999999999992
  0
ARC
  8
_0-0_
  6
CONTINUOUS
 62
    7
 10
23.206865064482713
 20
40.924135001926118
 40
0.1
 50
44.999999999998629
 51
125.0000000000024
  0
ARC
  8
_0-0_
  6
CONTINUOUS
 62
    7
 10
23.538497195094692
 20
40.875345583788487
 40
0.1
 50
224.99999999999866
 51
305.00000000000114
  0
ARC
  8
_0-0_
  6
CONTINUOUS
 62
    7
 10
20.956865064482713
 20
40.924135001926118
 40
0.1
 50
44.999999999998067
 51
125.00000000000365
  0
ARC
  8
_0-0_
  6
CONTINUOUS
 62
    7
 10
21.288497195094692
 20
40.875345583788487
 40
0.1
 50
225
 51
304.9999999999992
  0
ARC
  8
_0-0_
  6
CONTINUOUS
 62
    7
 10
21.706865064482713
 20
40.924135001926118
 40
0.1
 50
44.999999999998629
 51
125.0000000000024
  0
ARC
  8
_0-0_
  6
CONTINUOUS
 62
    7
 10
22.038497195094692
 20
40.875345583788487
 40
0.1
 50
224.99999999999866
 51
305.00000000000114
  0
ARC
  8
_0-0_
  6
CONTINUOUS
 62
    7
 10
23.477120345426897
 20
34.855366961661332
 40
0.2999999999999999
 50
180
 51
330.00000000000045
  0
ARC
  8
_0-0_
  6
CONTINUOUS
 62
    7
 10
25.780710183912902
 20
37.645301601718813
 40
0.2999999999999999
 50
29.999999999999151
 51
150.0000000000002
  0
ARC
  8
_0-0_
  6
CONTINUOUS
 62
    7
 10
26.127120345426533
 20
37.045301601718904
 40
0.2999999999999971
 50
330.00000000000432
 51
29.999999999995666
  0
ARC
  8
_0-0_
  6
CONTINUOUS
 62
    7
 10
19.073530506940529
 20
37.645301601718813
 40
0.2999999999999999
 50
29.999999999999762
 51
150.00000000000085
  0
ARC
  8
_0-0_
  6
CONTINUOUS
 62
    7
 10
21.377120345426533
 20
34.855366961661332
 40
0.2999999999999999
 50
209.9999999999998
 51
0.0000000000000254
  0
ARC
  8
_0-0_
  6
CONTINUOUS
 62
    7
 10
18.727120345426897
 20
37.045301601718904
 40
0.2999999999999971
 50
150.00000000000432
 51
209.99999999999568
  0
ARC
  8
_0-0_
  6
CONTINUOUS
 62
    7
 10
16.42712034542626
 20
39.745301601740323
 40
0.5
 50
180
 51
270
  0
ARC
  8
_0-0_
  6
CONTINUOUS
 62
    7
 10
29.127119820905932
 20
50.745301601740323
 40
0.5
 50
0
 51
90
  0
ARC
  8
_0-0_
  6
CONTINUOUS
 62
    7
 10
29.127119820905932
 20
49.745301601740323
 40
0.5
 50
270
 51
0
  0
ARC
  8
_0-0_
  6
CONTINUOUS
 62
    7
 10
29.127119820905932
 20
48.745301601740323
 40
0.5
 50
90
 51
180
  0
ARC
  8
_0-0_
  6
CONTINUOUS
 62
    7
 10
29.127119820905932
 20
46.152408382926808
 40
0.5
 50
180
 51
224.99999999999852
  0
ARC
  8
_0-0_
  6
CONTINUOUS
 62
    7
 10
23.477120345426897
 20
38.645301411005278
 40
0.2999999999999999
 50
90
 51
180
  0
ARC
  8
_0-0_
  6
CONTINUOUS
 62
    7
 10
21.377120345426533
 20
38.645301411005278
 40
0.2999999999999999
 50
0
 51
90.000000000000028
  0
ARC
  8
_0-0_
  6
CONTINUOUS
 62
    7
 10
24.020013039719174
 20
45.245301601740323
 40
0.5
 50
270
 51
314.9999999999992
  0
ARC
  8
_0-0_
  6
CONTINUOUS
 62
    7
 10
24.727119820905841
 20
49.745301601740323
 40
0.5
 50
180
 51
270
  0
ARC
  8
_0-0_
  6
CONTINUOUS
 62
    7
 10
25.927119820905659
 20
48.745301601740323
 40
0.5
 50
0
 51
90.000000000000028
  0
ARC
  8
_0-0_
  6
CONTINUOUS
 62
    7
 10
25.927119820905659
 20
47.152408382926581
 40
0.5
 50
314.99999999999875
 51
359.99999999999994
  0
ARC
  8
_0-0_
  6
CONTINUOUS
 62
    7
 10
24.106394403275203
 20
33.545301601740277
 40
0.2999999999999999
 50
270
 51
329.99999999999488
  0
ARC
  8
_0-0_
  6
CONTINUOUS
 62
    7
 10
20.747846287578227
 20
33.545301601740277
 40
0.2999999999999999
 50
210.00000000000239
 51
270
  0
ARC
  8
_0-0_
  6
CONTINUOUS
 62
    7
 10
29.327120345426806
 20
44.538194296032714
 40
0.5
 50
0
 51
45
  0
ARC
  8
_0-0_
  6
CONTINUOUS
 62
    7
 10
29.327120345426806
 20
39.745301601740323
 40
0.5
 50
270
 51
0
  0
LINE
  8
_0-0_
  6
CONTINUOUS
 62
    7
 10
168.62711982090548
 20
46.152408382926808
 11
168.62711982090548
 21
48.745301601740323
  0
LINE
  8
_0-0_
  6
CONTINUOUS
 62
    7
 10
169.62711982090548
 20
49.745301601740323
 11
169.62711982090548
 21
50.745301601740323
  0
LINE
  8
_0-0_
  6
CONTINUOUS
 62
    7
 10
169.12711982090548
 20
51.245301601740323
 11
164.72711982090584
 21
51.245301601740323
  0
LINE
  8
_0-0_
  6
CONTINUOUS
 62
    7
 10
164.22711982090584
 20
50.745301601740323
 11
164.22711982090584
 21
49.745301601740323
  0
LINE
  8
_0-0_
  6
CONTINUOUS
 62
    7
 10
164.72711982090584
 20
49.245301601740323
 11
165.92711982090566
 21
49.245301601740323
  0
LINE
  8
_0-0_
  6
CONTINUOUS
 62
    7
 10
166.42711982090566
 20
48.745301601740323
 11
166.42711982090566
 21
47.152408382926581
  0
LINE
  8
_0-0_
  6
CONTINUOUS
 62
    7
 10
166.28067321149899
 20
46.798854992333474
 11
164.37356643031251
 21
44.891748211146989
  0
LINE
  8
_0-0_
  6
CONTINUOUS
 62
    7
 10
164.02001303971917
 20
44.745301601740323
 11
161.22711982090584
 21
44.745301601740323
  0
LINE
  8
_0-0_
  6
CONTINUOUS
 62
    7
 10
160.72711982090584
 20
44.245301601740323
 11
160.72711982090584
 21
43.950504126647104
  0
LINE
  8
_0-0_
  6
CONTINUOUS
 62
    7
 10
161.09771029835463
 20
43.467541213502557
 11
161.86353654714765
 21
43.262338688595776
  0
LINE
  8
_0-0_
  6
CONTINUOUS
 62
    7
 10
161.99294606969931
 20
43.245301601740323
 11
167.32711982090575
 21
43.245301601740323
  0
LINE
  8
_0-0_
  6
CONTINUOUS
 62
    7
 10
167.62711982090548
 20
42.945301601740141
 11
167.62711982090548
 21
41.745301601740323
  0
LINE
  8
_0-0_
  6
CONTINUOUS
 62
    7
 10
167.12711982090548
 20
41.245301601740323
 11
164.99119382427705
 21
41.245301601740323
  0
LINE
  8
_0-0_
  6
CONTINUOUS
 62
    7
 10
164.99119382427705
 20
41.245301601740323
 11
164.27711982090602
 21
40.745301601740323
  0
LINE
  8
_0-0_
  6
CONTINUOUS
 62
    7
 10
164.27711982090602
 20
40.745301601740323
 11
164.02757574260102
 21
40.994845680044875
  0
LINE
  8
_0-0_
  6
CONTINUOUS
 62
    7
 10
163.89950742084727
 20
41.006050206355042
 11
163.52711982090602
 21
40.745301601740096
  0
LINE
  8
_0-0_
  6
CONTINUOUS
 62
    7
 10
163.52711982090602
 20
40.745301601740096
 11
163.21824243867138
 21
41.054178983974509
  0
LINE
  8
_0-0_
  6
CONTINUOUS
 62
    7
 10
163.21824243867138
 20
41.054178983974509
 11
162.77711982090602
 21
40.745301601740323
  0
LINE
  8
_0-0_
  6
CONTINUOUS
 62
    7
 10
162.77711982090602
 20
40.745301601740323
 11
162.52757574260102
 21
40.994845680044875
  0
LINE
  8
_0-0_
  6
CONTINUOUS
 62
    7
 10
162.39950742084727
 20
41.006050206355042
 11
162.02711982090602
 21
40.745301601740096
  0
LINE
  8
_0-0_
  6
CONTINUOUS
 62
    7
 10
162.02711982090602
 20
40.745301601740096
 11
161.71824243867138
 21
41.054178983974509
  0
LINE
  8
_0-0_
  6
CONTINUOUS
 62
    7
 10
161.71824243867138
 20
41.054178983974509
 11
161.27711982090602
 21
40.745301601740323
  0
LINE
  8
_0-0_
  6
CONTINUOUS
 62
    7
 10
161.27711982090602
 20
40.745301601740323
 11
161.02757574260102
 21
40.994845680044875
  0
LINE
  8
_0-0_
  6
CONTINUOUS
 62
    7
 10
160.89950742084727
 20
41.006050206355042
 11
160.52711982090602
 21
40.745301601740096
  0
LINE
  8
_0-0_
  6
CONTINUOUS
 62
    7
 10
160.52711982090602
 20
40.745301601740096
 11
160.21824243867138
 21
41.054178983974509
  0
LINE
  8
_0-0_
  6
CONTINUOUS
 62
    7
 10
160.21824243867138
 20
41.054178983974509
 11
159.77711982090602
 21
40.745301601740323
  0
LINE
  8
_0-0_
  6
CONTINUOUS
 62
    7
 10
159.77711982090602
 20
40.745301601740323
 11
159.52757574260102
 21
40.994845680044875
  0
LINE
  8
_0-0_
  6
CONTINUOUS
 62
    7
 10
159.39950742084727
 20
41.006050206355042
 11
159.02711982090602
 21
40.745301601740096
  0
LINE
  8
_0-0_
  6
CONTINUOUS
 62
    7
 10
159.02711982090602
 20
40.745301601740096
 11
158.71824243867138
 21
41.054178983974509
  0
LINE
  8
_0-0_
  6
CONTINUOUS
 62
    7
 10
158.71824243867138
 20
41.054178983974509
 11
158.27711982090602
 21
40.745301601740323
  0
LINE
  8
_0-0_
  6
CONTINUOUS
 62
    7
 10
158.27711982090602
 20
40.745301601740323
 11
156.42712034542626
 21
40.745301601740323
  0
LINE
  8
_0-0_
  6
CONTINUOUS
 62
    7
 10
156.56435350986919
 20
41.356962693533262
 11
156.12145390689273
 21
41.799862296509502
  0
LINE
  8
_0-0_
  6
CONTINUOUS
 62
    7
 10
156.05074322877442
 20
41.829151618390881
 11
155.39216458501176
 21
41.829151618390881
  0
LINE
  8
_0-0_
  6
CONTINUOUS
 62
    7
 10
155.29216458501139
 20
41.92915161839079
 11
155.29216458501139
 21
42.729151618390972
  0
LINE
  8
_0-0_
  6
CONTINUOUS
 62
    7
 10
155.29216458501139
 20
42.729151618390972
 11
155.4098605123894
 21
44.671134420125838
  0
LINE
  8
_0-0_
  6
CONTINUOUS
 62
    7
 10
155.52351571991346
 20
45.077154355616187
 11
158.45850015369012
 21
50.641890233044307
  0
LINE
  8
_0-0_
  6
CONTINUOUS
 62
    7
 10
158.45850015369012
 20
50.641890233044307
 11
158.49754933307111
 21
52.033344647286242
  0
LINE
  8
_0-0_
  6
CONTINUOUS
 62
    7
 10
158.60394590954036
 20
52.130332073676584
 11
159.12692622838711
 21
52.096603492567795
  0
LINE
  8
_0-0_
  6
CONTINUOUS
 62
    7
 10
159.2204893056545
 20
51.997256078208068
 11
159.22711982090584
 21
50.508153065886347
  0
LINE
  8
_0-0_
  6
CONTINUOUS
 62
    7
 10
159.22711982090584
 20
50.508153065886347
 11
156.54339065086685
 21
45.045049462120517
  0
LINE
  8
_0-0_
  6
CONTINUOUS
 62
    7
 10
156.49216458501166
 20
44.82459094894358
 11
156.49216458501166
 21
43.729151618390972
  0
LINE
  8
_0-0_
  6
CONTINUOUS
 62
    7
 10
157.49216458501166
 20
42.729151618390972
 11
161.71262968685949
 21
42.729151618390972
  0
LINE
  8
_0-0_
  6
CONTINUOUS
 62
    7
 10
161.74683170119204
 20
42.735182356312237
 11
163.02115451334873
 21
43.19899792878374
  0
LINE
  8
_0-0_
  6
CONTINUOUS
 62
    7
 10
162.92057539827454
 20
42.258298112925843
 11
161.13804138130888
 21
41.229151618390972
  0
LINE
  8
_0-0_
  6
CONTINUOUS
 62
    7
 10
161.13804138130888
 20
41.229151618390972
 11
160.61876902932352
 21
40.793430379359563
  0
LINE
  8
_0-0_
  6
CONTINUOUS
 62
    7
 10
160.4778858240428
 20
40.805756062702642
 11
160.29656141260546
 21
41.021850081458581
  0
LINE
  8
_0-0_
  6
CONTINUOUS
 62
    7
 10
160.1556782073252
 20
41.03417576480166
 11
159.86876902932352
 21
40.793430379359563
  0
LINE
  8
_0-0_
  6
CONTINUOUS
 62
    7
 10
159.7278858240428
 20
40.805756062702642
 11
159.40119334844746
 21
41.195092994167283
  0
LINE
  8
_0-0_
  6
CONTINUOUS
 62
    7
 10
159.3281831201997
 20
41.230749620378958
 11
156.63146997192359
 21
41.327737984471753
  0
LINE
  8
_0-0_
  6
CONTINUOUS
 62
    7
 10
155.92712034542626
 20
40.245301601740323
 11
155.92712034542626
 21
39.745301601740323
  0
LINE
  8
_0-0_
  6
CONTINUOUS
 62
    7
 10
156.42712034542626
 20
39.245301601740323
 11
158.92711986858956
 21
39.245301601740323
  0
LINE
  8
_0-0_
  6
CONTINUOUS
 62
    7
 10
158.92711986858956
 20
39.245301601740323
 11
159.22711982090584
 21
38.94530141100546
  0
LINE
  8
_0-0_
  6
CONTINUOUS
 62
    7
 10
159.22711982090584
 20
38.94530141100546
 11
161.37712034542653
 21
38.94530141100546
  0
LINE
  8
_0-0_
  6
CONTINUOUS
 62
    7
 10
161.67712034542672
 20
38.645301411005278
 11
161.67712034542672
 21
34.855366961661332
  0
LINE
  8
_0-0_
  6
CONTINUOUS
 62
    7
 10
161.11731272429131
 20
34.705366961661241
 11
159.33333812807575
 21
37.795301601718904
  0
LINE
  8
_0-0_
  6
CONTINUOUS
 62
    7
 10
158.81372288580485
 20
37.795301601718904
 11
158.46731272429122
 21
37.195301601718768
  0
LINE
  8
_0-0_
  6
CONTINUOUS
 62
    7
 10
158.46731272429122
 20
36.895301601719041
 11
160.48803866644255
 21
33.395301601740186
  0
LINE
  8
_0-0_
  6
CONTINUOUS
 62
    7
 10
160.74784628757777
 20
33.245301601740323
 11
164.1063944032752
 21
33.245301601740323
  0
LINE
  8
_0-0_
  6
CONTINUOUS
 62
    7
 10
164.36620202441043
 20
33.395301601740186
 11
166.38692796656176
 21
36.895301601718813
  0
LINE
  8
_0-0_
  6
CONTINUOUS
 62
    7
 10
166.38692796656176
 20
37.195301601718768
 11
166.04051780504813
 21
37.795301601718904
  0
LINE
  8
_0-0_
  6
CONTINUOUS
 62
    7
 10
165.52090256277768
 20
37.795301601718904
 11
163.73692796656167
 21
34.705366961661468
  0
LINE
  8
_0-0_
  6
CONTINUOUS
 62
    7
 10
163.17712034542672
 20
34.855366961661332
 11
163.17712034542672
 21
38.645301411005278
  0
LINE
  8
_0-0_
  6
CONTINUOUS
 62
    7
 10
163.47712034542644
 20
38.94530141100546
 11
165.62711991627327
 21
38.94530141100546
  0
LINE
  8
_0-0_
  6
CONTINUOUS
 62
    7
 10
165.62711991627327
 20
38.94530141100546
 11
165.92711986858956
 21
39.245301601740323
  0
LINE
  8
_0-0_
  6
CONTINUOUS
 62
    7
 10
165.92711986858956
 20
39.245301601740323
 11
169.32711982090575
 21
39.245301601740323
  0
LINE
  8
_0-0_
  6
CONTINUOUS
 62
    7
 10
169.82711982090575
 20
39.745302126261265
 11
169.82711982090575
 21
44.538194820553656
  0
LINE
  8
_0-0_
  6
CONTINUOUS
 62
    7
 10
169.68067321149908
 20
44.891748211146989
 11
168.77356643031214
 21
45.798854992333474
  0
ARC
  8
_0-0_
  6
CONTINUOUS
 62
    7
 10
157.49216458501166
 20
43.729151618390972
 40
1
 50
180
 51
270
  0
ARC
  8
_0-0_
  6
CONTINUOUS
 62
    7
 10
155.39216458501176
 20
41.92915161839079
 40
0.1
 50
180
 51
270
  0
ARC
  8
_0-0_
  6
CONTINUOUS
 62
    7
 10
156.05074322877442
 20
41.729151618390972
 40
0.1
 50
45.000000000001677
 51
90.000000000000057
  0
ARC
  8
_0-0_
  6
CONTINUOUS
 62
    7
 10
156.63506418798795
 20
41.42767337165202
 40
0.1
 50
225.0000000000035
 51
267.94022224279126
  0
ARC
  8
_0-0_
  6
CONTINUOUS
 62
    7
 10
159.32458890413579
 20
41.130814233198691
 40
0.1
 50
40.000000000003006
 51
87.940222242791222
  0
ARC
  8
_0-0_
  6
CONTINUOUS
 62
    7
 10
159.80449026835493
 20
40.87003482367146
 40
0.1
 50
220.00000000000441
 51
310.0000000000025
  0
ARC
  8
_0-0_
  6
CONTINUOUS
 62
    7
 10
160.21995696829379
 20
40.95757132048999
 40
0.1
 50
40.000000000003304
 51
130.00000000000358
  0
ARC
  8
_0-0_
  6
CONTINUOUS
 62
    7
 10
160.55449026835493
 20
40.87003482367146
 40
0.1
 50
220.0000000000048
 51
310.00000000000335
  0
ARC
  8
_0-0_
  6
CONTINUOUS
 62
    7
 10
163.19216458501194
 20
42.729151618390972
 40
0.4998824974328499
 50
248.32214288913158
 51
110.00000000000512
  0
ARC
  8
_0-0_
  6
CONTINUOUS
 62
    7
 10
162.97057539827472
 20
42.171695572547435
 40
0.1
 50
68.322142889133517
 51
120.00000000000783
  0
ARC
  8
_0-0_
  6
CONTINUOUS
 62
    7
 10
161.71262968685949
 20
42.829151618390881
 40
0.1
 50
270
 51
290.00000000000023
  0
ARC
  8
_0-0_
  6
CONTINUOUS
 62
    7
 10
158.59750997811568
 20
52.03053939465309
 40
0.1
 50
86.309932474025302
 51
178.39249775375112
  0
ARC
  8
_0-0_
  6
CONTINUOUS
 62
    7
 10
159.12049029696243
 20
51.996810813544073
 40
0.1
 50
0.2551187030587807
 51
86.309932474023597
  0
ARC
  8
_0-0_
  6
CONTINUOUS
 62
    7
 10
156.40802900902088
 20
44.610639359724075
 40
1
 50
152.19168587954206
 51
176.5317707410845
  0
ARC
  8
_0-0_
  6
CONTINUOUS
 62
    7
 10
156.99216458501166
 20
44.82459094894358
 40
0.5
 50
153.83759432950114
 51
180
  0
ARC
  8
_0-0_
  6
CONTINUOUS
 62
    7
 10
156.42712034542626
 20
40.245301601740323
 40
0.5
 50
90
 51
180
  0
ARC
  8
_0-0_
  6
CONTINUOUS
 62
    7
 10
161.99294606969931
 20
43.745301601740323
 40
0.5
 50
254.99999999999412
 51
270
  0
ARC
  8
_0-0_
  6
CONTINUOUS
 62
    7
 10
161.22711982090584
 20
43.950504126647104
 40
0.5
 50
180
 51
254.99999999999517
  0
ARC
  8
_0-0_
  6
CONTINUOUS
 62
    7
 10
161.22711982090584
 20
44.245301601740323
 40
0.5
 50
90
 51
180
  0
ARC
  8
_0-0_
  6
CONTINUOUS
 62
    7
 10
164.72711982090584
 20
50.745301601740323
 40
0.5
 50
90
 51
180
  0
ARC
  8
_0-0_
  6
CONTINUOUS
 62
    7
 10
167.12711982090548
 20
41.745301601740323
 40
0.5
 50
270
 51
0
  0
ARC
  8
_0-0_
  6
CONTINUOUS
 62
    7
 10
167.32711982090575
 20
42.945301601740141
 40
0.2999999999999999
 50
0
 51
90.000000000000028
  0
ARC
  8
_0-0_
  6
CONTINUOUS
 62
    7
 10
158.70686506448271
 20
40.924135001926118
 40
0.1
 50
44.999999999998629
 51
125.0000000000024
  0
ARC
  8
_0-0_
  6
CONTINUOUS
 62
    7
 10
159.03849719509469
 20
40.875345583788487
 40
0.1
 50
224.99999999999866
 51
305.00000000000114
  0
ARC
  8
_0-0_
  6
CONTINUOUS
 62
    7
 10
159.45686506448271
 20
40.924135001926118
 40
0.1
 50
44.999999999998067
 51
125.00000000000365
  0
ARC
  8
_0-0_
  6
CONTINUOUS
 62
    7
 10
159.78849719509469
 20
40.875345583788487
 40
0.1
 50
225
 51
304.9999999999992
  0
ARC
  8
_0-0_
  6
CONTINUOUS
 62
    7
 10
160.20686506448271
 20
40.924135001926118
 40
0.1
 50
44.999999999998629
 51
125.0000000000024
  0
ARC
  8
_0-0_
  6
CONTINUOUS
 62
    7
 10
160.53849719509469
 20
40.875345583788487
 40
0.1
 50
224.99999999999866
 51
305.00000000000114
  0
ARC
  8
_0-0_
  6
CONTINUOUS
 62
    7
 10
163.95686506448271
 20
40.924135001926118
 40
0.1
 50
44.999999999998067
 51
125.00000000000365
  0
ARC
  8
_0-0_
  6
CONTINUOUS
 62
    7
 10
164.28849719509469
 20
40.875345583788487
 40
0.1
 50
225
 51
304.9999999999992
  0
ARC
  8
_0-0_
  6
CONTINUOUS
 62
    7
 10
162.45686506448271
 20
40.924135001926118
 40
0.1
 50
44.999999999998067
 51
125.00000000000365
  0
ARC
  8
_0-0_
  6
CONTINUOUS
 62
    7
 10
162.78849719509469
 20
40.875345583788487
 40
0.1
 50
225
 51
304.9999999999992
  0
ARC
  8
_0-0_
  6
CONTINUOUS
 62
    7
 10
163.20686506448271
 20
40.924135001926118
 40
0.1
 50
44.999999999998629
 51
125.0000000000024
  0
ARC
  8
_0-0_
  6
CONTINUOUS
 62
    7
 10
163.53849719509469
 20
40.875345583788487
 40
0.1
 50
224.99999999999866
 51
305.00000000000114
  0
ARC
  8
_0-0_
  6
CONTINUOUS
 62
    7
 10
160.95686506448271
 20
40.924135001926118
 40
0.1
 50
44.999999999998067
 51
125.00000000000365
  0
ARC
  8
_0-0_
  6
CONTINUOUS
 62
    7
 10
161.28849719509469
 20
40.875345583788487
 40
0.1
 50
225
 51
304.9999999999992
  0
ARC
  8
_0-0_
  6
CONTINUOUS
 62
    7
 10
161.70686506448271
 20
40.924135001926118
 40
0.1
 50
44.999999999998629
 51
125.0000000000024
  0
ARC
  8
_0-0_
  6
CONTINUOUS
 62
    7
 10
162.03849719509469
 20
40.875345583788487
 40
0.1
 50
224.99999999999866
 51
305.00000000000114
  0
ARC
  8
_0-0_
  6
CONTINUOUS
 62
    7
 10
163.47712034542644
 20
34.855366961661332
 40
0.2999999999999999
 50
180
 51
330.00000000000045
  0
ARC
  8
_0-0_
  6
CONTINUOUS
 62
    7
 10
165.7807101839129
 20
37.645301601718813
 40
0.2999999999999999
 50
29.999999999999151
 51
150.0000000000002
  0
ARC
  8
_0-0_
  6
CONTINUOUS
 62
    7
 10
166.12712034542653
 20
37.045301601718904
 40
0.2999999999999971
 50
330.00000000000432
 51
29.999999999995666
  0
ARC
  8
_0-0_
  6
CONTINUOUS
 62
    7
 10
159.07353050694053
 20
37.645301601718813
 40
0.2999999999999999
 50
29.999999999999762
 51
150.00000000000085
  0
ARC
  8
_0-0_
  6
CONTINUOUS
 62
    7
 10
161.37712034542653
 20
34.855366961661332
 40
0.2999999999999999
 50
209.9999999999998
 51
0.0000000000000254
  0
ARC
  8
_0-0_
  6
CONTINUOUS
 62
    7
 10
158.72712034542644
 20
37.045301601718904
 40
0.2999999999999971
 50
150.00000000000432
 51
209.99999999999568
  0
ARC
  8
_0-0_
  6
CONTINUOUS
 62
    7
 10
156.42712034542626
 20
39.745301601740323
 40
0.5
 50
180
 51
270
  0
ARC
  8
_0-0_
  6
CONTINUOUS
 62
    7
 10
169.12711982090548
 20
50.745301601740323
 40
0.5
 50
0
 51
90
  0
ARC
  8
_0-0_
  6
CONTINUOUS
 62
    7
 10
169.12711982090548
 20
49.745301601740323
 40
0.5
 50
270
 51
0
  0
ARC
  8
_0-0_
  6
CONTINUOUS
 62
    7
 10
169.12711982090548
 20
48.745301601740323
 40
0.5
 50
90
 51
180
  0
ARC
  8
_0-0_
  6
CONTINUOUS
 62
    7
 10
169.12711982090548
 20
46.152408382926808
 40
0.5
 50
180
 51
224.99999999999852
  0
ARC
  8
_0-0_
  6
CONTINUOUS
 62
    7
 10
163.47712034542644
 20
38.645301411005278
 40
0.2999999999999999
 50
90
 51
180
  0
ARC
  8
_0-0_
  6
CONTINUOUS
 62
    7
 10
161.37712034542653
 20
38.645301411005278
 40
0.2999999999999999
 50
0
 51
90.000000000000028
  0
ARC
  8
_0-0_
  6
CONTINUOUS
 62
    7
 10
164.02001303971917
 20
45.245301601740323
 40
0.5
 50
270
 51
314.9999999999992
  0
ARC
  8
_0-0_
  6
CONTINUOUS
 62
    7
 10
164.72711982090584
 20
49.745301601740323
 40
0.5
 50
180
 51
270
  0
ARC
  8
_0-0_
  6
CONTINUOUS
 62
    7
 10
165.92711982090566
 20
48.745301601740323
 40
0.5
 50
0
 51
90.000000000000028
  0
ARC
  8
_0-0_
  6
CONTINUOUS
 62
    7
 10
165.92711982090566
 20
47.152408382926581
 40
0.5
 50
314.99999999999875
 51
359.99999999999994
  0
ARC
  8
_0-0_
  6
CONTINUOUS
 62
    7
 10
164.1063944032752
 20
33.545301601740277
 40
0.2999999999999999
 50
270
 51
329.99999999999488
  0
ARC
  8
_0-0_
  6
CONTINUOUS
 62
    7
 10
160.74784628757777
 20
33.545301601740277
 40
0.2999999999999999
 50
210.00000000000239
 51
270
  0
ARC
  8
_0-0_
  6
CONTINUOUS
 62
    7
 10
169.32711982090575
 20
44.538194820553656
 40
0.5
 50
0
 51
45
  0
ARC
  8
_0-0_
  6
CONTINUOUS
 62
    7
 10
169.32711982090575
 20
39.745302126261265
 40
0.5
 50
270
 51
0
  0
LINE
  8
_0-0_
  6
CONTINUOUS
 62
    7
 10
90.497500021171959
 20
52.033344647286242
 11
90.458450841790523
 21
50.641890233044307
  0
LINE
  8
_0-0_
  6
CONTINUOUS
 62
    7
 10
90.453106219787855
 20
50.620761675655842
 11
87.755447197881381
 21
45.276528466188495
  0
LINE
  8
_0-0_
  6
CONTINUOUS
 62
    7
 10
87.649992711636401
 20
44.88639985248966
 11
87.519250394418464
 21
42.729151618390972
  0
LINE
  8
_0-0_
  6
CONTINUOUS
 62
    7
 10
87.519250394418464
 20
42.729151618390972
 11
87.519250394418464
 21
41.92915161839079
  0
LINE
  8
_0-0_
  6
CONTINUOUS
 62
    7
 10
87.619250394418373
 20
41.829151618390881
 11
88.277829038181039
 21
41.829151618390881
  0
LINE
  8
_0-0_
  6
CONTINUOUS
 62
    7
 10
88.348539716299797
 20
41.799862296509502
 11
88.79143931927581
 21
41.356962693533262
  0
LINE
  8
_0-0_
  6
CONTINUOUS
 62
    7
 10
88.858555781330665
 20
41.327737984471753
 11
91.555268929606314
 21
41.230749620378958
  0
LINE
  8
_0-0_
  6
CONTINUOUS
 62
    7
 10
91.628279157854081
 20
41.195092994167283
 11
91.954971633449873
 21
40.805756062702642
  0
LINE
  8
_0-0_
  6
CONTINUOUS
 62
    7
 10
92.027119820906023
 20
40.745301601740096
 11
91.718242438671837
 21
41.054178983974509
  0
LINE
  8
_0-0_
  6
CONTINUOUS
 62
    7
 10
91.718242438671837
 20
41.054178983974509
 11
91.277119820906023
 21
40.745301601740323
  0
LINE
  8
_0-0_
  6
CONTINUOUS
 62
    7
 10
91.277119820906023
 20
40.745301601740323
 11
91.027575742601471
 21
40.994845680044875
  0
LINE
  8
_0-0_
  6
CONTINUOUS
 62
    7
 10
90.899507420847726
 20
41.006050206355042
 11
90.527119820906023
 21
40.745301601740096
  0
LINE
  8
_0-0_
  6
CONTINUOUS
 62
    7
 10
90.527119820906023
 20
40.745301601740096
 11
90.218242438671837
 21
41.054178983974509
  0
LINE
  8
_0-0_
  6
CONTINUOUS
 62
    7
 10
90.218242438671837
 20
41.054178983974509
 11
89.777119820906023
 21
40.745301601740323
  0
LINE
  8
_0-0_
  6
CONTINUOUS
 62
    7
 10
89.777119820906023
 20
40.745301601740323
 11
89.527575742601471
 21
40.994845680044875
  0
LINE
  8
_0-0_
  6
CONTINUOUS
 62
    7
 10
89.399507420847726
 20
41.006050206355042
 11
89.027119820906023
 21
40.745301601740096
  0
LINE
  8
_0-0_
  6
CONTINUOUS
 62
    7
 10
89.027119820906023
 20
40.745301601740096
 11
88.718242438671837
 21
41.054178983974509
  0
LINE
  8
_0-0_
  6
CONTINUOUS
 62
    7
 10
88.718242438671837
 20
41.054178983974509
 11
88.277119820906023
 21
40.745301601740323
  0
LINE
  8
_0-0_
  6
CONTINUOUS
 62
    7
 10
88.277119820906023
 20
40.745301601740323
 11
86.427120345426715
 21
40.745301601740323
  0
LINE
  8
_0-0_
  6
CONTINUOUS
 62
    7
 10
85.927120345426715
 20
40.245301601740323
 11
85.927120345426715
 21
39.745301601740323
  0
LINE
  8
_0-0_
  6
CONTINUOUS
 62
    7
 10
86.427120345426715
 20
39.245301601740323
 11
88.927119868589557
 21
39.245301601740323
  0
LINE
  8
_0-0_
  6
CONTINUOUS
 62
    7
 10
88.927119868589557
 20
39.245301601740323
 11
89.227119820905841
 21
38.94530141100546
  0
LINE
  8
_0-0_
  6
CONTINUOUS
 62
    7
 10
89.227119820905841
 20
38.94530141100546
 11
91.377120345426533
 21
38.94530141100546
  0
LINE
  8
_0-0_
  6
CONTINUOUS
 62
    7
 10
91.677120345426715
 20
38.645301411005278
 11
91.677120345426715
 21
34.855366961661332
  0
LINE
  8
_0-0_
  6
CONTINUOUS
 62
    7
 10
91.11731272429131
 20
34.705366961661241
 11
89.333338128075752
 21
37.795301601718904
  0
LINE
  8
_0-0_
  6
CONTINUOUS
 62
    7
 10
88.813722885805305
 20
37.795301601718904
 11
88.467312724291673
 21
37.195301601718768
  0
LINE
  8
_0-0_
  6
CONTINUOUS
 62
    7
 10
88.467312724291673
 20
36.895301601719041
 11
90.488038666443003
 21
33.395301601740186
  0
LINE
  8
_0-0_
  6
CONTINUOUS
 62
    7
 10
90.747846287578227
 20
33.245301601740323
 11
94.106394403275203
 21
33.245301601740323
  0
LINE
  8
_0-0_
  6
CONTINUOUS
 62
    7
 10
94.366202024410882
 20
33.395301601740186
 11
96.386927966562212
 21
36.895301601718813
  0
LINE
  8
_0-0_
  6
CONTINUOUS
 62
    7
 10
96.386927966562212
 20
37.195301601718768
 11
96.040517805048125
 21
37.795301601718904
  0
LINE
  8
_0-0_
  6
CONTINUOUS
 62
    7
 10
95.520902562777678
 20
37.795301601718904
 11
93.736927966562121
 21
34.705366961661468
  0
LINE
  8
_0-0_
  6
CONTINUOUS
 62
    7
 10
93.177120345426715
 20
34.855366961661332
 11
93.177120345426715
 21
38.645301411005278
  0
LINE
  8
_0-0_
  6
CONTINUOUS
 62
    7
 10
93.477120345426897
 20
38.94530141100546
 11
95.627119916273273
 21
38.94530141100546
  0
LINE
  8
_0-0_
  6
CONTINUOUS
 62
    7
 10
95.627119916273273
 20
38.94530141100546
 11
95.927119868589557
 21
39.245301601740323
  0
LINE
  8
_0-0_
  6
CONTINUOUS
 62
    7
 10
95.927119868589557
 20
39.245301601740323
 11
99.327119820906205
 21
39.245301601740323
  0
LINE
  8
_0-0_
  6
CONTINUOUS
 62
    7
 10
99.827119820906205
 20
39.745302126261265
 11
99.827119820906205
 21
44.538194820553656
  0
LINE
  8
_0-0_
  6
CONTINUOUS
 62
    7
 10
99.680673211499538
 20
44.891748211146989
 11
98.773566430313053
 21
45.798854992333474
  0
LINE
  8
_0-0_
  6
CONTINUOUS
 62
    7
 10
98.627119820905932
 20
46.152408382926808
 11
98.627119820905932
 21
48.745301601740323
  0
LINE
  8
_0-0_
  6
CONTINUOUS
 62
    7
 10
99.627119820905932
 20
49.745301601740323
 11
99.627119820905932
 21
50.745301601740323
  0
LINE
  8
_0-0_
  6
CONTINUOUS
 62
    7
 10
99.127119820905932
 20
51.245301601740323
 11
94.727119820905841
 21
51.245301601740323
  0
LINE
  8
_0-0_
  6
CONTINUOUS
 62
    7
 10
94.227119820905841
 20
50.745301601740323
 11
94.227119820905841
 21
49.745301601740323
  0
LINE
  8
_0-0_
  6
CONTINUOUS
 62
    7
 10
94.727119820905841
 20
49.245301601740323
 11
95.927119820906114
 21
49.245301601740323
  0
LINE
  8
_0-0_
  6
CONTINUOUS
 62
    7
 10
96.427119820906114
 20
48.745301601740323
 11
96.427119820906114
 21
47.152408382926581
  0
LINE
  8
_0-0_
  6
CONTINUOUS
 62
    7
 10
96.280673211498993
 20
46.798854992333474
 11
94.373566430312508
 21
44.891748211146989
  0
LINE
  8
_0-0_
  6
CONTINUOUS
 62
    7
 10
94.020013039719629
 20
44.745301601740323
 11
91.227119820905841
 21
44.745301601740323
  0
LINE
  8
_0-0_
  6
CONTINUOUS
 62
    7
 10
90.727119820905841
 20
44.245301601740323
 11
90.727119820905841
 21
43.950504126647104
  0
LINE
  8
_0-0_
  6
CONTINUOUS
 62
    7
 10
91.097710298354627
 20
43.467541213502557
 11
91.863536547148556
 21
43.262338688595776
  0
LINE
  8
_0-0_
  6
CONTINUOUS
 62
    7
 10
91.992946069699769
 20
43.245301601740323
 11
97.327119820906205
 21
43.245301601740323
  0
LINE
  8
_0-0_
  6
CONTINUOUS
 62
    7
 10
97.627119820906387
 20
42.945301601740141
 11
97.627119820906387
 21
41.745301601740323
  0
LINE
  8
_0-0_
  6
CONTINUOUS
 62
    7
 10
97.127119820906387
 20
41.245301601740323
 11
94.991193824277047
 21
41.245301601740323
  0
LINE
  8
_0-0_
  6
CONTINUOUS
 62
    7
 10
94.991193824277047
 20
41.245301601740323
 11
94.277119820906023
 21
40.745301601740323
  0
LINE
  8
_0-0_
  6
CONTINUOUS
 62
    7
 10
94.277119820906023
 20
40.745301601740323
 11
94.027575742601471
 21
40.994845680044875
  0
LINE
  8
_0-0_
  6
CONTINUOUS
 62
    7
 10
93.899507420847726
 20
41.006050206355042
 11
93.527119820906023
 21
40.745301601740096
  0
LINE
  8
_0-0_
  6
CONTINUOUS
 62
    7
 10
93.527119820906023
 20
40.745301601740096
 11
93.218242438671837
 21
41.054178983974509
  0
LINE
  8
_0-0_
  6
CONTINUOUS
 62
    7
 10
93.218242438671837
 20
41.054178983974509
 11
92.777119820906023
 21
40.745301601740323
  0
LINE
  8
_0-0_
  6
CONTINUOUS
 62
    7
 10
92.777119820906023
 20
40.745301601740323
 11
92.527575742601471
 21
40.994845680044875
  0
LINE
  8
_0-0_
  6
CONTINUOUS
 62
    7
 10
92.523647222012073
 20
41.021850081458581
 11
92.704971633449873
 21
40.805756062702642
  0
LINE
  8
_0-0_
  6
CONTINUOUS
 62
    7
 10
92.845854838730133
 20
40.793430379359563
 11
93.365127190715043
 21
41.229151618390972
  0
LINE
  8
_0-0_
  6
CONTINUOUS
 62
    7
 10
93.365127190715043
 20
41.229151618390972
 11
95.147661207681153
 21
42.258298112925843
  0
LINE
  8
_0-0_
  6
CONTINUOUS
 62
    7
 10
95.24824032275535
 20
43.19899792878374
 11
93.973917510598199
 21
42.735182356312237
  0
LINE
  8
_0-0_
  6
CONTINUOUS
 62
    7
 10
93.939715496265649
 20
42.729151618390972
 11
89.719250394418282
 21
42.729151618390972
  0
LINE
  8
_0-0_
  6
CONTINUOUS
 62
    7
 10
88.719250394418282
 20
43.729151618390972
 11
88.719250394418282
 21
44.940771687707013
  0
LINE
  8
_0-0_
  6
CONTINUOUS
 62
    7
 10
88.765080391483366
 20
45.149887943493297
 11
91.222488004953789
 21
50.487018807975858
  0
LINE
  8
_0-0_
  6
CONTINUOUS
 62
    7
 10
91.227070509006239
 20
50.508153065886347
 11
91.220439993755349
 21
51.997256078208068
  0
LINE
  8
_0-0_
  6
CONTINUOUS
 62
    7
 10
91.126876916487959
 20
52.096603492567795
 11
90.603896597640755
 21
52.130332073676584
  0
LINE
  8
_0-0_
  6
CONTINUOUS
 62
    7
 10
92.027119820906023
 20
40.745301601740096
 11
92.399507420847726
 21
41.006050206355042
  0
LINE
  8
_0-0_
  6
CONTINUOUS
 62
    7
 10
92.382764016731358
 20
41.03417576480166
 11
92.095854838730133
 21
40.793430379359563
  0
ARC
  8
_0-0_
  6
CONTINUOUS
 62
    7
 10
90.59746066621608
 20
52.03053939465309
 40
0.1
 50
86.309932474025302
 51
178.39249775375112
  0
ARC
  8
_0-0_
  6
CONTINUOUS
 62
    7
 10
91.120440985063283
 20
51.996810813544073
 40
0.1
 50
0.2551187030587807
 51
86.309932474023597
  0
ARC
  8
_0-0_
  6
CONTINUOUS
 62
    7
 10
89.719250394418282
 20
43.729151618390972
 40
1
 50
180
 51
270
  0
ARC
  8
_0-0_
  6
CONTINUOUS
 62
    7
 10
87.619250394418373
 20
41.92915161839079
 40
0.1
 50
180
 51
270
  0
ARC
  8
_0-0_
  6
CONTINUOUS
 62
    7
 10
88.277829038181039
 20
41.729151618390972
 40
0.1
 50
45.000000000001677
 51
90.000000000000057
  0
ARC
  8
_0-0_
  6
CONTINUOUS
 62
    7
 10
88.862149997394567
 20
41.42767337165202
 40
0.1
 50
225.0000000000035
 51
267.94022224279126
  0
ARC
  8
_0-0_
  6
CONTINUOUS
 62
    7
 10
91.551674713541956
 20
41.130814233198691
 40
0.1
 50
40.000000000003006
 51
87.940222242791222
  0
ARC
  8
_0-0_
  6
CONTINUOUS
 62
    7
 10
92.031576077761542
 20
40.87003482367146
 40
0.1
 50
220.00000000000441
 51
310.0000000000025
  0
ARC
  8
_0-0_
  6
CONTINUOUS
 62
    7
 10
92.447042777699949
 20
40.95757132048999
 40
0.1
 50
40.000000000003304
 51
130.00000000000358
  0
ARC
  8
_0-0_
  6
CONTINUOUS
 62
    7
 10
92.781576077761542
 20
40.87003482367146
 40
0.1
 50
220.0000000000048
 51
310.00000000000335
  0
ARC
  8
_0-0_
  6
CONTINUOUS
 62
    7
 10
95.4192503944181
 20
42.729151618390972
 40
0.4998824974328499
 50
248.32214288913158
 51
110.00000000000512
  0
ARC
  8
_0-0_
  6
CONTINUOUS
 62
    7
 10
95.197661207681335
 20
42.171695572547435
 40
0.1
 50
68.322142889133517
 51
120.00000000000783
  0
ARC
  8
_0-0_
  6
CONTINUOUS
 62
    7
 10
93.939715496265649
 20
42.829151618390881
 40
0.1
 50
270
 51
290.00000000000023
  0
ARC
  8
_0-0_
  6
CONTINUOUS
 62
    7
 10
90.408470519268462
 20
50.643292859360884
 40
0.05
 50
333.21629472401474
 51
358.39249775375248
  0
ARC
  8
_0-0_
  6
CONTINUOUS
 62
    7
 10
91.177071004660661
 20
50.507930433554577
 40
0.05
 50
335.27695124788744
 51
0.2551187030538762
  0
ARC
  8
_0-0_
  6
CONTINUOUS
 62
    7
 10
89.219250394418282
 20
44.940771687707013
 40
0.5
 50
155.27695124788727
 51
180
  0
ARC
  8
_0-0_
  6
CONTINUOUS
 62
    7
 10
88.648161208267425
 20
44.825904792087897
 40
1
 50
153.2162947240148
 51
176.5317707410839
  0
ARC
  8
_0-0_
  6
CONTINUOUS
 62
    7
 10
86.427120345426715
 20
40.245301601740323
 40
0.5
 50
90
 51
180
  0
ARC
  8
_0-0_
  6
CONTINUOUS
 62
    7
 10
91.992946069699769
 20
43.745301601740323
 40
0.5
 50
254.99999999999412
 51
270
  0
ARC
  8
_0-0_
  6
CONTINUOUS
 62
    7
 10
91.227119820905841
 20
43.950504126647104
 40
0.5
 50
180
 51
254.99999999999517
  0
ARC
  8
_0-0_
  6
CONTINUOUS
 62
    7
 10
91.227119820905841
 20
44.245301601740323
 40
0.5
 50
90
 51
180
  0
ARC
  8
_0-0_
  6
CONTINUOUS
 62
    7
 10
94.727119820905841
 20
50.745301601740323
 40
0.5
 50
90
 51
180
  0
ARC
  8
_0-0_
  6
CONTINUOUS
 62
    7
 10
97.127119820906387
 20
41.745301601740323
 40
0.5
 50
270
 51
0
  0
ARC
  8
_0-0_
  6
CONTINUOUS
 62
    7
 10
97.327119820906205
 20
42.945301601740141
 40
0.2999999999999999
 50
0
 51
90.000000000000028
  0
ARC
  8
_0-0_
  6
CONTINUOUS
 62
    7
 10
88.706865064482713
 20
40.924135001926118
 40
0.1
 50
44.999999999998629
 51
125.0000000000024
  0
ARC
  8
_0-0_
  6
CONTINUOUS
 62
    7
 10
89.038497195095147
 20
40.875345583788487
 40
0.1
 50
224.99999999999866
 51
305.00000000000114
  0
ARC
  8
_0-0_
  6
CONTINUOUS
 62
    7
 10
89.456865064482713
 20
40.924135001926118
 40
0.1
 50
44.999999999998067
 51
125.00000000000365
  0
ARC
  8
_0-0_
  6
CONTINUOUS
 62
    7
 10
89.788497195095147
 20
40.875345583788487
 40
0.1
 50
225
 51
304.9999999999992
  0
ARC
  8
_0-0_
  6
CONTINUOUS
 62
    7
 10
90.206865064482713
 20
40.924135001926118
 40
0.1
 50
44.999999999998629
 51
125.0000000000024
  0
ARC
  8
_0-0_
  6
CONTINUOUS
 62
    7
 10
90.538497195095147
 20
40.875345583788487
 40
0.1
 50
224.99999999999866
 51
305.00000000000114
  0
ARC
  8
_0-0_
  6
CONTINUOUS
 62
    7
 10
93.956865064482713
 20
40.924135001926118
 40
0.1
 50
44.999999999998067
 51
125.00000000000365
  0
ARC
  8
_0-0_
  6
CONTINUOUS
 62
    7
 10
94.288497195095147
 20
40.875345583788487
 40
0.1
 50
225
 51
304.9999999999992
  0
ARC
  8
_0-0_
  6
CONTINUOUS
 62
    7
 10
92.456865064482713
 20
40.924135001926118
 40
0.1
 50
44.999999999998067
 51
125.00000000000365
  0
ARC
  8
_0-0_
  6
CONTINUOUS
 62
    7
 10
92.788497195095147
 20
40.875345583788487
 40
0.1
 50
225
 51
304.9999999999992
  0
ARC
  8
_0-0_
  6
CONTINUOUS
 62
    7
 10
93.206865064482713
 20
40.924135001926118
 40
0.1
 50
44.999999999998629
 51
125.0000000000024
  0
ARC
  8
_0-0_
  6
CONTINUOUS
 62
    7
 10
93.538497195095147
 20
40.875345583788487
 40
0.1
 50
224.99999999999866
 51
305.00000000000114
  0
ARC
  8
_0-0_
  6
CONTINUOUS
 62
    7
 10
90.956865064482713
 20
40.924135001926118
 40
0.1
 50
44.999999999998067
 51
125.00000000000365
  0
ARC
  8
_0-0_
  6
CONTINUOUS
 62
    7
 10
91.288497195095147
 20
40.875345583788487
 40
0.1
 50
225
 51
304.9999999999992
  0
ARC
  8
_0-0_
  6
CONTINUOUS
 62
    7
 10
91.706865064482713
 20
40.924135001926118
 40
0.1
 50
44.999999999998629
 51
125.0000000000024
  0
ARC
  8
_0-0_
  6
CONTINUOUS
 62
    7
 10
92.038497195095147
 20
40.875345583788487
 40
0.1
 50
224.99999999999866
 51
305.00000000000114
  0
ARC
  8
_0-0_
  6
CONTINUOUS
 62
    7
 10
93.477120345426897
 20
34.855366961661332
 40
0.2999999999999999
 50
180
 51
330.00000000000045
  0
ARC
  8
_0-0_
  6
CONTINUOUS
 62
    7
 10
95.780710183912902
 20
37.645301601718813
 40
0.2999999999999999
 50
29.999999999999151
 51
150.0000000000002
  0
ARC
  8
_0-0_
  6
CONTINUOUS
 62
    7
 10
96.127120345426533
 20
37.045301601718904
 40
0.2999999999999971
 50
330.00000000000432
 51
29.999999999995666
  0
ARC
  8
_0-0_
  6
CONTINUOUS
 62
    7
 10
89.073530506940529
 20
37.645301601718813
 40
0.2999999999999999
 50
29.999999999999762
 51
150.00000000000085
  0
ARC
  8
_0-0_
  6
CONTINUOUS
 62
    7
 10
91.377120345426533
 20
34.855366961661332
 40
0.2999999999999999
 50
209.9999999999998
 51
0.0000000000000254
  0
ARC
  8
_0-0_
  6
CONTINUOUS
 62
    7
 10
88.727120345426897
 20
37.045301601718904
 40
0.2999999999999971
 50
150.00000000000432
 51
209.99999999999568
  0
ARC
  8
_0-0_
  6
CONTINUOUS
 62
    7
 10
86.427120345426715
 20
39.745301601740323
 40
0.5
 50
180
 51
270
  0
ARC
  8
_0-0_
  6
CONTINUOUS
 62
    7
 10
99.127119820905932
 20
50.745301601740323
 40
0.5
 50
0
 51
90
  0
ARC
  8
_0-0_
  6
CONTINUOUS
 62
    7
 10
99.127119820905932
 20
49.745301601740323
 40
0.5
 50
270
 51
0
  0
ARC
  8
_0-0_
  6
CONTINUOUS
 62
    7
 10
99.127119820905932
 20
48.745301601740323
 40
0.5
 50
90
 51
180
  0
ARC
  8
_0-0_
  6
CONTINUOUS
 62
    7
 10
99.127119820905932
 20
46.152408382926808
 40
0.5
 50
180
 51
224.99999999999852
  0
ARC
  8
_0-0_
  6
CONTINUOUS
 62
    7
 10
93.477120345426897
 20
38.645301411005278
 40
0.2999999999999999
 50
90
 51
180
  0
ARC
  8
_0-0_
  6
CONTINUOUS
 62
    7
 10
91.377120345426533
 20
38.645301411005278
 40
0.2999999999999999
 50
0
 51
90.000000000000028
  0
ARC
  8
_0-0_
  6
CONTINUOUS
 62
    7
 10
94.020013039719629
 20
45.245301601740323
 40
0.5
 50
270
 51
314.9999999999992
  0
ARC
  8
_0-0_
  6
CONTINUOUS
 62
    7
 10
94.727119820905841
 20
49.745301601740323
 40
0.5
 50
180
 51
270
  0
ARC
  8
_0-0_
  6
CONTINUOUS
 62
    7
 10
95.927119820906114
 20
48.745301601740323
 40
0.5
 50
0
 51
90.000000000000028
  0
ARC
  8
_0-0_
  6
CONTINUOUS
 62
    7
 10
95.927119820906114
 20
47.152408382926581
 40
0.5
 50
314.99999999999875
 51
359.99999999999994
  0
ARC
  8
_0-0_
  6
CONTINUOUS
 62
    7
 10
94.106394403275203
 20
33.545301601740277
 40
0.2999999999999999
 50
270
 51
329.99999999999488
  0
ARC
  8
_0-0_
  6
CONTINUOUS
 62
    7
 10
90.747846287578227
 20
33.545301601740277
 40
0.2999999999999999
 50
210.00000000000239
 51
270
  0
ARC
  8
_0-0_
  6
CONTINUOUS
 62
    7
 10
99.327119820906205
 20
44.538194820553656
 40
0.5
 50
0
 51
45
  0
ARC
  8
_0-0_
  6
CONTINUOUS
 62
    7
 10
99.327119820906205
 20
39.745302126261265
 40
0.5
 50
270
 51
0
  0
LINE
  8
ADD_LINE
  6
DOT
 62
  152
 10
25.927119868589557
 20
26.745301601740323
 11
18.927119868589557
 21
26.745301601740323
  0
LINE
  8
ADD_LINE
  6
DOT
 62
  152
 10
22.427120345426715
 20
26.745301601740323
 11
22.427120345426715
 21
39.245301601740323
  0
LINE
  8
ADD_LINE
  6
DOT
 62
  152
 10
25.927119868589557
 20
39.245301601740323
 11
18.927119868589557
 21
39.245301601740323
  0
LINE
  8
ADD_LINE
  6
DOT
 62
  152
 10
165.92711986858956
 20
26.745301601740323
 11
158.92711986858956
 21
26.745301601740323
  0
LINE
  8
ADD_LINE
  6
DOT
 62
  152
 10
162.42712034542672
 20
26.745301601740323
 11
162.42712034542672
 21
39.245301601740323
  0
LINE
  8
ADD_LINE
  6
DOT
 62
  152
 10
165.92711986858956
 20
39.245301601740323
 11
158.92711986858956
 21
39.245301601740323
  0
LINE
  8
ADD_LINE
  6
DOT
 62
  152
 10
95.927119868589557
 20
39.245301601740323
 11
88.927119868589557
 21
39.245301601740323
  0
LINE
  8
ADD_LINE
  6
DOT
 62
  152
 10
92.427120345426715
 20
39.245301601740323
 11
92.427120345426715
 21
26.745301601740323
  0
LINE
  8
ADD_LINE
  6
DOT
 62
  152
 10
95.927119868589557
 20
26.745301601740323
 11
88.927119868589557
 21
26.745301601740323
  0
LINE
  8
_0-1_
  6
PHANTOM1
 62
  152
 10
9.9271203454267152
 20
14.245301601740323
 11
34.927120345426715
 21
14.245301601740323
  0
LINE
  8
_0-1_
  6
PHANTOM1
 62
  152
 10
34.927120345426715
 20
14.245301601740323
 11
34.927120345426715
 21
39.245301601740323
  0
LINE
  8
_0-1_
  6
PHANTOM1
 62
  152
 10
34.927120345426715
 20
39.245301601740323
 11
9.9271203454267152
 21
39.245301601740323
  0
LINE
  8
_0-1_
  6
PHANTOM1
 62
  152
 10
9.9271203454267152
 20
39.245301601740323
 11
9.9271203454267152
 21
14.245301601740323
  0
LINE
  8
_0-1_
  6
PHANTOM1
 62
  152
 10
79.927120345426715
 20
14.245301601740323
 11
104.92712034542672
 21
14.245301601740323
  0
LINE
  8
_0-1_
  6
PHANTOM1
 62
  152
 10
104.92712034542672
 20
14.245301601740323
 11
104.92712034542672
 21
39.245301601740323
  0
LINE
  8
_0-1_
  6
PHANTOM1
 62
  152
 10
104.92712034542672
 20
39.245301601740323
 11
79.927120345426715
 21
39.245301601740323
  0
LINE
  8
_0-1_
  6
PHANTOM1
 62
  152
 10
79.927120345426715
 20
39.245301601740323
 11
79.927120345426715
 21
14.245301601740323
  0
LINE
  8
_0-1_
  6
PHANTOM1
 62
  152
 10
149.92712034542672
 20
14.245301601740323
 11
174.92712034542672
 21
14.245301601740323
  0
LINE
  8
_0-1_
  6
PHANTOM1
 62
  152
 10
174.92712034542672
 20
14.245301601740323
 11
174.92712034542672
 21
39.245301601740323
  0
LINE
  8
_0-1_
  6
PHANTOM1
 62
  152
 10
174.92712034542672
 20
39.245301601740323
 11
149.92712034542672
 21
39.245301601740323
  0
LINE
  8
_0-1_
  6
PHANTOM1
 62
  152
 10
149.92712034542672
 20
39.245301601740323
 11
149.92712034542672
 21
14.245301601740323
  0
LINE
  8
_0-1_
  6
PHANTOM1
 62
  152
 10
24.227119820905841
 20
45.245301601740323
 11
22.727119820905841
 21
45.245301601740323
  0
LINE
  8
_0-1_
  6
PHANTOM1
 62
  152
 10
21.715394062836822
 20
67.715214051046985
 11
25.54615339772954
 21
66.688765180864436
  0
LINE
  8
_0-1_
  6
PHANTOM1
 62
  152
 10
24.227119820905841
 20
67.042199162563918
 11
24.227119820905841
 21
45.245301601740323
  0
LINE
  8
_0-1_
  6
PHANTOM1
 62
  152
 10
22.727119820905841
 20
67.444122951210602
 11
22.727119820905841
 21
45.245301601740323
  0
LINE
  8
_0-1_
  6
PHANTOM1
 62
  152
 10
94.227119820905841
 20
67.042199162563918
 11
94.227119820905841
 21
45.245301601740323
  0
LINE
  8
_0-1_
  6
PHANTOM1
 62
  152
 10
164.22711982090584
 20
67.042199162563918
 11
164.22711982090584
 21
45.245301601740323
  0
LINE
  8
_0-1_
  6
PHANTOM1
 62
  152
 10
90.375734855721362
 20
68.074174653726459
 11
95.54615339772954
 21
66.688765180864436
  0
LINE
  8
_0-1_
  6
PHANTOM1
 62
  152
 10
91.227119820905841
 20
67.846046739857286
 11
91.227119820905841
 21
45.245301601740323
  0
LINE
  8
_0-1_
  6
PHANTOM1
 62
  152
 10
94.227119820905841
 20
45.245301601740323
 11
91.227119820905841
 21
45.245301601740323
  0
LINE
  8
_0-1_
  6
PHANTOM1
 62
  152
 10
164.22711982090584
 20
45.245301601740323
 11
159.22711982090584
 21
45.245301601740323
  0
LINE
  8
_0-1_
  6
PHANTOM1
 62
  152
 10
158.08419157790962
 20
68.688191824437069
 11
165.54615339772954
 21
66.688765180864436
  0
LINE
  8
_0-1_
  6
PHANTOM1
 62
  152
 10
159.22711982090584
 20
68.38194512471955
 11
159.22711982090584
 21
45.245301601740323
  0
TEXT
  8
_0-1_
 62
    7
 10
14.080145573671757
 20
16.582609022528061
 40
5
 41
1
 50
0
  1
t1.5
  0
TEXT
  8
_0-1_
 62
    7
 10
154.06981992348381
 20
15.925557234188602
 40
5
 41
1
 50
0
  1
t5.0
  0
TEXT
  8
_0-1_
 62
    7
 10
84.637748410898325
 20
16.582609022528061
 40
5
 41
1
 50
0
  1
t3.0
  0
ENDSEC
  0
EOF
