  0
SECTION
  2
HEADER
  9
$ACADVER
  1
AC1009
  9
$INSBASE
 10
0
 20
0
 30
0
  9
$EXTMIN
 10
0
 20
0
  9
$EXTMAX
 10
1189
 20
841
  9
$LIMMIN
 10
0
 20
0
  9
$LIMMAX
 10
1189
 20
841
  9
$LTSCALE
 40
1
  0
ENDSEC
  0
SECTION
  2
TABLES
  0
TABLE
  2
LTYPE
 70
     9
  0
LTYPE
  2
CONTINUOUS
 70
    64
  3
実線
 72
    65
 73
     0
 40
0.0
  0
LTYPE
  2
DASHED1
 70
    64
  3
--  --  --  --  --  --  --  --  
 72
    65
 73
     2
 40
2.5
 49
1.25
 49
-1.25
  0
LTYPE
  2
DASHED2
 70
    64
  3
----    ----    ----    ----    
 72
    65
 73
     2
 40
5.0
 49
2.5
 49
-2.5
  0
LTYPE
  2
DASHED3
 70
    64
  3
------  ------  ------  ------  
 72
    65
 73
     2
 40
5.0
 49
3.75
 49
-1.25
  0
LTYPE
  2
CENTER1
 70
    64
  3
----- - ----- - ----- - ----- - 
 72
    65
 73
     4
 40
10.0
 49
6.25
 49
-1.25
 49
1.25
 49
-1.25
  0
LTYPE
  2
CENTER2
 70
    64
  3
----------  --  ----------  --  
 72
    65
 73
     4
 40
20.0
 49
12.5
 49
-2.5
 49
2.5
 49
-2.5
  0
LTYPE
  2
PHANTOM1
 70
    64
  3
--- - - --- - - --- - - --- - - 
 72
    65
 73
     6
 40
10.0
 49
3.25
 49
-1.25
 49
1.25
 49
-1.25
 49
1.25
 49
-1.25
  0
LTYPE
  2
PHANTOM2
 70
    64
  3
--------  -  -  --------  -  -  
 72
    65
 73
     6
 40
20.0
 49
10.0
 49
-2.5
 49
1.25
 49
-2.5
 49
1.25
 49
-2.5
  0
LTYPE
  2
DOT
 70
    64
  3
-   -   -   -   -   -   -   -   
 72
    65
 73
     2
 40
2.5
 49
0.625
 49
-1.875
  0
LTYPE
  2
DUMMY
 70
    64
  3
ダミー
 72
    65
 73
     0
 40
0.0
  0
LTYPE
  2
RAND1
 70
    64
  3
ランダム線1
 72
    65
 73
     4
 40
10.0
 49
1.0
 49
-2.0
 49
3.0
 49
-4.0
  0
LTYPE
  2
RAND2
 70
    64
  3
ランダム線2
 72
    65
 73
     4
 40
14.0
 49
2.0
 49
-3.0
 49
4.0
 49
-5.0
  0
LTYPE
  2
RAND3
 70
    64
  3
ランダム線3
 72
    65
 73
     4
 40
18.0
 49
3.0
 49
-4.0
 49
5.0
 49
-6.0
  0
LTYPE
  2
RAND4
 70
    64
  3
ランダム線4
 72
    65
 73
     4
 40
22.0
 49
4.0
 49
-5.0
 49
6.0
 49
-7.0
  0
LTYPE
  2
RAND5
 70
    64
  3
ランダム線5
 72
    65
 73
     4
 40
26.0
 49
5.0
 49
-6.0
 49
7.0
 49
-8.0
  0
LTYPE
  2
LONG1
 70
    64
  3
----------  --  ----------  --  
 72
    65
 73
     4
 40
40.0
 49
32.5
 49
-2.5
 49
2.5
 49
-2.5
  0
LTYPE
  2
LONG2
 70
    64
  3
--------  -  -  --------  -  -  
 72
    65
 73
     6
 40
40.0
 49
30.0
 49
-2.5
 49
1.25
 49
-2.5
 49
1.25
 49
-2.5
  0
LTYPE
  2
LONG3
 70
    64
  3
+++++++++++++++..+++++++++++++++
 72
    65
 73
     2
 40
40.0
 49
37.5
 49
-2.5
  0
LTYPE
  2
LONG4
 70
    64
  3
+++++++++++++++..+++++++++++++++
 72
    65
 73
     2
 40
80.0
 49
75.0
 49
-5.0
  0
LTYPE
  2
LONG5
 70
    64
  3
----------  --  ----------  --  
 72
    65
 73
     4
 40
60.0
 49
37.5
 49
-7.5
 49
7.5
 49
-7.5
  0
LTYPE
  2
dashed
 70
   64
  3
-------   -------------   ------
 72
   65
 73
    2
 40
7.5
 49
6
 49
-1.5
  0
LTYPE
  2
dashed_spaced
 70
   64
  3
----        --------        ----
 72
   65
 73
    2
 40
12
 49
6
 49
-6
  0
LTYPE
  2
long_dashed_dotted
 70
   64
  3
------------- --- --------------
 72
   65
 73
    4
 40
15.25
 49
12
 49
-1.5
 49
0.25
 49
-1.5
  0
LTYPE
  2
long_dashed_double-dotted
 70
   64
  3
----------- --- --- ------------
 72
   65
 73
    6
 40
17
 49
12
 49
-1.5
 49
0.25
 49
-1.5
 49
0.25
 49
-1.5
  0
LTYPE
  2
long_dashed_triplicate-dotted
 70
   64
  3
--------- --- --- --- ----------
 72
   65
 73
    8
 40
18.75
 49
12
 49
-1.5
 49
0.25
 49
-1.5
 49
0.25
 49
-1.5
 49
0.25
 49
-1.5
  0
LTYPE
  2
dotted
 70
   64
  3
   -       -       -       -    
 72
   65
 73
    2
 40
1.75
 49
0.25
 49
-1.5
  0
LTYPE
  2
chain
 70
   64
  3
-------------- -- --------------
 72
   65
 73
    4
 40
18.5
 49
12
 49
-1.5
 49
3.5
 49
-1.5
  0
LTYPE
  2
chain_double_dash
 70
   64
  3
------------ -- -- -------------
 72
   65
 73
    6
 40
23.5
 49
12
 49
-1.5
 49
3.5
 49
-1.5
 49
3.5
 49
-1.5
  0
LTYPE
  2
dashed_dotted
 70
   64
  3
-----------     -     ----------
 72
   65
 73
    4
 40
9.25
 49
6
 49
-1.5
 49
0.25
 49
-1.5
  0
LTYPE
  2
double-dashed_dotted
 70
   64
  3
------   -----------   -   -----
 72
   65
 73
    6
 40
16.75
 49
6
 49
-1.5
 49
6
 49
-1.5
 49
0.25
 49
-1.5
  0
LTYPE
  2
dashed_double-dotted
 70
   64
  3
---------    -    -    ---------
 72
   65
 73
    6
 40
11
 49
6
 49
-1.5
 49
0.25
 49
-1.5
 49
0.25
 49
-1.5
  0
LTYPE
  2
double-dashed_double-dotted
 70
   64
  3
-----   ---------   -   -   ----
 72
   65
 73
    8
 40
18.5
 49
6
 49
-1.5
 49
6
 49
-1.5
 49
0.25
 49
-1.5
 49
0.25
 49
-1.5
  0
LTYPE
  2
dashed_triplicate-dotted
 70
   64
  3
-------    -    -    -    ------
 72
   65
 73
    8
 40
12.75
 49
6
 49
-1.5
 49
0.25
 49
-1.5
 49
0.25
 49
-1.5
 49
0.25
 49
-1.5
  0
LTYPE
  2
double-dashed_triplicate-dotted
 70
   64
  3
-----  ---------  -  -  -  -----
 72
   65
 73
   10
 40
20.25
 49
6
 49
-1.5
 49
6
 49
-1.5
 49
0.25
 49
-1.5
 49
0.25
 49
-1.5
 49
0.25
 49
-1.5
  0
LTYPE
  2
undefined
 70
   64
  3
--------------------------------
 72
   65
 73
    0
 40
0
  0
ENDTAB
  0
TABLE
  2
STYLE
  5
3
100
AcDbSymbolTable
 70
     1
  0
STYLE
  5
10
100
AcDbSymbolTableRecord
100
AcDbTextStyleTableRecord
  2
STANDARD
 70
     0
 40
0.0
 41
1.0
 50
0.0
 71
     0
 42
0.2
  3
txt
  4
bigfont.shx
  0
STYLE
  5
26
100
AcDbSymbolTableRecord
100
AcDbTextStyleTableRecord
  2
TATEGAKI
 70
    68
 40
0.0
 41
1.0
 50
0.0
 71
     0
 42
1.0
  3
txt
  4
bigfont.shx
  0
ENDTAB
  0
TABLE
  2
LAYER
 70
    4
  0
LAYER
  2
_0-0_
 70
   64
 62
    7
  6
CONTINUOUS
  0
LAYER
  2
_0-1_
 70
   64
 62
    7
  6
CONTINUOUS
  0
LAYER
  2
_0-e_
 70
   64
 62
    7
  6
CONTINUOUS
  0
LAYER
  2
ADD_LINE
 70
   64
 62
    7
  6
CONTINUOUS
  0
ENDTAB
  0
ENDSEC
  0
SECTION
  2
BLOCKS
  0
ENDSEC
  0
SECTION
  2
ENTITIES
  0
LINE
  8
_0-0_
  6
CONTINUOUS
 62
    7
 10
87.756246778463947
 20
141.25870626227356
 11
93.256206778464048
 21
141.25870626227356
  0
LINE
  8
_0-0_
  6
CONTINUOUS
 62
    7
 10
93.256206778464048
 20
136.75870926227367
 11
95.756216778463795
 21
136.75870926227367
  0
LINE
  8
_0-0_
  6
CONTINUOUS
 62
    7
 10
95.756216778463795
 20
136.75870926227367
 11
95.756216778463795
 21
169.7586922622736
  0
LINE
  8
_0-0_
  6
CONTINUOUS
 62
    7
 10
95.756216778463795
 20
169.7586922622736
 11
93.256206778464048
 21
169.7586922622736
  0
LINE
  8
_0-0_
  6
CONTINUOUS
 62
    7
 10
93.256206778464048
 20
169.7586922622736
 11
93.256206778464048
 21
136.75870926227367
  0
LINE
  8
_0-0_
  6
CONTINUOUS
 62
    7
 10
93.256206778464048
 20
146.25871326227366
 11
87.756246778463947
 21
146.25871326227366
  0
LINE
  8
_0-0_
  6
CONTINUOUS
 62
    7
 10
83.256216778463795
 20
158.62059626227369
 11
83.256216778463795
 21
164.38298226227357
  0
LINE
  8
_0-0_
  6
CONTINUOUS
 62
    7
 10
40.254276778463918
 20
143.75870126227369
 11
40.254276778463918
 21
161.69068044877508
  0
LINE
  8
_0-0_
  6
CONTINUOUS
 62
    7
 10
45.254286778463893
 20
161.69050532781398
 11
45.254286778463893
 21
143.75870126227369
  0
LINE
  8
_0-0_
  6
CONTINUOUS
 62
    7
 10
261.52696966585836
 20
137.46190008873805
 11
259.02696966585836
 21
137.46190008873805
  0
LINE
  8
_0-0_
  6
CONTINUOUS
 62
    7
 10
259.02696966585836
 20
137.46190008873805
 11
259.02696966585836
 21
170.36189208873816
  0
LINE
  8
_0-0_
  6
CONTINUOUS
 62
    7
 10
259.02696966585836
 20
170.36189208873816
 11
261.52696966585836
 21
170.36189208873816
  0
LINE
  8
_0-0_
  6
CONTINUOUS
 62
    7
 10
261.52696966585836
 20
170.36189208873816
 11
261.52696966585836
 21
137.46190008873805
  0
LINE
  8
_0-0_
  6
CONTINUOUS
 62
    7
 10
259.02696966585836
 20
141.9118980887381
 11
253.52695966585861
 21
141.9118980887381
  0
LINE
  8
_0-0_
  6
CONTINUOUS
 62
    7
 10
253.52695966585861
 20
146.9118960887381
 11
259.02696966585836
 21
146.9118960887381
  0
LINE
  8
_0-0_
  6
CONTINUOUS
 62
    7
 10
253.52693966585844
 20
160.91189208873811
 11
259.02696966585836
 21
160.91189208873811
  0
LINE
  8
_0-0_
  6
CONTINUOUS
 62
    7
 10
259.02696966585836
 20
165.91189208873811
 11
253.52691966585849
 21
165.91189208873811
  0
LINE
  8
_0-0_
  6
CONTINUOUS
 62
    7
 10
182.61928803080218
 20
163.41189208873811
 11
182.61928803080218
 21
144.41191008873807
  0
LINE
  8
_0-0_
  6
CONTINUOUS
 62
    7
 10
187.61928803080218
 20
144.4119010887382
 11
187.61928803080218
 21
163.41189208873811
  0
CIRCLE
  8
_0-0_
  6
CONTINUOUS
 62
    7
 10
42.754276778463918
 20
153.25870526227368
 40
16.499998999999999
  0
CIRCLE
  8
_0-0_
  6
CONTINUOUS
 62
    7
 10
33.254276778463918
 20
153.25870526227368
 40
2.0999998
  0
CIRCLE
  8
_0-0_
  6
CONTINUOUS
 62
    7
 10
52.254286778463893
 20
153.25870526227368
 40
2.0999998
  0
CIRCLE
  8
_0-0_
  6
CONTINUOUS
 62
    7
 10
33.254276778463918
 20
153.25870526227368
 40
3.9999999000000002
  0
CIRCLE
  8
_0-0_
  6
CONTINUOUS
 62
    7
 10
52.254286778463893
 20
153.25870526227368
 40
3.9999999000000002
  0
ARC
  8
_0-0_
  6
CONTINUOUS
 62
    7
 10
42.754276778463918
 20
143.75870126227369
 40
2.5000000999999998
 50
180
 51
359.99983999999995
  0
ARC
  8
_0-0_
  6
CONTINUOUS
 62
    7
 10
87.756246778463947
 20
153.25870526227368
 40
12
 50
112.02444500000001
 51
270
  0
ARC
  8
_0-0_
  6
CONTINUOUS
 62
    7
 10
87.756246778463947
 20
153.25870526227368
 40
6.9999995999999998
 50
130.00541699999999
 51
270
  0
LINE
  8
_0-0_
  6
CONTINUOUS
 62
    7
 10
45.254286778463893
 20
161.69050532781409
 11
45.187810963680931
 21
162.18687889310638
  0
LINE
  8
_0-0_
  6
CONTINUOUS
 62
    7
 10
45.187810963680931
 20
162.18687889310638
 11
45.047393444107911
 21
162.66243651388623
  0
LINE
  8
_0-0_
  6
CONTINUOUS
 62
    7
 10
45.047393444107911
 20
162.66243651388623
 11
44.837300735022154
 21
163.1027286124899
  0
LINE
  8
_0-0_
  6
CONTINUOUS
 62
    7
 10
44.837300735022154
 20
163.1027286124899
 11
44.563916397077492
 21
163.49437713629993
  0
LINE
  8
_0-0_
  6
CONTINUOUS
 62
    7
 10
44.563916397077492
 20
163.49437713629993
 11
44.235547075043087
 21
163.82548204310399
  0
LINE
  8
_0-0_
  6
CONTINUOUS
 62
    7
 10
44.235547075043087
 20
163.82548204310399
 11
43.862170104606093
 21
164.08598287785617
  0
LINE
  8
_0-0_
  6
CONTINUOUS
 62
    7
 10
43.862170104606093
 20
164.08598287785617
 11
43.455130356075188
 21
164.26796445451208
  0
LINE
  8
_0-0_
  6
CONTINUOUS
 62
    7
 10
43.455130356075188
 20
164.26796445451208
 11
43.02679552623772
 21
164.36589735495227
  0
LINE
  8
_0-0_
  6
CONTINUOUS
 62
    7
 10
43.02679552623772
 20
164.36589735495227
 11
42.590180352150242
 21
164.3768059375534
  0
LINE
  8
_0-0_
  6
CONTINUOUS
 62
    7
 10
42.590180352150242
 20
164.3768059375534
 11
42.158551164939581
 21
164.30035875055296
  0
LINE
  8
_0-0_
  6
CONTINUOUS
 62
    7
 10
42.158551164939581
 20
164.30035875055296
 11
41.745022799044023
 21
164.13887860304396
  0
LINE
  8
_0-0_
  6
CONTINUOUS
 62
    7
 10
41.745022799044023
 20
164.13887860304396
 11
41.362160104606119
 21
163.89727198759545
  0
LINE
  8
_0-0_
  6
CONTINUOUS
 62
    7
 10
41.362160104606119
 20
163.89727198759545
 11
41.021596170858174
 21
163.58287999895902
  0
LINE
  8
_0-0_
  6
CONTINUOUS
 62
    7
 10
41.021596170858174
 20
163.58287999895902
 11
40.733678860593727
 21
163.20525527861946
  0
LINE
  8
_0-0_
  6
CONTINUOUS
 62
    7
 10
40.733678860593727
 20
163.20525527861946
 11
40.507156395591892
 21
162.77587176261682
  0
LINE
  8
_0-0_
  6
CONTINUOUS
 62
    7
 10
40.507156395591892
 20
162.77587176261682
 11
40.348911546325894
 21
162.3077760518064
  0
LINE
  8
_0-0_
  6
CONTINUOUS
 62
    7
 10
40.348911546325894
 20
162.3077760518064
 11
40.263752502464854
 21
161.81519099749329
  0
LINE
  8
_0-0_
  6
CONTINUOUS
 62
    7
 10
40.263752502464854
 20
161.81519099749329
 11
40.254276778463918
 21
161.69068044877508
  0
ARC
  8
_0-0_
  6
CONTINUOUS
 62
    7
 10
253.52695966585861
 20
153.91189708873799
 40
6.9999995999999998
 50
90.000168000000016
 51
270
  0
ARC
  8
_0-0_
  6
CONTINUOUS
 62
    7
 10
253.52695966585861
 20
153.91189708873799
 40
11.999999000000001
 50
90.000168000000016
 51
270
  0
ARC
  8
_0-0_
  6
CONTINUOUS
 62
    7
 10
253.52695966585861
 20
153.91189708873799
 40
11.999999000000001
 50
90.000152999999997
 51
90.000168000000002
  0
CIRCLE
  8
_0-0_
  6
CONTINUOUS
 62
    7
 10
194.61929803080238
 20
153.91189708873799
 40
3.6999998000000001
  0
CIRCLE
  8
_0-0_
  6
CONTINUOUS
 62
    7
 10
175.61928803080218
 20
153.91189708873799
 40
3.6999998000000001
  0
CIRCLE
  8
_0-0_
  6
CONTINUOUS
 62
    7
 10
194.61929803080238
 20
153.91189708873799
 40
2.0999998
  0
CIRCLE
  8
_0-0_
  6
CONTINUOUS
 62
    7
 10
175.61928803080218
 20
153.91189708873799
 40
2.0999998
  0
CIRCLE
  8
_0-0_
  6
CONTINUOUS
 62
    7
 10
185.11928803080218
 20
153.91189708873799
 40
16.499998999999999
  0
ARC
  8
_0-0_
  6
CONTINUOUS
 62
    7
 10
185.11928803080218
 20
144.4119010887382
 40
2.5000000999999998
 50
180.00014999999999
 51
0
  0
ARC
  8
_0-0_
  6
CONTINUOUS
 62
    7
 10
185.11928803080218
 20
163.41189208873811
 40
2.5000000999999998
 50
0
 51
179.99984000000001
  0
TEXT
  8
_0-e_
 62
    7
 10
11.437525562255701
 20
169.26150077527302
 40
5
 41
1
 50
0
  1
ORI-5
  0
TEXT
  8
_0-e_
 62
    7
 10
157.93711403614753
 20
170.585583837841
 40
5
 41
1
 50
0
  1
RI-5
  0
LINE
  8
_0-0_
  6
CONTINUOUS
 62
    7
 10
44.95080174714667
 20
47.725788238908308
 11
45.475617504777119
 21
47.724333596046336
  0
LINE
  8
_0-0_
  6
CONTINUOUS
 62
    7
 10
45.475617504777119
 20
47.724333596046336
 11
45.992229450441073
 21
47.623110089061583
  0
LINE
  8
_0-0_
  6
CONTINUOUS
 62
    7
 10
45.992229450441073
 20
47.623110089061583
 11
46.484940591587701
 21
47.42519334299277
  0
LINE
  8
_0-0_
  6
CONTINUOUS
 62
    7
 10
46.484940591587701
 20
47.42519334299277
 11
46.938780149517243
 21
47.136596958018117
  0
LINE
  8
_0-0_
  6
CONTINUOUS
 62
    7
 10
46.938780149517243
 20
47.136596958018117
 11
47.339958438915573
 21
46.766089789258331
  0
LINE
  8
_0-0_
  6
CONTINUOUS
 62
    7
 10
47.339958438915573
 20
46.766089789258331
 11
47.676285860465669
 21
46.324929509550429
  0
LINE
  8
_0-0_
  6
CONTINUOUS
 62
    7
 10
47.676285860465669
 20
46.324929509550429
 11
47.937543275653752
 21
45.826520550755731
  0
LINE
  8
_0-0_
  6
CONTINUOUS
 62
    7
 10
47.937543275653752
 20
45.826520550755731
 11
48.115792510121537
 21
45.286006816879762
  0
LINE
  8
_0-0_
  6
CONTINUOUS
 62
    7
 10
48.115792510121537
 20
45.286006816879762
 11
48.205617551078376
 21
44.719811544213371
  0
LINE
  8
_0-0_
  6
CONTINUOUS
 62
    7
 10
48.205617551078376
 20
44.719811544213371
 11
48.205617551078376
 21
20.566223913077238
  0
LINE
  8
_0-0_
  6
CONTINUOUS
 62
    7
 10
42.205607551078174
 20
20.566223913077238
 11
42.205607551078174
 21
44.719682597552719
  0
LINE
  8
_0-0_
  6
CONTINUOUS
 62
    7
 10
42.205607551078174
 20
44.719682597552719
 11
42.206945992048077
 21
44.736438188208467
  0
LINE
  8
_0-0_
  6
CONTINUOUS
 62
    7
 10
42.206945992048077
 20
44.736438188208467
 11
42.299387550938263
 21
45.302128268710476
  0
LINE
  8
_0-0_
  6
CONTINUOUS
 62
    7
 10
42.299387550938263
 20
45.302128268710476
 11
42.48013343775915
 21
45.841646968266105
  0
LINE
  8
_0-0_
  6
CONTINUOUS
 62
    7
 10
42.48013343775915
 20
45.841646968266105
 11
42.743691780201743
 21
46.33860128419883
  0
LINE
  8
_0-0_
  6
CONTINUOUS
 62
    7
 10
42.743691780201743
 20
46.33860128419883
 11
43.082054491397912
 21
46.777891511090274
  0
LINE
  8
_0-0_
  6
CONTINUOUS
 62
    7
 10
43.082054491397912
 20
46.777891511090274
 11
43.484940591587701
 21
47.146170037687625
  0
LINE
  8
_0-0_
  6
CONTINUOUS
 62
    7
 10
43.484940591587701
 20
47.146170037687625
 11
43.940108590486943
 21
47.432246907318358
  0
LINE
  8
_0-0_
  6
CONTINUOUS
 62
    7
 10
43.940108590486943
 20
47.432246907318358
 11
44.433728438775688
 21
47.62742981906058
  0
LINE
  8
_0-0_
  6
CONTINUOUS
 62
    7
 10
44.433728438775688
 20
47.62742981906058
 11
44.95080174714667
 21
47.725788238908308
  0
LINE
  8
_0-0_
  6
CONTINUOUS
 62
    7
 10
104.39919827068115
 20
23.566228913077339
 11
96.399208270681356
 21
23.566228913077339
  0
LINE
  8
_0-0_
  6
CONTINUOUS
 62
    7
 10
96.399208270681356
 20
17.566219913077248
 11
104.39919827068115
 21
17.566219913077248
  0
LINE
  8
_0-0_
  6
CONTINUOUS
 62
    7
 10
104.39919827068115
 20
13.066231913077218
 11
106.89919827068115
 21
13.066231913077218
  0
LINE
  8
_0-0_
  6
CONTINUOUS
 62
    7
 10
106.89919827068115
 20
13.066231913077218
 11
106.89919827068115
 21
53.066218913077364
  0
LINE
  8
_0-0_
  6
CONTINUOUS
 62
    7
 10
106.89919827068115
 20
53.066218913077364
 11
104.39919827068115
 21
53.066218913077364
  0
LINE
  8
_0-0_
  6
CONTINUOUS
 62
    7
 10
104.39919827068115
 20
53.066218913077364
 11
104.39919827068115
 21
13.066231913077218
  0
LINE
  8
_0-0_
  6
CONTINUOUS
 62
    7
 10
91.399198270681154
 20
41.143958913077313
 11
91.399198270681154
 21
47.737608913077338
  0
LINE
  8
_0-0_
  6
CONTINUOUS
 62
    7
 10
194.31252109344564
 20
20.566233913077212
 11
194.31252109344564
 21
45.566226913077344
  0
LINE
  8
_0-0_
  6
CONTINUOUS
 62
    7
 10
188.31251109344589
 20
45.566236913077319
 11
188.31251109344589
 21
20.566224913077349
  0
LINE
  8
_0-0_
  6
CONTINUOUS
 62
    7
 10
270.7201827285021
 20
23.566228913077339
 11
262.72017272850235
 21
23.566228913077339
  0
LINE
  8
_0-0_
  6
CONTINUOUS
 62
    7
 10
262.72017272850235
 20
17.566229913077223
 11
270.7201827285021
 21
17.566229913077223
  0
LINE
  8
_0-0_
  6
CONTINUOUS
 62
    7
 10
270.7201827285021
 20
13.131235913077262
 11
273.22017272850235
 21
13.131235913077262
  0
LINE
  8
_0-0_
  6
CONTINUOUS
 62
    7
 10
273.22017272850235
 20
13.131235913077262
 11
273.22017272850235
 21
53.001236913077264
  0
LINE
  8
_0-0_
  6
CONTINUOUS
 62
    7
 10
273.22017272850235
 20
53.001236913077264
 11
270.7201827285021
 21
53.001236913077264
  0
LINE
  8
_0-0_
  6
CONTINUOUS
 62
    7
 10
270.7201827285021
 20
53.001236913077264
 11
270.7201827285021
 21
13.131235913077262
  0
LINE
  8
_0-0_
  6
CONTINUOUS
 62
    7
 10
270.7201827285021
 20
42.566236913077319
 11
262.72017272850235
 21
42.566236913077319
  0
LINE
  8
_0-0_
  6
CONTINUOUS
 62
    7
 10
262.72017272850235
 20
48.566236913077319
 11
270.7201827285021
 21
48.566236913077319
  0
CIRCLE
  8
_0-0_
  6
CONTINUOUS
 62
    7
 10
45.205617551078376
 20
33.066232913077329
 40
20
  0
CIRCLE
  8
_0-0_
  6
CONTINUOUS
 62
    7
 10
33.705617551078376
 20
33.066232913077329
 40
2.5999998
  0
CIRCLE
  8
_0-0_
  6
CONTINUOUS
 62
    7
 10
56.705617551078376
 20
33.066232913077329
 40
2.5999998
  0
CIRCLE
  8
_0-0_
  6
CONTINUOUS
 62
    7
 10
33.705617551078376
 20
33.066232913077329
 40
4.5
  0
CIRCLE
  8
_0-0_
  6
CONTINUOUS
 62
    7
 10
56.705617551078376
 20
33.066232913077329
 40
4.5
  0
ARC
  8
_0-0_
  6
CONTINUOUS
 62
    7
 10
45.205617551078376
 20
20.566223913077238
 40
2.9999999000000002
 50
180
 51
0
  0
ARC
  8
_0-0_
  6
CONTINUOUS
 62
    7
 10
96.399208270681356
 20
33.066232913077329
 40
15.499999000000001
 50
108.819245
 51
270
  0
ARC
  8
_0-0_
  6
CONTINUOUS
 62
    7
 10
96.399208270681356
 20
33.066232913077329
 40
9.4999997
 50
121.75709599999998
 51
270
  0
CIRCLE
  8
_0-0_
  6
CONTINUOUS
 62
    7
 10
191.31251109344589
 20
33.066232913077329
 40
20
  0
ARC
  8
_0-0_
  6
CONTINUOUS
 62
    7
 10
191.31251109344589
 20
45.566226913077344
 40
2.9999999000000002
 50
0
 51
179.99984000000001
  0
ARC
  8
_0-0_
  6
CONTINUOUS
 62
    7
 10
191.31251109344589
 20
20.566233913077212
 40
2.9999999000000002
 50
180.00014999999999
 51
0
  0
CIRCLE
  8
_0-0_
  6
CONTINUOUS
 62
    7
 10
179.81251109344589
 20
33.066232913077329
 40
2.5999998
  0
CIRCLE
  8
_0-0_
  6
CONTINUOUS
 62
    7
 10
202.81251109344589
 20
33.066232913077329
 40
2.5999998
  0
CIRCLE
  8
_0-0_
  6
CONTINUOUS
 62
    7
 10
179.81251109344589
 20
33.066232913077329
 40
4.4499997000000002
  0
CIRCLE
  8
_0-0_
  6
CONTINUOUS
 62
    7
 10
202.81251109344589
 20
33.066232913077329
 40
4.4499997000000002
  0
ARC
  8
_0-0_
  6
CONTINUOUS
 62
    7
 10
263.2201827285021
 20
33.066232913077329
 40
9.4999997
 50
93.013001000000074
 51
266.98298999999997
  0
ARC
  8
_0-0_
  6
CONTINUOUS
 62
    7
 10
263.2201827285021
 20
33.066232913077329
 40
15.499999000000001
 50
91.847794000000036
 51
268.15140000000008
  0
TEXT
  8
_0-e_
 62
    7
 10
16.205774767187563
 20
56.703456794933118
 40
5
 41
1
 50
0
  1
ORI-6
  0
TEXT
  8
_0-e_
 62
    7
 10
162.37012518151744
 20
57.3460924952185
 40
5
 41
1
 50
0
  1
RI-6
  0
LINE
  8
_0-1_
  6
DASHED2
 62
  152
 10
93.256226778463997
 20
149.25870026227358
 11
95.756216778463795
 21
151.15870426227366
  0
LINE
  8
_0-1_
  6
CENTER1
 62
  152
 10
95.756216778463795
 20
153.25870526227368
 11
75.756246778463947
 21
153.25870526227368
  0
LINE
  8
_0-1_
  6
DASHED2
 62
  152
 10
93.256226778463997
 20
157.25871026227355
 11
95.756216778463795
 21
155.3587062622737
  0
LINE
  8
_0-1_
  6
CENTER1
 62
  152
 10
59.254275778463807
 20
153.25870526227368
 11
26.254277778464029
 21
153.25870526227368
  0
LINE
  8
_0-1_
  6
CENTER1
 62
  152
 10
33.254276778463918
 20
157.2587051622736
 11
33.254276778463918
 21
149.25870536227376
  0
LINE
  8
_0-1_
  6
CENTER1
 62
  152
 10
42.754276778463918
 20
136.75870626227356
 11
42.754276778463918
 21
169.75870426227357
  0
LINE
  8
_0-1_
  6
CENTER1
 62
  152
 10
52.254286778463893
 20
157.2587051622736
 11
52.254286778463893
 21
149.25870536227376
  0
LINE
  8
_0-1_
  6
DASHED2
 62
  152
 10
259.02696966585836
 20
150.2118972887381
 11
260.62696746585857
 21
151.81189508873808
  0
LINE
  8
_0-1_
  6
DASHED2
 62
  152
 10
260.62696746585857
 20
151.81189508873808
 11
260.6269696658585
 21
156.01189688873819
  0
LINE
  8
_0-1_
  6
DASHED2
 62
  152
 10
260.6269696658585
 20
156.01189688873819
 11
259.02696966585836
 21
157.6118968887381
  0
LINE
  8
_0-1_
  6
DASHED2
 62
  152
 10
260.6269696658585
 20
156.01610608873807
 11
261.52696966585836
 21
156.01610608873807
  0
LINE
  8
_0-1_
  6
CENTER1
 62
  152
 10
261.52696966585836
 20
153.91189708873799
 11
241.5269606658585
 21
153.91189708873799
  0
LINE
  8
_0-1_
  6
DASHED2
 62
  152
 10
260.62696746585857
 20
151.80767908873804
 11
261.52696966585836
 21
151.80767908873804
  0
LINE
  8
_0-1_
  6
CENTER1
 62
  152
 10
201.6192870308023
 20
153.91189708873799
 11
168.61928903080229
 21
153.91189708873799
  0
LINE
  8
_0-1_
  6
CENTER1
 62
  152
 10
175.61927803080243
 20
148.15581071178349
 11
175.61927803080243
 21
159.66798346569271
  0
LINE
  8
_0-1_
  6
CENTER1
 62
  152
 10
185.11928803080218
 20
170.4118960887381
 11
185.11928803080218
 21
137.4118980887381
  0
LINE
  8
_0-1_
  6
CENTER1
 62
  152
 10
194.61929803080238
 20
148.15581071178349
 11
194.61929803080238
 21
159.66798346569271
  0
LINE
  8
_0-1_
  6
CENTER1
 62
  152
 10
45.205617551078376
 20
13.066232913077329
 11
45.205617551078376
 21
53.066232913077329
  0
LINE
  8
_0-1_
  6
CENTER1
 62
  152
 10
33.705617551078376
 20
39.797471503595034
 11
33.705617551078376
 21
26.334994322559623
  0
LINE
  8
_0-1_
  6
CENTER1
 62
  152
 10
25.205617551078149
 20
33.066232913077329
 11
65.205617551078376
 21
33.066232913077329
  0
LINE
  8
_0-1_
  6
CENTER1
 62
  152
 10
56.705617551078376
 20
26.334994322559623
 11
56.705617551078376
 21
39.797471503595034
  0
LINE
  8
_0-1_
  6
CENTER1
 62
  152
 10
80.89920927068124
 20
33.066232913077329
 11
106.89919827068115
 21
33.066232913077329
  0
LINE
  8
_0-1_
  6
CENTER1
 62
  152
 10
171.31251109344589
 20
33.066232913077329
 11
211.31251109344589
 21
33.066232913077329
  0
LINE
  8
_0-1_
  6
CENTER1
 62
  152
 10
202.81251109344589
 20
40.738036774584316
 11
202.81251109344589
 21
25.394429051570341
  0
LINE
  8
_0-1_
  6
CENTER1
 62
  152
 10
191.31251109344589
 20
13.066232913077329
 11
191.31251109344589
 21
53.066232913077329
  0
LINE
  8
_0-1_
  6
CENTER1
 62
  152
 10
179.81251109344589
 20
40.738036774584316
 11
179.81251109344589
 21
25.394429051570341
  0
LINE
  8
_0-1_
  6
CENTER1
 62
  152
 10
247.72018372850221
 20
33.066232913077329
 11
273.22017272850235
 21
33.066232913077329
  0
LINE
  8
_0-1_
  6
DASHED2
 62
  152
 10
273.22017272850235
 20
30.516230913077152
 11
272.46402272850219
 21
30.516230913077152
  0
LINE
  8
_0-1_
  6
DASHED2
 62
  152
 10
272.46402272850219
 20
30.516230913077152
 11
272.46402272850219
 21
35.616235913077389
  0
LINE
  8
_0-1_
  6
DASHED2
 62
  152
 10
272.46402272850219
 20
35.616235913077389
 11
270.7201827285021
 21
37.516239913077243
  0
LINE
  8
_0-1_
  6
DASHED2
 62
  152
 10
272.46402272850219
 20
35.616235913077389
 11
273.22017272850235
 21
35.616235913077389
  0
LINE
  8
_0-1_
  6
DASHED2
 62
  152
 10
272.46402272850219
 20
30.516230913077152
 11
270.7201827285021
 21
28.616226913077298
  0
ENDSEC
  0
EOF
