  0
SECTION
  2
HEADER
  9
$ACADVER
  1
AC1009
  9
$INSBASE
 10
0
 20
0
 30
0
  9
$EXTMIN
 10
0
 20
0
  9
$EXTMAX
 10
1189
 20
841
  9
$LIMMIN
 10
0
 20
0
  9
$LIMMAX
 10
1189
 20
841
  9
$LTSCALE
 40
1
  0
ENDSEC
  0
SECTION
  2
TABLES
  0
TABLE
  2
LTYPE
 70
     9
  0
LTYPE
  2
CONTINUOUS
 70
    64
  3
実線
 72
    65
 73
     0
 40
0.0
  0
LTYPE
  2
DASHED1
 70
    64
  3
--  --  --  --  --  --  --  --  
 72
    65
 73
     2
 40
2.5
 49
1.25
 49
-1.25
  0
LTYPE
  2
DASHED2
 70
    64
  3
----    ----    ----    ----    
 72
    65
 73
     2
 40
5.0
 49
2.5
 49
-2.5
  0
LTYPE
  2
DASHED3
 70
    64
  3
------  ------  ------  ------  
 72
    65
 73
     2
 40
5.0
 49
3.75
 49
-1.25
  0
LTYPE
  2
CENTER1
 70
    64
  3
----- - ----- - ----- - ----- - 
 72
    65
 73
     4
 40
10.0
 49
6.25
 49
-1.25
 49
1.25
 49
-1.25
  0
LTYPE
  2
CENTER2
 70
    64
  3
----------  --  ----------  --  
 72
    65
 73
     4
 40
20.0
 49
12.5
 49
-2.5
 49
2.5
 49
-2.5
  0
LTYPE
  2
PHANTOM1
 70
    64
  3
--- - - --- - - --- - - --- - - 
 72
    65
 73
     6
 40
10.0
 49
3.25
 49
-1.25
 49
1.25
 49
-1.25
 49
1.25
 49
-1.25
  0
LTYPE
  2
PHANTOM2
 70
    64
  3
--------  -  -  --------  -  -  
 72
    65
 73
     6
 40
20.0
 49
10.0
 49
-2.5
 49
1.25
 49
-2.5
 49
1.25
 49
-2.5
  0
LTYPE
  2
DOT
 70
    64
  3
-   -   -   -   -   -   -   -   
 72
    65
 73
     2
 40
2.5
 49
0.625
 49
-1.875
  0
LTYPE
  2
DUMMY
 70
    64
  3
ダミー
 72
    65
 73
     0
 40
0.0
  0
LTYPE
  2
RAND1
 70
    64
  3
ランダム線1
 72
    65
 73
     4
 40
10.0
 49
1.0
 49
-2.0
 49
3.0
 49
-4.0
  0
LTYPE
  2
RAND2
 70
    64
  3
ランダム線2
 72
    65
 73
     4
 40
14.0
 49
2.0
 49
-3.0
 49
4.0
 49
-5.0
  0
LTYPE
  2
RAND3
 70
    64
  3
ランダム線3
 72
    65
 73
     4
 40
18.0
 49
3.0
 49
-4.0
 49
5.0
 49
-6.0
  0
LTYPE
  2
RAND4
 70
    64
  3
ランダム線4
 72
    65
 73
     4
 40
22.0
 49
4.0
 49
-5.0
 49
6.0
 49
-7.0
  0
LTYPE
  2
RAND5
 70
    64
  3
ランダム線5
 72
    65
 73
     4
 40
26.0
 49
5.0
 49
-6.0
 49
7.0
 49
-8.0
  0
LTYPE
  2
LONG1
 70
    64
  3
----------  --  ----------  --  
 72
    65
 73
     4
 40
40.0
 49
32.5
 49
-2.5
 49
2.5
 49
-2.5
  0
LTYPE
  2
LONG2
 70
    64
  3
--------  -  -  --------  -  -  
 72
    65
 73
     6
 40
40.0
 49
30.0
 49
-2.5
 49
1.25
 49
-2.5
 49
1.25
 49
-2.5
  0
LTYPE
  2
LONG3
 70
    64
  3
+++++++++++++++..+++++++++++++++
 72
    65
 73
     2
 40
40.0
 49
37.5
 49
-2.5
  0
LTYPE
  2
LONG4
 70
    64
  3
+++++++++++++++..+++++++++++++++
 72
    65
 73
     2
 40
80.0
 49
75.0
 49
-5.0
  0
LTYPE
  2
LONG5
 70
    64
  3
----------  --  ----------  --  
 72
    65
 73
     4
 40
60.0
 49
37.5
 49
-7.5
 49
7.5
 49
-7.5
  0
LTYPE
  2
dashed
 70
   64
  3
-------   -------------   ------
 72
   65
 73
    2
 40
7.5
 49
6
 49
-1.5
  0
LTYPE
  2
dashed_spaced
 70
   64
  3
----        --------        ----
 72
   65
 73
    2
 40
12
 49
6
 49
-6
  0
LTYPE
  2
long_dashed_dotted
 70
   64
  3
------------- --- --------------
 72
   65
 73
    4
 40
15.25
 49
12
 49
-1.5
 49
0.25
 49
-1.5
  0
LTYPE
  2
long_dashed_double-dotted
 70
   64
  3
----------- --- --- ------------
 72
   65
 73
    6
 40
17
 49
12
 49
-1.5
 49
0.25
 49
-1.5
 49
0.25
 49
-1.5
  0
LTYPE
  2
long_dashed_triplicate-dotted
 70
   64
  3
--------- --- --- --- ----------
 72
   65
 73
    8
 40
18.75
 49
12
 49
-1.5
 49
0.25
 49
-1.5
 49
0.25
 49
-1.5
 49
0.25
 49
-1.5
  0
LTYPE
  2
dotted
 70
   64
  3
   -       -       -       -    
 72
   65
 73
    2
 40
1.75
 49
0.25
 49
-1.5
  0
LTYPE
  2
chain
 70
   64
  3
-------------- -- --------------
 72
   65
 73
    4
 40
18.5
 49
12
 49
-1.5
 49
3.5
 49
-1.5
  0
LTYPE
  2
chain_double_dash
 70
   64
  3
------------ -- -- -------------
 72
   65
 73
    6
 40
23.5
 49
12
 49
-1.5
 49
3.5
 49
-1.5
 49
3.5
 49
-1.5
  0
LTYPE
  2
dashed_dotted
 70
   64
  3
-----------     -     ----------
 72
   65
 73
    4
 40
9.25
 49
6
 49
-1.5
 49
0.25
 49
-1.5
  0
LTYPE
  2
double-dashed_dotted
 70
   64
  3
------   -----------   -   -----
 72
   65
 73
    6
 40
16.75
 49
6
 49
-1.5
 49
6
 49
-1.5
 49
0.25
 49
-1.5
  0
LTYPE
  2
dashed_double-dotted
 70
   64
  3
---------    -    -    ---------
 72
   65
 73
    6
 40
11
 49
6
 49
-1.5
 49
0.25
 49
-1.5
 49
0.25
 49
-1.5
  0
LTYPE
  2
double-dashed_double-dotted
 70
   64
  3
-----   ---------   -   -   ----
 72
   65
 73
    8
 40
18.5
 49
6
 49
-1.5
 49
6
 49
-1.5
 49
0.25
 49
-1.5
 49
0.25
 49
-1.5
  0
LTYPE
  2
dashed_triplicate-dotted
 70
   64
  3
-------    -    -    -    ------
 72
   65
 73
    8
 40
12.75
 49
6
 49
-1.5
 49
0.25
 49
-1.5
 49
0.25
 49
-1.5
 49
0.25
 49
-1.5
  0
LTYPE
  2
double-dashed_triplicate-dotted
 70
   64
  3
-----  ---------  -  -  -  -----
 72
   65
 73
   10
 40
20.25
 49
6
 49
-1.5
 49
6
 49
-1.5
 49
0.25
 49
-1.5
 49
0.25
 49
-1.5
 49
0.25
 49
-1.5
  0
LTYPE
  2
undefined
 70
   64
  3
--------------------------------
 72
   65
 73
    0
 40
0
  0
ENDTAB
  0
TABLE
  2
STYLE
  5
3
100
AcDbSymbolTable
 70
     1
  0
STYLE
  5
10
100
AcDbSymbolTableRecord
100
AcDbTextStyleTableRecord
  2
STANDARD
 70
     0
 40
0.0
 41
1.0
 50
0.0
 71
     0
 42
0.2
  3
txt
  4
bigfont.shx
  0
STYLE
  5
26
100
AcDbSymbolTableRecord
100
AcDbTextStyleTableRecord
  2
TATEGAKI
 70
    68
 40
0.0
 41
1.0
 50
0.0
 71
     0
 42
1.0
  3
txt
  4
bigfont.shx
  0
ENDTAB
  0
TABLE
  2
LAYER
 70
    3
  0
LAYER
  2
_0-0_
 70
   64
 62
    7
  6
CONTINUOUS
  0
LAYER
  2
_0-1_
 70
   64
 62
    7
  6
CONTINUOUS
  0
LAYER
  2
ADD_LINE
 70
   64
 62
    7
  6
CONTINUOUS
  0
ENDTAB
  0
ENDSEC
  0
SECTION
  2
BLOCKS
  0
ENDSEC
  0
SECTION
  2
ENTITIES
  0
LINE
  8
_0-0_
  6
CONTINUOUS
 62
    7
 10
18.845327656754307
 20
35.074113459199566
 11
16.995223887649445
 21
29.99099512993655
  0
LINE
  8
_0-0_
  6
CONTINUOUS
 62
    7
 10
16.965070198042213
 20
29.819985058273346
 11
16.965070198042213
 21
23.137735265127162
  0
LINE
  8
_0-0_
  6
CONTINUOUS
 62
    7
 10
16.995223887649445
 20
22.966725193464413
 11
18.245327656754171
 21
19.532093315873794
  0
LINE
  8
_0-0_
  6
CONTINUOUS
 62
    7
 10
18.715173967147166
 20
19.203103387536544
 11
19.365070198042304
 21
19.203103387536544
  0
LINE
  8
_0-0_
  6
CONTINUOUS
 62
    7
 10
20.365070198042304
 20
20.203103387536544
 11
20.365070198042304
 21
21.495996606331232
  0
LINE
  8
_0-0_
  6
CONTINUOUS
 62
    7
 10
20.218623588635637
 20
21.849549996924566
 11
19.62632340110531
 21
22.441850184454893
  0
LINE
  8
_0-0_
  6
CONTINUOUS
 62
    7
 10
20.143755206242759
 20
24.130803900484466
 11
27.498243357763613
 21
25.551557293391966
  0
LINE
  8
_0-0_
  6
CONTINUOUS
 62
    7
 10
27.584885481257515
 20
26.776485190738754
 11
20.111211431801621
 21
25.67241970616044
  0
LINE
  8
_0-0_
  6
CONTINUOUS
 62
    7
 10
18.965070198042213
 20
26.661683442377694
 11
18.965070198042213
 21
28.900421552464309
  0
LINE
  8
_0-0_
  6
CONTINUOUS
 62
    7
 10
19.863041332543617
 20
29.89520299107528
 11
22.741821562309724
 21
30.190462501820662
  0
LINE
  8
_0-0_
  6
CONTINUOUS
 62
    7
 10
22.968157227672918
 20
30.271828073957408
 11
25.942420296154978
 21
32.254670119612115
  0
LINE
  8
_0-0_
  6
CONTINUOUS
 62
    7
 10
26.165070198042258
 20
32.670695266781081
 11
26.165070198042258
 21
33.203103387536544
  0
LINE
  8
_0-0_
  6
CONTINUOUS
 62
    7
 10
25.665070198042258
 20
33.703103387536544
 11
25.265070198042167
 21
33.703103387536544
  0
LINE
  8
_0-0_
  6
CONTINUOUS
 62
    7
 10
24.765070198042167
 20
33.203103387536544
 11
24.765070198042167
 21
33.103103387537089
  0
LINE
  8
_0-0_
  6
CONTINUOUS
 62
    7
 10
24.765070198042167
 20
33.103103387537089
 11
22.470643007042327
 21
31.955889792037055
  0
LINE
  8
_0-0_
  6
CONTINUOUS
 62
    7
 10
22.247036209292446
 20
31.903103387536817
 11
21.465070198042213
 21
31.903103387536817
  0
LINE
  8
_0-0_
  6
CONTINUOUS
 62
    7
 10
20.965070198042213
 20
32.403103387536817
 11
20.965070198042213
 21
34.403103387536817
  0
LINE
  8
_0-0_
  6
CONTINUOUS
 62
    7
 10
19.965070198042213
 20
35.403103387536817
 11
19.315173967147075
 21
35.403103387536817
  0
ARC
  8
_0-0_
  6
CONTINUOUS
 62
    7
 10
25.265070198042167
 20
33.203103387536544
 40
0.5
 50
90
 51
180
  0
ARC
  8
_0-0_
  6
CONTINUOUS
 62
    7
 10
19.965070198042213
 20
34.403103387536817
 40
1
 50
0
 51
90.000000000000028
  0
ARC
  8
_0-0_
  6
CONTINUOUS
 62
    7
 10
19.365070198042304
 20
20.203103387536544
 40
1
 50
270
 51
0
  0
ARC
  8
_0-0_
  6
CONTINUOUS
 62
    7
 10
19.315173967147075
 20
34.903103387536817
 40
0.5
 50
90
 51
159.99999999999966
  0
ARC
  8
_0-0_
  6
CONTINUOUS
 62
    7
 10
18.715173967147166
 20
19.703103387536544
 40
0.5
 50
200.00000000000017
 51
270
  0
ARC
  8
_0-0_
  6
CONTINUOUS
 62
    7
 10
17.465070198042213
 20
23.137735265127162
 40
0.5
 50
180
 51
199.99999999999983
  0
ARC
  8
_0-0_
  6
CONTINUOUS
 62
    7
 10
17.465070198042213
 20
29.819985058273346
 40
0.5
 50
159.99999999999991
 51
180
  0
ARC
  8
_0-0_
  6
CONTINUOUS
 62
    7
 10
25.665070198042258
 20
33.203103387536544
 40
0.5
 50
0
 51
90.000000000000028
  0
ARC
  8
_0-0_
  6
CONTINUOUS
 62
    7
 10
25.665070198042258
 20
32.670695266781081
 40
0.5
 50
303.69006752598074
 51
0
  0
ARC
  8
_0-0_
  6
CONTINUOUS
 62
    7
 10
22.690807129560426
 20
30.687853221126375
 40
0.5
 50
275.85601358542851
 51
303.69006752597977
  0
ARC
  8
_0-0_
  6
CONTINUOUS
 62
    7
 10
21.465070198042213
 20
32.403103387536817
 40
0.5
 50
180
 51
270
  0
ARC
  8
_0-0_
  6
CONTINUOUS
 62
    7
 10
22.247036209292446
 20
32.403103387536817
 40
0.5
 50
270
 51
296.56505117708014
  0
ARC
  8
_0-0_
  6
CONTINUOUS
 62
    7
 10
19.965070198042213
 20
28.900421552464309
 40
1
 50
95.856013585427576
 51
180
  0
ARC
  8
_0-0_
  6
CONTINUOUS
 62
    7
 10
19.965070198042213
 20
26.661683442377694
 40
1
 50
180
 51
278.4033710905606
  0
ARC
  8
_0-0_
  6
CONTINUOUS
 62
    7
 10
27.593080845788336
 20
25.060633825970513
 40
0.5
 50
49.609554374972902
 51
100.93381678576729
  0
ARC
  8
_0-0_
  6
CONTINUOUS
 62
    7
 10
28.565070198042122
 20
26.203103387536544
 40
1
 50
229.60955437498279
 51
134.60138161882344
  0
ARC
  8
_0-0_
  6
CONTINUOUS
 62
    7
 10
27.511814864377811
 20
27.271117058847835
 40
0.5
 50
278.40337109055935
 51
314.60138161882651
  0
ARC
  8
_0-0_
  6
CONTINUOUS
 62
    7
 10
19.865070198042304
 20
21.495996606331232
 40
0.5
 50
0
 51
45.000000000000455
  0
ARC
  8
_0-0_
  6
CONTINUOUS
 62
    7
 10
20.333430182291977
 20
23.14895696564156
 40
1
 50
100.93381678575589
 51
225
  0
CIRCLE
  8
_0-0_
  6
CONTINUOUS
 62
    7
 10
27.632488219661582
 20
22.603103157396959
 40
3
  0
LINE
  8
_0-1_
  6
PHANTOM1
 62
  152
 10
27.439680941109941
 20
27.28163043087352
 11
23.84848141413147
 21
26.497804038568859
  0
ARC
  8
_0-1_
  6
PHANTOM1
 62
  152
 10
27.333059495341104
 20
27.770130039166588
 40
0.5
 50
282.31246200155937
 51
318.51047252982647
  0
ARC
  8
_0-1_
  6
PHANTOM1
 62
  152
 10
28.456674728421831
 20
26.776405324776647
 40
1
 50
233.51864528598281
 51
138.51047252982337
  0
ARC
  8
_0-1_
  6
PHANTOM1
 62
  152
 10
27.564832984146506
 20
25.570329745400443
 40
0.5
 50
53.518645285972909
 51
104.84290769676728
  0
LINE
  8
_0-1_
  6
PHANTOM1
 62
  152
 10
24.256159128475588
 20
25.210749134395883
 11
27.436748123395773
 21
26.053645654973536
  0
LINE
  8
_0-1_
  6
PHANTOM1
 62
  152
 10
20.965070198042213
 20
21.703102775927221
 11
20.965070198042213
 21
8.8031031573969472
  0
LINE
  8
_0-1_
  6
PHANTOM1
 62
  152
 10
20.965070198042213
 20
32.903103538866674
 11
20.965070198042213
 21
45.803103157396947
  0
LINE
  8
_0-1_
  6
PHANTOM1
 62
  152
 10
35.365069816572486
 20
47.303103157396947
 11
22.465070198042213
 21
47.303103157396947
  0
LINE
  8
_0-1_
  6
PHANTOM1
 62
  152
 10
46.565070579511939
 20
47.303103157396947
 11
59.465070198042213
 21
47.303103157396947
  0
LINE
  8
_0-1_
  6
PHANTOM1
 62
  152
 10
60.965070198042213
 20
32.903103538866674
 11
60.965070198042213
 21
45.803103157396947
  0
LINE
  8
_0-1_
  6
PHANTOM1
 62
  152
 10
60.965070198042213
 20
21.703102775927221
 11
60.965070198042213
 21
8.8031031573969472
  0
LINE
  8
_0-1_
  6
PHANTOM1
 62
  152
 10
46.565070579511939
 20
7.3031031573969472
 11
59.465070198042213
 21
7.3031031573969472
  0
LINE
  8
_0-1_
  6
PHANTOM1
 62
  152
 10
35.365069816572486
 20
7.3031031573969472
 11
22.465070198042213
 21
7.3031031573969472
  0
LINE
  8
_0-1_
  6
PHANTOM1
 62
  152
 10
23.247036169035255
 20
22.203102775927221
 11
21.465070198042213
 21
22.203102775927221
  0
LINE
  8
_0-1_
  6
PHANTOM1
 62
  152
 10
23.470642993910133
 20
22.150316902514135
 11
24.288676927549659
 21
21.741299339647924
  0
LINE
  8
_0-1_
  6
PHANTOM1
 62
  152
 10
23.247036169035255
 20
32.403103538866674
 11
21.465070198042213
 21
32.403103538866674
  0
LINE
  8
_0-1_
  6
PHANTOM1
 62
  152
 10
23.470642993910133
 20
32.45588941227976
 11
24.288676927549659
 21
32.864906975145971
  0
LINE
  8
_0-1_
  6
PHANTOM1
 62
  152
 10
24.565070102674781
 20
34.803103157396947
 11
24.565070102674781
 21
33.312120148058568
  0
LINE
  8
_0-1_
  6
PHANTOM1
 62
  152
 10
24.565070102674781
 20
19.803103157396947
 11
24.565070102674781
 21
21.29408521306101
  0
LINE
  8
_0-1_
  6
PHANTOM1
 62
  152
 10
35.865069816572486
 20
45.021137186403905
 11
35.865069816572486
 21
46.803103157396947
  0
LINE
  8
_0-1_
  6
PHANTOM1
 62
  152
 10
35.8122839431594
 20
44.797530361529027
 11
35.403266380293189
 21
43.979496427889501
  0
LINE
  8
_0-1_
  6
PHANTOM1
 62
  152
 10
33.465070198042213
 20
43.703103252764379
 11
34.956053207380592
 21
43.703103252764379
  0
LINE
  8
_0-1_
  6
PHANTOM1
 62
  152
 10
48.465070198042213
 20
43.703103252764379
 11
46.97408814237815
 21
43.703103252764379
  0
LINE
  8
_0-1_
  6
PHANTOM1
 62
  152
 10
46.117856452925025
 20
44.797530361529027
 11
46.526874015791236
 21
43.979496427889501
  0
LINE
  8
_0-1_
  6
PHANTOM1
 62
  152
 10
46.065070579511939
 20
45.021137186403905
 11
46.065070579511939
 21
46.803103157396947
  0
LINE
  8
_0-1_
  6
PHANTOM1
 62
  152
 10
58.683103034956275
 20
22.203102775927221
 11
60.465070198042213
 21
22.203102775927221
  0
LINE
  8
_0-1_
  6
PHANTOM1
 62
  152
 10
58.459496925337135
 20
22.150316902514135
 11
57.641461799604713
 21
21.741299339647924
  0
LINE
  8
_0-1_
  6
PHANTOM1
 62
  152
 10
57.365071723921119
 20
19.803103157396947
 11
57.365071723921119
 21
21.29408521306101
  0
LINE
  8
_0-1_
  6
PHANTOM1
 62
  152
 10
57.365071723921119
 20
34.803103157396947
 11
57.365071723921119
 21
33.312120148058568
  0
LINE
  8
_0-1_
  6
PHANTOM1
 62
  152
 10
58.459496925337135
 20
32.45588941227976
 11
57.641461799604713
 21
32.864906975145971
  0
LINE
  8
_0-1_
  6
PHANTOM1
 62
  152
 10
58.683103034956275
 20
32.403103538866674
 11
60.465070198042213
 21
32.403103538866674
  0
LINE
  8
_0-1_
  6
PHANTOM1
 62
  152
 10
35.865069816572486
 20
9.5850703204828847
 11
35.865069816572486
 21
7.8031031573969472
  0
LINE
  8
_0-1_
  6
PHANTOM1
 62
  152
 10
35.8122839431594
 20
9.8086764301020253
 11
35.403266380293189
 21
10.626711555834447
  0
LINE
  8
_0-1_
  6
PHANTOM1
 62
  152
 10
33.465070198042213
 20
10.903101631518041
 11
34.956053207380592
 21
10.903101631518041
  0
LINE
  8
_0-1_
  6
PHANTOM1
 62
  152
 10
48.465070198042213
 20
10.903101631518041
 11
46.97408814237815
 21
10.903101631518041
  0
LINE
  8
_0-1_
  6
PHANTOM1
 62
  152
 10
46.117856452925025
 20
9.8086764301020253
 11
46.526874015791236
 21
10.626711555834447
  0
LINE
  8
_0-1_
  6
PHANTOM1
 62
  152
 10
46.065070579511939
 20
9.5850703204828847
 11
46.065070579511939
 21
7.8031031573969472
  0
LINE
  8
_0-1_
  6
PHANTOM1
 62
  152
 10
32.965070198042213
 20
15.595995613451635
 11
32.965070198042213
 21
11.403101631518041
  0
LINE
  8
_0-1_
  6
PHANTOM1
 62
  152
 10
34.318623970014869
 20
17.156656929369603
 11
33.111516426069556
 21
15.949549385424291
  0
LINE
  8
_0-1_
  6
PHANTOM1
 62
  152
 10
47.2579626540969
 20
17.303103157396947
 11
34.672176788313209
 21
17.303103157396947
  0
LINE
  8
_0-1_
  6
PHANTOM1
 62
  152
 10
48.818623970014869
 20
15.949549385424291
 11
47.611516426069556
 21
17.156656929369603
  0
LINE
  8
_0-1_
  6
PHANTOM1
 62
  152
 10
48.965070198042213
 20
15.595995613451635
 11
48.965070198042213
 21
11.403101631518041
  0
LINE
  8
_0-1_
  6
PHANTOM1
 62
  152
 10
52.672177741987525
 20
19.303103157396947
 11
56.865071723921119
 21
19.303103157396947
  0
LINE
  8
_0-1_
  6
PHANTOM1
 62
  152
 10
51.111516426069556
 20
20.656656929369603
 11
52.318623970014869
 21
19.449549385424291
  0
LINE
  8
_0-1_
  6
PHANTOM1
 62
  152
 10
52.318623970014869
 20
35.156656929369603
 11
51.111516426069556
 21
33.949549385424291
  0
LINE
  8
_0-1_
  6
PHANTOM1
 62
  152
 10
52.672177741987525
 20
35.303103157396947
 11
56.865071723921119
 21
35.303103157396947
  0
LINE
  8
_0-1_
  6
PHANTOM1
 62
  152
 10
48.965070198042213
 20
39.010209747667943
 11
48.965070198042213
 21
43.203103252764379
  0
LINE
  8
_0-1_
  6
PHANTOM1
 62
  152
 10
47.611516426069556
 20
37.449549385424291
 11
48.818623970014869
 21
38.656656929369603
  0
LINE
  8
_0-1_
  6
PHANTOM1
 62
  152
 10
34.672176788313209
 20
37.303103157396947
 11
47.2579626540969
 21
37.303103157396947
  0
LINE
  8
_0-1_
  6
PHANTOM1
 62
  152
 10
33.111516426069556
 20
38.656656929369603
 11
34.318623970014869
 21
37.449549385424291
  0
LINE
  8
_0-1_
  6
PHANTOM1
 62
  152
 10
32.965070198042213
 20
39.010209747667943
 11
32.965070198042213
 21
43.203103252764379
  0
LINE
  8
_0-1_
  6
PHANTOM1
 62
  152
 10
29.257963607771217
 20
19.303103157396947
 11
25.065070102674781
 21
19.303103157396947
  0
LINE
  8
_0-1_
  6
PHANTOM1
 62
  152
 10
30.818623970014869
 20
20.656656929369603
 11
29.611516426069556
 21
19.449549385424291
  0
LINE
  8
_0-1_
  6
PHANTOM1
 62
  152
 10
29.611516426069556
 20
35.156656929369603
 11
30.818623970014869
 21
33.949549385424291
  0
LINE
  8
_0-1_
  6
PHANTOM1
 62
  152
 10
29.257963607771217
 20
35.303103157396947
 11
25.065070102674781
 21
35.303103157396947
  0
ARC
  8
_0-1_
  6
PHANTOM1
 62
  152
 10
34.956053207380592
 20
44.203103252764379
 40
0.5
 50
270
 51
333.4349365234375
  0
ARC
  8
_0-1_
  6
PHANTOM1
 62
  152
 10
46.97408814237815
 20
44.203103252764379
 40
0.5
 50
206.56504821777344
 51
270
  0
ARC
  8
_0-1_
  6
PHANTOM1
 62
  152
 10
46.97408814237815
 20
10.403101631518041
 40
0.5
 50
90
 51
153.43493652343753
  0
ARC
  8
_0-1_
  6
PHANTOM1
 62
  152
 10
34.956053207380592
 20
10.403101631518041
 40
0.5
 50
26.56504821777343
 51
90
  0
ARC
  8
_0-1_
  6
PHANTOM1
 62
  152
 10
57.865071723921119
 20
33.312120148058568
 40
0.5
 50
180
 51
243.43493652343753
  0
ARC
  8
_0-1_
  6
PHANTOM1
 62
  152
 10
57.865071723921119
 20
21.29408521306101
 40
0.5
 50
116.56504821777345
 51
180.00000000000003
  0
ARC
  8
_0-1_
  6
PHANTOM1
 62
  152
 10
24.065070102674781
 20
21.29408521306101
 40
0.5
 50
0
 51
63.434936523437493
  0
ARC
  8
_0-1_
  6
PHANTOM1
 62
  152
 10
24.065070102674781
 20
33.312120148058568
 40
0.5
 50
296.56504821777344
 51
0
  0
ARC
  8
_0-1_
  6
PHANTOM1
 62
  152
 10
22.465070198042213
 20
8.8031031573969472
 40
1.5
 50
180
 51
270
  0
ARC
  8
_0-1_
  6
PHANTOM1
 62
  152
 10
22.465070198042213
 20
45.803103157396947
 40
1.5
 50
90
 51
180
  0
ARC
  8
_0-1_
  6
PHANTOM1
 62
  152
 10
59.465070198042213
 20
45.803103157396947
 40
1.5
 50
0
 51
90
  0
ARC
  8
_0-1_
  6
PHANTOM1
 62
  152
 10
59.465070198042213
 20
8.8031031573969472
 40
1.5
 50
270
 51
0
  0
ARC
  8
_0-1_
  6
PHANTOM1
 62
  152
 10
21.465070198042213
 20
21.703102775927221
 40
0.5
 50
90
 51
180
  0
ARC
  8
_0-1_
  6
PHANTOM1
 62
  152
 10
21.465070198042213
 20
32.903103538866674
 40
0.5
 50
180
 51
270
  0
ARC
  8
_0-1_
  6
PHANTOM1
 62
  152
 10
35.365069816572486
 20
46.803103157396947
 40
0.5
 50
0
 51
90
  0
ARC
  8
_0-1_
  6
PHANTOM1
 62
  152
 10
46.565070579511939
 20
46.803103157396947
 40
0.5
 50
90
 51
180
  0
ARC
  8
_0-1_
  6
PHANTOM1
 62
  152
 10
60.465070198042213
 20
32.903103538866674
 40
0.5
 50
270
 51
0
  0
ARC
  8
_0-1_
  6
PHANTOM1
 62
  152
 10
60.465070198042213
 20
21.703102775927221
 40
0.5
 50
0
 51
90
  0
ARC
  8
_0-1_
  6
PHANTOM1
 62
  152
 10
46.565070579511939
 20
7.8031031573969472
 40
0.5
 50
180
 51
270
  0
ARC
  8
_0-1_
  6
PHANTOM1
 62
  152
 10
35.365069816572486
 20
7.8031031573969472
 40
0.5
 50
270
 51
359.99998474121094
  0
ARC
  8
_0-1_
  6
PHANTOM1
 62
  152
 10
23.247036169035255
 20
21.703102775927221
 40
0.5
 50
63.434936523437521
 51
90.000000000000028
  0
ARC
  8
_0-1_
  6
PHANTOM1
 62
  152
 10
23.247036169035255
 20
32.903103538866674
 40
0.5
 50
270
 51
296.56504821777344
  0
ARC
  8
_0-1_
  6
PHANTOM1
 62
  152
 10
25.065070102674781
 20
34.803103157396947
 40
0.5
 50
90
 51
180
  0
ARC
  8
_0-1_
  6
PHANTOM1
 62
  152
 10
25.065070102674781
 20
19.803103157396947
 40
0.5
 50
180
 51
270
  0
ARC
  8
_0-1_
  6
PHANTOM1
 62
  152
 10
35.365069816572486
 20
45.021137186403905
 40
0.5
 50
333.4349365234375
 51
0.000000000000019
  0
ARC
  8
_0-1_
  6
PHANTOM1
 62
  152
 10
33.465070198042213
 20
43.203103252764379
 40
0.5
 50
90
 51
180
  0
ARC
  8
_0-1_
  6
PHANTOM1
 62
  152
 10
48.465070198042213
 20
43.203103252764379
 40
0.5
 50
0
 51
90
  0
ARC
  8
_0-1_
  6
PHANTOM1
 62
  152
 10
46.565070579511939
 20
45.021137186403905
 40
0.5
 50
180
 51
206.56504821777344
  0
ARC
  8
_0-1_
  6
PHANTOM1
 62
  152
 10
58.683103034956275
 20
21.703102775927221
 40
0.5
 50
90
 51
116.56504821777344
  0
ARC
  8
_0-1_
  6
PHANTOM1
 62
  152
 10
56.865071723921119
 20
19.803103157396947
 40
0.5
 50
270
 51
0
  0
ARC
  8
_0-1_
  6
PHANTOM1
 62
  152
 10
56.865071723921119
 20
34.803103157396947
 40
0.5
 50
0
 51
90
  0
ARC
  8
_0-1_
  6
PHANTOM1
 62
  152
 10
58.683103034956275
 20
32.903103538866674
 40
0.5
 50
243.43493652343753
 51
270
  0
ARC
  8
_0-1_
  6
PHANTOM1
 62
  152
 10
35.365069816572486
 20
9.5850703204828847
 40
0.5
 50
359.99998474121088
 51
26.565048217773398
  0
ARC
  8
_0-1_
  6
PHANTOM1
 62
  152
 10
33.465070198042213
 20
11.403101631518041
 40
0.5
 50
180
 51
270
  0
ARC
  8
_0-1_
  6
PHANTOM1
 62
  152
 10
48.465070198042213
 20
11.403101631518041
 40
0.5
 50
270
 51
0
  0
ARC
  8
_0-1_
  6
PHANTOM1
 62
  152
 10
46.565070579511939
 20
9.5850703204828847
 40
0.5
 50
153.43493652343753
 51
180.00000000000003
  0
ARC
  8
_0-1_
  6
PHANTOM1
 62
  152
 10
33.465070198042213
 20
15.595995613451635
 40
0.5
 50
135
 51
180
  0
ARC
  8
_0-1_
  6
PHANTOM1
 62
  152
 10
34.672176788313209
 20
16.803103157396947
 40
0.5
 50
90
 51
135
  0
ARC
  8
_0-1_
  6
PHANTOM1
 62
  152
 10
47.2579626540969
 20
16.803103157396947
 40
0.5
 50
45.00000000000005
 51
90.000000000000057
  0
ARC
  8
_0-1_
  6
PHANTOM1
 62
  152
 10
48.465070198042213
 20
15.595995613451635
 40
0.5
 50
0
 51
45
  0
ARC
  8
_0-1_
  6
PHANTOM1
 62
  152
 10
52.672177741987525
 20
19.803103157396947
 40
0.5
 50
225
 51
270
  0
ARC
  8
_0-1_
  6
PHANTOM1
 62
  152
 10
51.465070198042213
 20
21.01021070134226
 40
0.5
 50
180
 51
224.99998474121097
  0
ARC
  8
_0-1_
  6
PHANTOM1
 62
  152
 10
51.465070198042213
 20
33.595996567125951
 40
0.5
 50
135
 51
180
  0
ARC
  8
_0-1_
  6
PHANTOM1
 62
  152
 10
52.672177741987525
 20
34.803103157396947
 40
0.5
 50
90
 51
135
  0
ARC
  8
_0-1_
  6
PHANTOM1
 62
  152
 10
48.465070198042213
 20
39.010209747667943
 40
0.5
 50
315
 51
0
  0
ARC
  8
_0-1_
  6
PHANTOM1
 62
  152
 10
47.2579626540969
 20
37.803103157396947
 40
0.5
 50
270
 51
315
  0
ARC
  8
_0-1_
  6
PHANTOM1
 62
  152
 10
34.672176788313209
 20
37.803103157396947
 40
0.5
 50
225
 51
270
  0
ARC
  8
_0-1_
  6
PHANTOM1
 62
  152
 10
33.465070198042213
 20
39.010209747667943
 40
0.5
 50
180
 51
225
  0
ARC
  8
_0-1_
  6
PHANTOM1
 62
  152
 10
29.257963607771217
 20
19.803103157396947
 40
0.5
 50
270
 51
315
  0
ARC
  8
_0-1_
  6
PHANTOM1
 62
  152
 10
30.465070198042213
 20
21.01021070134226
 40
0.5
 50
315
 51
0
  0
ARC
  8
_0-1_
  6
PHANTOM1
 62
  152
 10
30.465070198042213
 20
33.595996567125951
 40
0.5
 50
0
 51
45
  0
ARC
  8
_0-1_
  6
PHANTOM1
 62
  152
 10
29.257963607771217
 20
34.803103157396947
 40
0.5
 50
45.00000000000005
 51
90.000000000000057
  0
LINE
  8
_0-1_
  6
PHANTOM1
 62
  152
 10
50.965070198042213
 20
21.01021070134226
 11
50.965070198042213
 21
33.595996567125951
  0
LINE
  8
_0-1_
  6
PHANTOM1
 62
  152
 10
30.965070198042213
 20
21.01021070134226
 11
30.965070198042213
 21
33.595996567125951
  0
TEXT
  8
_0-1_
 62
    7
 10
33.077118907114937
 20
19.452800573305012
 40
5
 41
1
 50
0
  1
FB06
  0
TEXT
  8
_0-1_
 62
    7
 10
4.7624862547968405
 20
29.082650257088289
 40
5
 41
1
 50
0
  1
RC06
  0
ENDSEC
  0
EOF
