  0
SECTION
  2
HEADER
  9
$ACADVER
  1
AC1009
  9
$INSBASE
 10
0
 20
0
 30
0
  9
$EXTMIN
 10
0
 20
0
  9
$EXTMAX
 10
1189
 20
841
  9
$LIMMIN
 10
0
 20
0
  9
$LIMMAX
 10
1189
 20
841
  9
$LTSCALE
 40
1
  0
ENDSEC
  0
SECTION
  2
TABLES
  0
TABLE
  2
LTYPE
 70
     9
  0
LTYPE
  2
CONTINUOUS
 70
    64
  3
実線
 72
    65
 73
     0
 40
0.0
  0
LTYPE
  2
DASHED1
 70
    64
  3
--  --  --  --  --  --  --  --  
 72
    65
 73
     2
 40
2.5
 49
1.25
 49
-1.25
  0
LTYPE
  2
DASHED2
 70
    64
  3
----    ----    ----    ----    
 72
    65
 73
     2
 40
5.0
 49
2.5
 49
-2.5
  0
LTYPE
  2
DASHED3
 70
    64
  3
------  ------  ------  ------  
 72
    65
 73
     2
 40
5.0
 49
3.75
 49
-1.25
  0
LTYPE
  2
CENTER1
 70
    64
  3
----- - ----- - ----- - ----- - 
 72
    65
 73
     4
 40
10.0
 49
6.25
 49
-1.25
 49
1.25
 49
-1.25
  0
LTYPE
  2
CENTER2
 70
    64
  3
----------  --  ----------  --  
 72
    65
 73
     4
 40
20.0
 49
12.5
 49
-2.5
 49
2.5
 49
-2.5
  0
LTYPE
  2
PHANTOM1
 70
    64
  3
--- - - --- - - --- - - --- - - 
 72
    65
 73
     6
 40
10.0
 49
3.25
 49
-1.25
 49
1.25
 49
-1.25
 49
1.25
 49
-1.25
  0
LTYPE
  2
PHANTOM2
 70
    64
  3
--------  -  -  --------  -  -  
 72
    65
 73
     6
 40
20.0
 49
10.0
 49
-2.5
 49
1.25
 49
-2.5
 49
1.25
 49
-2.5
  0
LTYPE
  2
DOT
 70
    64
  3
-   -   -   -   -   -   -   -   
 72
    65
 73
     2
 40
2.5
 49
0.625
 49
-1.875
  0
LTYPE
  2
DUMMY
 70
    64
  3
ダミー
 72
    65
 73
     0
 40
0.0
  0
LTYPE
  2
RAND1
 70
    64
  3
ランダム線1
 72
    65
 73
     4
 40
10.0
 49
1.0
 49
-2.0
 49
3.0
 49
-4.0
  0
LTYPE
  2
RAND2
 70
    64
  3
ランダム線2
 72
    65
 73
     4
 40
14.0
 49
2.0
 49
-3.0
 49
4.0
 49
-5.0
  0
LTYPE
  2
RAND3
 70
    64
  3
ランダム線3
 72
    65
 73
     4
 40
18.0
 49
3.0
 49
-4.0
 49
5.0
 49
-6.0
  0
LTYPE
  2
RAND4
 70
    64
  3
ランダム線4
 72
    65
 73
     4
 40
22.0
 49
4.0
 49
-5.0
 49
6.0
 49
-7.0
  0
LTYPE
  2
RAND5
 70
    64
  3
ランダム線5
 72
    65
 73
     4
 40
26.0
 49
5.0
 49
-6.0
 49
7.0
 49
-8.0
  0
LTYPE
  2
LONG1
 70
    64
  3
----------  --  ----------  --  
 72
    65
 73
     4
 40
40.0
 49
32.5
 49
-2.5
 49
2.5
 49
-2.5
  0
LTYPE
  2
LONG2
 70
    64
  3
--------  -  -  --------  -  -  
 72
    65
 73
     6
 40
40.0
 49
30.0
 49
-2.5
 49
1.25
 49
-2.5
 49
1.25
 49
-2.5
  0
LTYPE
  2
LONG3
 70
    64
  3
+++++++++++++++..+++++++++++++++
 72
    65
 73
     2
 40
40.0
 49
37.5
 49
-2.5
  0
LTYPE
  2
LONG4
 70
    64
  3
+++++++++++++++..+++++++++++++++
 72
    65
 73
     2
 40
80.0
 49
75.0
 49
-5.0
  0
LTYPE
  2
LONG5
 70
    64
  3
----------  --  ----------  --  
 72
    65
 73
     4
 40
60.0
 49
37.5
 49
-7.5
 49
7.5
 49
-7.5
  0
LTYPE
  2
dashed
 70
   64
  3
-------   -------------   ------
 72
   65
 73
    2
 40
7.5
 49
6
 49
-1.5
  0
LTYPE
  2
dashed_spaced
 70
   64
  3
----        --------        ----
 72
   65
 73
    2
 40
12
 49
6
 49
-6
  0
LTYPE
  2
long_dashed_dotted
 70
   64
  3
------------- --- --------------
 72
   65
 73
    4
 40
15.25
 49
12
 49
-1.5
 49
0.25
 49
-1.5
  0
LTYPE
  2
long_dashed_double-dotted
 70
   64
  3
----------- --- --- ------------
 72
   65
 73
    6
 40
17
 49
12
 49
-1.5
 49
0.25
 49
-1.5
 49
0.25
 49
-1.5
  0
LTYPE
  2
long_dashed_triplicate-dotted
 70
   64
  3
--------- --- --- --- ----------
 72
   65
 73
    8
 40
18.75
 49
12
 49
-1.5
 49
0.25
 49
-1.5
 49
0.25
 49
-1.5
 49
0.25
 49
-1.5
  0
LTYPE
  2
dotted
 70
   64
  3
   -       -       -       -    
 72
   65
 73
    2
 40
1.75
 49
0.25
 49
-1.5
  0
LTYPE
  2
chain
 70
   64
  3
-------------- -- --------------
 72
   65
 73
    4
 40
18.5
 49
12
 49
-1.5
 49
3.5
 49
-1.5
  0
LTYPE
  2
chain_double_dash
 70
   64
  3
------------ -- -- -------------
 72
   65
 73
    6
 40
23.5
 49
12
 49
-1.5
 49
3.5
 49
-1.5
 49
3.5
 49
-1.5
  0
LTYPE
  2
dashed_dotted
 70
   64
  3
-----------     -     ----------
 72
   65
 73
    4
 40
9.25
 49
6
 49
-1.5
 49
0.25
 49
-1.5
  0
LTYPE
  2
double-dashed_dotted
 70
   64
  3
------   -----------   -   -----
 72
   65
 73
    6
 40
16.75
 49
6
 49
-1.5
 49
6
 49
-1.5
 49
0.25
 49
-1.5
  0
LTYPE
  2
dashed_double-dotted
 70
   64
  3
---------    -    -    ---------
 72
   65
 73
    6
 40
11
 49
6
 49
-1.5
 49
0.25
 49
-1.5
 49
0.25
 49
-1.5
  0
LTYPE
  2
double-dashed_double-dotted
 70
   64
  3
-----   ---------   -   -   ----
 72
   65
 73
    8
 40
18.5
 49
6
 49
-1.5
 49
6
 49
-1.5
 49
0.25
 49
-1.5
 49
0.25
 49
-1.5
  0
LTYPE
  2
dashed_triplicate-dotted
 70
   64
  3
-------    -    -    -    ------
 72
   65
 73
    8
 40
12.75
 49
6
 49
-1.5
 49
0.25
 49
-1.5
 49
0.25
 49
-1.5
 49
0.25
 49
-1.5
  0
LTYPE
  2
double-dashed_triplicate-dotted
 70
   64
  3
-----  ---------  -  -  -  -----
 72
   65
 73
   10
 40
20.25
 49
6
 49
-1.5
 49
6
 49
-1.5
 49
0.25
 49
-1.5
 49
0.25
 49
-1.5
 49
0.25
 49
-1.5
  0
LTYPE
  2
undefined
 70
   64
  3
--------------------------------
 72
   65
 73
    0
 40
0
  0
ENDTAB
  0
TABLE
  2
STYLE
  5
3
100
AcDbSymbolTable
 70
     1
  0
STYLE
  5
10
100
AcDbSymbolTableRecord
100
AcDbTextStyleTableRecord
  2
STANDARD
 70
     0
 40
0.0
 41
1.0
 50
0.0
 71
     0
 42
0.2
  3
txt
  4
bigfont.shx
  0
STYLE
  5
26
100
AcDbSymbolTableRecord
100
AcDbTextStyleTableRecord
  2
TATEGAKI
 70
    68
 40
0.0
 41
1.0
 50
0.0
 71
     0
 42
1.0
  3
txt
  4
bigfont.shx
  0
ENDTAB
  0
TABLE
  2
LAYER
 70
    3
  0
LAYER
  2
_0-0_
 70
   64
 62
    7
  6
CONTINUOUS
  0
LAYER
  2
_0-1_
 70
   64
 62
    7
  6
CONTINUOUS
  0
LAYER
  2
ADD_LINE
 70
   64
 62
    7
  6
CONTINUOUS
  0
ENDTAB
  0
ENDSEC
  0
SECTION
  2
BLOCKS
  0
ENDSEC
  0
SECTION
  2
ENTITIES
  0
LINE
  8
_0-0_
  6
CONTINUOUS
 62
    7
 10
34.530845328360897
 20
121.76172820794363
 11
34.530845328360897
 21
118.86172820794354
  0
LINE
  8
_0-0_
  6
CONTINUOUS
 62
    7
 10
34.030845328361124
 20
118.361728207944
 11
32.030845328360897
 21
118.361728207944
  0
LINE
  8
_0-0_
  6
CONTINUOUS
 62
    7
 10
34.530845328360897
 20
118.86172820794354
 11
34.030845328361124
 21
118.361728207944
  0
LINE
  8
_0-0_
  6
CONTINUOUS
 62
    7
 10
32.030845328360897
 20
118.361728207944
 11
31.530845328361124
 21
118.86172820794354
  0
LINE
  8
_0-0_
  6
CONTINUOUS
 62
    7
 10
31.530845328361124
 20
118.86172820794354
 11
31.530845328361124
 21
121.76172820794363
  0
LINE
  8
_0-0_
  6
DASHED2
 62
    7
 10
34.530845328360897
 20
127.5617281391693
 11
34.530845328360897
 21
121.76172813916912
  0
LINE
  8
_0-0_
  6
DASHED2
 62
    7
 10
34.330845280677181
 20
121.76172813916912
 11
34.330845280677181
 21
127.5617281391693
  0
LINE
  8
_0-0_
  6
DASHED2
 62
    7
 10
31.730845376044613
 20
121.76172813916912
 11
31.730845376044613
 21
127.5617281391693
  0
LINE
  8
_0-0_
  6
DASHED2
 62
    7
 10
31.530845328360897
 20
127.5617281391693
 11
31.530845328360897
 21
121.76172813916912
  0
LINE
  8
_0-0_
  6
CONTINUOUS
 62
    7
 10
167.33084532836085
 20
130.36172813916949
 11
170.33084532836085
 21
130.36172813916949
  0
LINE
  8
_0-0_
  6
CONTINUOUS
 62
    7
 10
167.33084532836085
 20
118.36172813916949
 11
167.33084532836085
 21
130.36172813916949
  0
LINE
  8
_0-0_
  6
CONTINUOUS
 62
    7
 10
170.33084532836085
 20
118.36172813916949
 11
167.33084532836085
 21
118.36172813916949
  0
LINE
  8
_0-0_
  6
CONTINUOUS
 62
    7
 10
170.33084532836085
 20
130.36172813916949
 11
170.33084532836085
 21
118.36172813916949
  0
LINE
  8
_0-0_
  6
CONTINUOUS
 62
    7
 10
98.730845328360715
 20
118.36172813916949
 11
100.73084532836072
 21
118.36172813916949
  0
LINE
  8
_0-0_
  6
CONTINUOUS
 62
    7
 10
98.730845328360715
 20
130.36172813916949
 11
98.730845328360715
 21
118.36172813916949
  0
LINE
  8
_0-0_
  6
CONTINUOUS
 62
    7
 10
100.73084532836072
 20
130.36172813916949
 11
98.730845328360715
 21
130.36172813916949
  0
LINE
  8
_0-0_
  6
CONTINUOUS
 62
    7
 10
100.73084532836072
 20
118.36172813916949
 11
100.73084532836072
 21
130.36172813916949
  0
ARC
  8
_0-0_
  6
CONTINUOUS
 62
    7
 10
37.221828333986082
 20
122.26172813916912
 40
0.5
 50
270.00000000000006
 51
26.565051177078018
  0
ARC
  8
_0-0_
  6
CONTINUOUS
 62
    7
 10
34.821828333985991
 20
127.0617281391693
 40
0.5
 50
26.565051177078043
 51
90.000000000000057
  0
ARC
  8
_0-0_
  6
CONTINUOUS
 62
    7
 10
31.230845328360942
 20
127.0617281391693
 40
0.5
 50
90
 51
180
  0
ARC
  8
_0-0_
  6
CONTINUOUS
 62
    7
 10
31.230845328360942
 20
122.26172813916912
 40
0.5
 50
180
 51
270
  0
ARC
  8
_0-0_
  6
CONTINUOUS
 62
    7
 10
33.030845328360897
 20
127.5617281391693
 40
0.5
 50
240.00000000000003
 51
299.99999999999994
  0
LINE
  8
_0-0_
  6
CONTINUOUS
 62
    7
 10
30.730845328360942
 20
127.0617281391693
 11
30.730845328360942
 21
122.26172813916912
  0
LINE
  8
_0-0_
  6
CONTINUOUS
 62
    7
 10
32.030845328360897
 20
127.5617281391693
 11
31.230845328360942
 21
127.5617281391693
  0
LINE
  8
_0-0_
  6
CONTINUOUS
 62
    7
 10
32.780845328360897
 20
127.12871543727681
 11
32.030845328360897
 21
127.5617281391693
  0
LINE
  8
_0-0_
  6
CONTINUOUS
 62
    7
 10
34.030845328360897
 20
127.5617281391693
 11
33.280845328360897
 21
127.12871543727681
  0
LINE
  8
_0-0_
  6
CONTINUOUS
 62
    7
 10
34.821828333985991
 20
127.5617281391693
 11
34.030845328360897
 21
127.5617281391693
  0
LINE
  8
_0-0_
  6
CONTINUOUS
 62
    7
 10
37.669041929485843
 20
122.48533493691923
 11
35.269041929485979
 21
127.28533493691896
  0
LINE
  8
_0-0_
  6
CONTINUOUS
 62
    7
 10
31.230845328360942
 20
121.76172813916912
 11
37.221828333986082
 21
121.76172813916912
  0
LINE
  8
_0-0_
  6
CONTINUOUS
 62
    7
 10
34.530845328360897
 20
189.65276127842162
 11
34.530845328360897
 21
186.75276127842153
  0
LINE
  8
_0-0_
  6
CONTINUOUS
 62
    7
 10
34.030845328361124
 20
186.25276127842199
 11
32.030845328360897
 21
186.25276127842199
  0
LINE
  8
_0-0_
  6
CONTINUOUS
 62
    7
 10
34.530845328360897
 20
186.75276127842153
 11
34.030845328361124
 21
186.25276127842199
  0
LINE
  8
_0-0_
  6
CONTINUOUS
 62
    7
 10
32.030845328360897
 20
186.25276127842199
 11
31.530845328361124
 21
186.75276127842153
  0
LINE
  8
_0-0_
  6
CONTINUOUS
 62
    7
 10
31.530845328361124
 20
186.75276127842153
 11
31.530845328361124
 21
189.65276127842162
  0
LINE
  8
_0-0_
  6
DASHED2
 62
    7
 10
34.530845328360897
 20
195.45276120964729
 11
34.530845328360897
 21
189.65276120964711
  0
LINE
  8
_0-0_
  6
DASHED2
 62
    7
 10
34.330845280677181
 20
189.65276120964711
 11
34.330845280677181
 21
195.45276120964729
  0
LINE
  8
_0-0_
  6
DASHED2
 62
    7
 10
31.730845376044613
 20
189.65276120964711
 11
31.730845376044613
 21
195.45276120964729
  0
LINE
  8
_0-0_
  6
DASHED2
 62
    7
 10
31.530845328360897
 20
195.45276120964729
 11
31.530845328360897
 21
189.65276120964711
  0
ARC
  8
_0-0_
  6
CONTINUOUS
 62
    7
 10
238.43084494689117
 20
197.75276120964747
 40
0.2999999999999998
 50
0
 51
90
  0
ARC
  8
_0-0_
  6
CONTINUOUS
 62
    7
 10
238.43084494689117
 20
190.35276120964784
 40
0.2999999999999998
 50
270
 51
0
  0
ARC
  8
_0-0_
  6
CONTINUOUS
 62
    7
 10
236.41625514351597
 20
190.35276120964784
 40
0.2999999999999998
 50
206.565051177078
 51
270
  0
ARC
  8
_0-0_
  6
CONTINUOUS
 62
    7
 10
235.36625514351624
 20
192.45276120964775
 40
0.2999999999999998
 50
153.434948822922
 51
206.565051177078
  0
ARC
  8
_0-0_
  6
CONTINUOUS
 62
    7
 10
235.43084494689117
 20
193.92358160289734
 40
0.2999999999999998
 50
333.43494882292214
 51
359.99999999999994
  0
ARC
  8
_0-0_
  6
CONTINUOUS
 62
    7
 10
235.43084494689117
 20
195.95276120964775
 40
0.2999999999999998
 50
0
 51
90
  0
ARC
  8
_0-0_
  6
CONTINUOUS
 62
    7
 10
234.83084494689126
 20
196.55276120964766
 40
0.2999999999999998
 50
180
 51
270
  0
ARC
  8
_0-0_
  6
CONTINUOUS
 62
    7
 10
235.33084494689126
 20
197.25276120964747
 40
0.8
 50
90.000000000000028
 51
180.00000000000006
  0
LINE
  8
_0-0_
  6
CONTINUOUS
 62
    7
 10
238.7308449468909
 20
197.75276120964747
 11
238.7308449468909
 21
190.35276120964784
  0
LINE
  8
_0-0_
  6
CONTINUOUS
 62
    7
 10
235.33084494689126
 20
198.05276120964766
 11
238.43084494689117
 21
198.05276120964766
  0
LINE
  8
_0-0_
  6
CONTINUOUS
 62
    7
 10
234.53084494689108
 20
196.55276120964766
 11
234.53084494689108
 21
197.25276120964747
  0
LINE
  8
_0-0_
  6
CONTINUOUS
 62
    7
 10
235.43084494689117
 20
196.25276120964747
 11
234.83084494689126
 21
196.25276120964747
  0
LINE
  8
_0-0_
  6
CONTINUOUS
 62
    7
 10
235.7308449468909
 20
193.92358160289734
 11
235.7308449468909
 21
195.95276120964775
  0
LINE
  8
_0-0_
  6
CONTINUOUS
 62
    7
 10
235.09792698621629
 20
192.58692528829772
 11
235.69917310419112
 21
193.78941752424737
  0
LINE
  8
_0-0_
  6
CONTINUOUS
 62
    7
 10
236.14792698621602
 20
190.21859713099786
 11
235.09792698621629
 21
192.31859713099777
  0
LINE
  8
_0-0_
  6
CONTINUOUS
 62
    7
 10
238.43084494689117
 20
190.05276120964766
 11
236.41625514351597
 21
190.05276120964766
  0
ARC
  8
_0-0_
  6
CONTINUOUS
 62
    7
 10
174.42182532836057
 20
195.75276120964747
 40
0.5
 50
26.565049999999996
 51
90.000000000000014
  0
ARC
  8
_0-0_
  6
CONTINUOUS
 62
    7
 10
173.76487532836074
 20
195.75276120964747
 40
0.5
 50
90
 51
119.997376
  0
ARC
  8
_0-0_
  6
CONTINUOUS
 62
    7
 10
172.63086532836076
 20
196.25278120964742
 40
0.5
 50
239.99931000000001
 51
299.99736999999993
  0
ARC
  8
_0-0_
  6
CONTINUOUS
 62
    7
 10
171.49692532836082
 20
195.75276120964747
 40
0.5
 50
59.999310000000001
 51
90.000000000000028
  0
ARC
  8
_0-0_
  6
CONTINUOUS
 62
    7
 10
170.83084532836062
 20
190.95276120964729
 40
0.5
 50
180
 51
270
  0
ARC
  8
_0-0_
  6
CONTINUOUS
 62
    7
 10
176.82182532836066
 20
190.95276120964729
 40
0.5
 50
270
 51
26.565049999999996
  0
ARC
  8
_0-0_
  6
CONTINUOUS
 62
    7
 10
170.83084532836062
 20
195.75276120964747
 40
0.5
 50
90
 51
180
  0
LINE
  8
_0-0_
  6
CONTINUOUS
 62
    7
 10
171.13084532836058
 20
186.75276120964747
 11
171.13084532836058
 21
190.45276120964729
  0
LINE
  8
_0-0_
  6
CONTINUOUS
 62
    7
 10
171.63084532836081
 20
186.25276120964747
 11
171.13084532836058
 21
186.75276120964747
  0
LINE
  8
_0-0_
  6
CONTINUOUS
 62
    7
 10
173.63084532836058
 20
186.25276120964747
 11
171.63084532836081
 21
186.25276120964747
  0
LINE
  8
_0-0_
  6
CONTINUOUS
 62
    7
 10
174.13084532836081
 20
186.75276120964747
 11
173.63084532836058
 21
186.25276120964747
  0
LINE
  8
_0-0_
  6
CONTINUOUS
 62
    7
 10
174.13084532836081
 20
190.45276120964729
 11
174.13084532836081
 21
186.75276120964747
  0
LINE
  8
_0-0_
  6
CONTINUOUS
 62
    7
 10
170.83084532836062
 20
190.45276120964729
 11
176.82182532836066
 21
190.45276120964729
  0
LINE
  8
_0-0_
  6
CONTINUOUS
 62
    7
 10
167.33084532836085
 20
198.25276120964747
 11
170.33084532836085
 21
198.25276120964747
  0
LINE
  8
_0-0_
  6
CONTINUOUS
 62
    7
 10
167.33084532836085
 20
186.25276120964747
 11
167.33084532836085
 21
198.25276120964747
  0
LINE
  8
_0-0_
  6
CONTINUOUS
 62
    7
 10
170.33084532836085
 20
186.25276120964747
 11
167.33084532836085
 21
186.25276120964747
  0
LINE
  8
_0-0_
  6
CONTINUOUS
 62
    7
 10
170.33084532836085
 20
198.25276120964747
 11
170.33084532836085
 21
186.25276120964747
  0
LINE
  8
_0-0_
  6
CONTINUOUS
 62
    7
 10
171.49692532836082
 20
196.25276120964747
 11
170.83084532836062
 21
196.25276120964747
  0
LINE
  8
_0-0_
  6
CONTINUOUS
 62
    7
 10
172.38085532836078
 20
195.81977120964723
 11
171.74693532836079
 21
196.18577120964721
  0
LINE
  8
_0-0_
  6
CONTINUOUS
 62
    7
 10
173.51489532836069
 20
196.18579120964716
 11
172.88084532836081
 21
195.81975120964728
  0
LINE
  8
_0-0_
  6
CONTINUOUS
 62
    7
 10
174.42182532836057
 20
196.25276120964747
 11
173.76487532836074
 21
196.25276120964747
  0
LINE
  8
_0-0_
  6
CONTINUOUS
 62
    7
 10
177.26904532836068
 20
191.1763712096473
 11
174.86904532836058
 21
195.97637120964703
  0
ARC
  8
_0-0_
  6
CONTINUOUS
 62
    7
 10
101.23084532836094
 20
194.95276120964729
 40
0.5
 50
90
 51
180
  0
ARC
  8
_0-0_
  6
CONTINUOUS
 62
    7
 10
101.89692532836091
 20
194.95276120964729
 40
0.5
 50
59.999310000000001
 51
90.000000000000028
  0
ARC
  8
_0-0_
  6
CONTINUOUS
 62
    7
 10
103.03086532836062
 20
195.45277120964704
 40
0.5
 50
239.99931000000001
 51
299.99736999999993
  0
ARC
  8
_0-0_
  6
CONTINUOUS
 62
    7
 10
104.16487532836084
 20
194.95276120964729
 40
0.5
 50
90
 51
119.997376
  0
ARC
  8
_0-0_
  6
CONTINUOUS
 62
    7
 10
104.82182532836089
 20
194.95276120964729
 40
0.5
 50
26.565049999999996
 51
90.000000000000014
  0
ARC
  8
_0-0_
  6
CONTINUOUS
 62
    7
 10
107.22182532836052
 20
190.15276120964757
 40
0.5
 50
270
 51
26.565049999999996
  0
ARC
  8
_0-0_
  6
CONTINUOUS
 62
    7
 10
101.23084532836094
 20
190.15276120964757
 40
0.5
 50
180
 51
270
  0
LINE
  8
_0-0_
  6
CONTINUOUS
 62
    7
 10
104.53084532836067
 20
189.65276120964711
 11
104.53084532836067
 21
186.75276120964702
  0
LINE
  8
_0-0_
  6
CONTINUOUS
 62
    7
 10
104.0308453283609
 20
186.25276120964747
 11
102.03084532836067
 21
186.25276120964747
  0
LINE
  8
_0-0_
  6
CONTINUOUS
 62
    7
 10
104.53084532836067
 20
186.75276120964702
 11
104.0308453283609
 21
186.25276120964747
  0
LINE
  8
_0-0_
  6
CONTINUOUS
 62
    7
 10
102.03084532836067
 20
186.25276120964747
 11
101.5308453283609
 21
186.75276120964702
  0
LINE
  8
_0-0_
  6
CONTINUOUS
 62
    7
 10
101.89692532836091
 20
195.45276120964729
 11
101.23084532836094
 21
195.45276120964729
  0
LINE
  8
_0-0_
  6
CONTINUOUS
 62
    7
 10
102.78085532836087
 20
195.0197612096473
 11
102.14693532836066
 21
195.38577120964749
  0
LINE
  8
_0-0_
  6
CONTINUOUS
 62
    7
 10
103.91489532836056
 20
195.38578120964723
 11
103.28084532836067
 21
195.0197512096471
  0
LINE
  8
_0-0_
  6
CONTINUOUS
 62
    7
 10
104.82182532836089
 20
195.45276120964729
 11
104.16487532836084
 21
195.45276120964729
  0
LINE
  8
_0-0_
  6
CONTINUOUS
 62
    7
 10
107.66904532836054
 20
190.37637120964712
 11
105.2690453283609
 21
195.1763712096473
  0
LINE
  8
_0-0_
  6
CONTINUOUS
 62
    7
 10
101.23084532836094
 20
189.65276120964711
 11
107.22182532836052
 21
189.65276120964711
  0
LINE
  8
_0-0_
  6
CONTINUOUS
 62
    7
 10
101.5308453283609
 20
186.75276120964702
 11
101.5308453283609
 21
189.65276120964711
  0
LINE
  8
_0-0_
  6
CONTINUOUS
 62
    7
 10
98.730845328360715
 20
186.25276120964747
 11
100.73084532836072
 21
186.25276120964747
  0
LINE
  8
_0-0_
  6
CONTINUOUS
 62
    7
 10
98.730845328360715
 20
198.25276120964747
 11
98.730845328360715
 21
186.25276120964747
  0
LINE
  8
_0-0_
  6
CONTINUOUS
 62
    7
 10
100.73084532836072
 20
198.25276120964747
 11
98.730845328360715
 21
198.25276120964747
  0
LINE
  8
_0-0_
  6
CONTINUOUS
 62
    7
 10
100.73084532836072
 20
186.25276120964747
 11
100.73084532836072
 21
198.25276120964747
  0
ARC
  8
_0-0_
  6
CONTINUOUS
 62
    7
 10
37.221828333986082
 20
190.15276120964711
 40
0.5
 50
270.00000000000006
 51
26.565051177078018
  0
ARC
  8
_0-0_
  6
CONTINUOUS
 62
    7
 10
34.821828333985991
 20
194.95276120964729
 40
0.5
 50
26.565051177078043
 51
90.000000000000057
  0
ARC
  8
_0-0_
  6
CONTINUOUS
 62
    7
 10
31.230845328360942
 20
194.95276120964729
 40
0.5
 50
90
 51
180
  0
ARC
  8
_0-0_
  6
CONTINUOUS
 62
    7
 10
31.230845328360942
 20
190.15276120964711
 40
0.5
 50
180
 51
270
  0
ARC
  8
_0-0_
  6
CONTINUOUS
 62
    7
 10
33.030845328360897
 20
195.45276120964729
 40
0.5
 50
240.00000000000003
 51
299.99999999999994
  0
LINE
  8
_0-0_
  6
CONTINUOUS
 62
    7
 10
30.730845328360942
 20
194.95276120964729
 11
30.730845328360942
 21
190.15276120964711
  0
LINE
  8
_0-0_
  6
CONTINUOUS
 62
    7
 10
32.030845328360897
 20
195.45276120964729
 11
31.230845328360942
 21
195.45276120964729
  0
LINE
  8
_0-0_
  6
CONTINUOUS
 62
    7
 10
32.780845328360897
 20
195.0197485077548
 11
32.030845328360897
 21
195.45276120964729
  0
LINE
  8
_0-0_
  6
CONTINUOUS
 62
    7
 10
34.030845328360897
 20
195.45276120964729
 11
33.280845328360897
 21
195.0197485077548
  0
LINE
  8
_0-0_
  6
CONTINUOUS
 62
    7
 10
34.821828333985991
 20
195.45276120964729
 11
34.030845328360897
 21
195.45276120964729
  0
LINE
  8
_0-0_
  6
CONTINUOUS
 62
    7
 10
37.669041929485843
 20
190.37636800739722
 11
35.269041929485979
 21
195.17636800739695
  0
LINE
  8
_0-0_
  6
CONTINUOUS
 62
    7
 10
31.230845328360942
 20
189.65276120964711
 11
37.221828333986082
 21
189.65276120964711
  0
CIRCLE
  8
_0-0_
  6
CONTINUOUS
 62
    7
 10
28.619352680296174
 20
84.729342603153839
 40
1.2999999523162842
  0
LINE
  8
_0-0_
  6
CONTINUOUS
 62
    7
 10
18.619352680296174
 20
79.729342603153839
 11
18.619352680296174
 21
87.029342603153566
  0
LINE
  8
_0-0_
  6
CONTINUOUS
 62
    7
 10
38.619352680296174
 20
79.729342603153839
 11
18.619352680296174
 21
79.729342603153839
  0
LINE
  8
_0-0_
  6
CONTINUOUS
 62
    7
 10
38.619352680296174
 20
87.029342603153566
 11
38.619352680296174
 21
79.729342603153839
  0
LINE
  8
_0-0_
  6
CONTINUOUS
 62
    7
 10
18.619352680296174
 20
87.029342603153566
 11
38.619352680296174
 21
87.029342603153566
  0
LINE
  8
_0-0_
  6
CONTINUOUS
 62
    7
 10
38.619352680296174
 20
86.229342603153839
 11
18.619352680296174
 21
86.229342603153839
  0
LINE
  8
_0-0_
  6
CONTINUOUS
 62
    7
 10
38.619352680296174
 20
83.229342603153839
 11
18.619352680296174
 21
83.229342603153839
  0
CIRCLE
  8
_0-0_
  6
CONTINUOUS
 62
    7
 10
177.9991580497757
 20
84.729342603153839
 40
1.2999999523162842
  0
CIRCLE
  8
_0-0_
  6
CONTINUOUS
 62
    7
 10
77.999158049775701
 20
84.729342603153839
 40
1.2999999523162842
  0
LINE
  8
_0-0_
  6
CONTINUOUS
 62
    7
 10
187.4991580497757
 20
86.229342603153839
 11
68.499158049775701
 21
86.229342603153839
  0
LINE
  8
_0-0_
  6
CONTINUOUS
 62
    7
 10
187.4991580497757
 20
83.229342603153839
 11
68.499158049775701
 21
83.229342603153839
  0
LINE
  8
_0-0_
  6
CONTINUOUS
 62
    7
 10
187.4991580497757
 20
87.029342603153566
 11
187.4991580497757
 21
79.729342603153839
  0
LINE
  8
_0-0_
  6
CONTINUOUS
 62
    7
 10
68.499158049775701
 20
87.029342603153566
 11
187.4991580497757
 21
87.029342603153566
  0
LINE
  8
_0-0_
  6
CONTINUOUS
 62
    7
 10
68.499158049775701
 20
79.729342603153839
 11
68.499158049775701
 21
87.029342603153566
  0
LINE
  8
_0-0_
  6
CONTINUOUS
 62
    7
 10
187.4991580497757
 20
79.729342603153839
 11
68.499158049775701
 21
79.729342603153839
  0
ARC
  8
_0-0_
  6
CONTINUOUS
 62
    7
 10
211.81781667167036
 20
84.729342603153839
 40
0.5
 50
330.00000000000011
 51
30.000000000000028
  0
ARC
  8
_0-0_
  6
CONTINUOUS
 62
    7
 10
217.11781667167031
 20
86.529342603153566
 40
0.5
 50
0
 51
90
  0
ARC
  8
_0-0_
  6
CONTINUOUS
 62
    7
 10
212.31781667167036
 20
86.529342603153566
 40
0.5
 50
90
 51
180
  0
ARC
  8
_0-0_
  6
CONTINUOUS
 62
    7
 10
212.31781667167036
 20
82.938359597528745
 40
0.5
 50
179.99999999999994
 51
243.43494882292197
  0
ARC
  8
_0-0_
  6
CONTINUOUS
 62
    7
 10
217.11781667167031
 20
80.538359597528654
 40
0.5
 50
243.43494882292197
 51
359.99999999999989
  0
LINE
  8
_0-0_
  6
CONTINUOUS
 62
    7
 10
211.81781667167036
 20
83.729342603153839
 11
211.81781667167036
 21
82.938359597528745
  0
LINE
  8
_0-0_
  6
CONTINUOUS
 62
    7
 10
212.25082937356262
 20
84.479342603153839
 11
211.81781667167036
 21
83.729342603153839
  0
LINE
  8
_0-0_
  6
CONTINUOUS
 62
    7
 10
211.81781667167036
 20
85.729342603153839
 11
212.25082937356262
 21
84.979342603153839
  0
LINE
  8
_0-0_
  6
CONTINUOUS
 62
    7
 10
211.81781667167036
 20
86.529342603153566
 11
211.81781667167036
 21
85.729342603153839
  0
LINE
  8
_0-0_
  6
CONTINUOUS
 62
    7
 10
217.11781667167031
 20
87.029342603153566
 11
212.31781667167036
 21
87.029342603153566
  0
LINE
  8
_0-0_
  6
CONTINUOUS
 62
    7
 10
217.61781667167031
 20
80.538359597528654
 11
217.61781667167031
 21
86.529342603153566
  0
LINE
  8
_0-0_
  6
CONTINUOUS
 62
    7
 10
212.09420987392048
 20
82.491146002028529
 11
216.89420987392043
 21
80.091146002028893
  0
CIRCLE
  8
_0-0_
  6
CONTINUOUS
 62
    7
 10
177.9991580497757
 20
47.882536510206194
 40
1.2999999523162842
  0
CIRCLE
  8
_0-0_
  6
CONTINUOUS
 62
    7
 10
77.999158049775701
 20
47.882536510206194
 40
1.2999999523162842
  0
LINE
  8
_0-0_
  6
CONTINUOUS
 62
    7
 10
187.4991580497757
 20
49.382536510206194
 11
68.499158049775701
 21
49.382536510206194
  0
LINE
  8
_0-0_
  6
CONTINUOUS
 62
    7
 10
187.4991580497757
 20
46.382536510206194
 11
68.499158049775701
 21
46.382536510206194
  0
LINE
  8
_0-0_
  6
CONTINUOUS
 62
    7
 10
68.499158049775701
 20
50.182536510205921
 11
187.4991580497757
 21
50.182536510205921
  0
LINE
  8
_0-0_
  6
CONTINUOUS
 62
    7
 10
187.4991580497757
 20
42.882536510206194
 11
68.499158049775701
 21
42.882536510206194
  0
ARC
  8
_0-0_
  6
CONTINUOUS
 62
    7
 10
211.81781667167036
 20
47.882536510206194
 40
0.5
 50
330.00000000000011
 51
30.000000000000028
  0
ARC
  8
_0-0_
  6
CONTINUOUS
 62
    7
 10
217.11781667167031
 20
49.682536510205921
 40
0.5
 50
0
 51
90
  0
ARC
  8
_0-0_
  6
CONTINUOUS
 62
    7
 10
212.31781667167036
 20
49.682536510205921
 40
0.5
 50
90
 51
180
  0
ARC
  8
_0-0_
  6
CONTINUOUS
 62
    7
 10
212.31781667167036
 20
46.0915535045811
 40
0.5
 50
179.99999999999994
 51
243.43494882292197
  0
ARC
  8
_0-0_
  6
CONTINUOUS
 62
    7
 10
217.11781667167031
 20
43.691553504581009
 40
0.5
 50
243.43494882292197
 51
359.99999999999989
  0
LINE
  8
_0-0_
  6
CONTINUOUS
 62
    7
 10
211.81781667167036
 20
46.882536510206194
 11
211.81781667167036
 21
46.0915535045811
  0
LINE
  8
_0-0_
  6
CONTINUOUS
 62
    7
 10
212.25082937356262
 20
47.632536510206194
 11
211.81781667167036
 21
46.882536510206194
  0
LINE
  8
_0-0_
  6
CONTINUOUS
 62
    7
 10
211.81781667167036
 20
48.882536510206194
 11
212.25082937356262
 21
48.132536510206194
  0
LINE
  8
_0-0_
  6
CONTINUOUS
 62
    7
 10
211.81781667167036
 20
49.682536510205921
 11
211.81781667167036
 21
48.882536510206194
  0
LINE
  8
_0-0_
  6
CONTINUOUS
 62
    7
 10
217.11781667167031
 20
50.182536510205921
 11
212.31781667167036
 21
50.182536510205921
  0
LINE
  8
_0-0_
  6
CONTINUOUS
 62
    7
 10
217.61781667167031
 20
43.691553504581009
 11
217.61781667167031
 21
49.682536510205921
  0
LINE
  8
_0-0_
  6
CONTINUOUS
 62
    7
 10
212.09420987392048
 20
45.644339909080884
 11
216.89420987392043
 21
43.244339909081248
  0
CIRCLE
  8
_0-0_
  6
CONTINUOUS
 62
    7
 10
177.9991580497757
 20
11.035730417258549
 40
1.2999999523162842
  0
CIRCLE
  8
_0-0_
  6
CONTINUOUS
 62
    7
 10
77.999158049775701
 20
11.035730417258549
 40
1.2999999523162842
  0
LINE
  8
_0-0_
  6
CONTINUOUS
 62
    7
 10
187.4991580497757
 20
12.535730417258549
 11
68.499158049775701
 21
12.535730417258549
  0
LINE
  8
_0-0_
  6
CONTINUOUS
 62
    7
 10
187.4991580497757
 20
9.5357304172585486
 11
68.499158049775701
 21
9.5357304172585486
  0
LINE
  8
_0-0_
  6
CONTINUOUS
 62
    7
 10
68.499158049775701
 20
13.335730417258276
 11
187.4991580497757
 21
13.335730417258276
  0
LINE
  8
_0-0_
  6
CONTINUOUS
 62
    7
 10
187.4991580497757
 20
6.0357304172585486
 11
68.499158049775701
 21
6.0357304172585486
  0
ARC
  8
_0-0_
  6
CONTINUOUS
 62
    7
 10
211.81781667167036
 20
11.035730417258549
 40
0.5
 50
330.00000000000011
 51
30.000000000000028
  0
ARC
  8
_0-0_
  6
CONTINUOUS
 62
    7
 10
217.11781667167031
 20
12.835730417258276
 40
0.5
 50
0
 51
90
  0
ARC
  8
_0-0_
  6
CONTINUOUS
 62
    7
 10
212.31781667167036
 20
12.835730417258276
 40
0.5
 50
90
 51
180
  0
ARC
  8
_0-0_
  6
CONTINUOUS
 62
    7
 10
212.31781667167036
 20
9.2447474116334547
 40
0.5
 50
179.99999999999994
 51
243.43494882292197
  0
ARC
  8
_0-0_
  6
CONTINUOUS
 62
    7
 10
217.11781667167031
 20
6.8447474116333638
 40
0.5
 50
243.43494882292197
 51
359.99999999999989
  0
LINE
  8
_0-0_
  6
CONTINUOUS
 62
    7
 10
211.81781667167036
 20
10.035730417258549
 11
211.81781667167036
 21
9.2447474116334547
  0
LINE
  8
_0-0_
  6
CONTINUOUS
 62
    7
 10
212.25082937356262
 20
10.785730417258549
 11
211.81781667167036
 21
10.035730417258549
  0
LINE
  8
_0-0_
  6
CONTINUOUS
 62
    7
 10
211.81781667167036
 20
12.035730417258549
 11
212.25082937356262
 21
11.285730417258549
  0
LINE
  8
_0-0_
  6
CONTINUOUS
 62
    7
 10
211.81781667167036
 20
12.835730417258276
 11
211.81781667167036
 21
12.035730417258549
  0
LINE
  8
_0-0_
  6
CONTINUOUS
 62
    7
 10
217.11781667167031
 20
13.335730417258276
 11
212.31781667167036
 21
13.335730417258276
  0
LINE
  8
_0-0_
  6
CONTINUOUS
 62
    7
 10
217.61781667167031
 20
6.8447474116333638
 11
217.61781667167031
 21
12.835730417258276
  0
LINE
  8
_0-0_
  6
CONTINUOUS
 62
    7
 10
212.09420987392048
 20
8.7975338161332388
 11
216.89420987392043
 21
6.3975338161336026
  0
LINE
  8
_0-0_
  6
CONTINUOUS
 62
    7
 10
221.01781667166995
 20
52.182533504580817
 11
221.01781667166995
 21
50.182533504580817
  0
LINE
  8
_0-0_
  6
CONTINUOUS
 62
    7
 10
209.01781667166995
 20
52.182533504580817
 11
221.01781667166995
 21
52.182533504580817
  0
LINE
  8
_0-0_
  6
CONTINUOUS
 62
    7
 10
209.01781667166995
 20
50.182533504580817
 11
209.01781667166995
 21
52.182533504580817
  0
LINE
  8
_0-0_
  6
CONTINUOUS
 62
    7
 10
221.01781667166995
 20
50.182533504580817
 11
209.01781667166995
 21
50.182533504580817
  0
LINE
  8
_0-0_
  6
CONTINUOUS
 62
    7
 10
209.81781667167013
 20
16.335727411633172
 11
209.81781667167013
 21
13.335727411633172
  0
LINE
  8
_0-0_
  6
CONTINUOUS
 62
    7
 10
221.81781667167013
 20
16.335727411633172
 11
209.81781667167013
 21
16.335727411633172
  0
LINE
  8
_0-0_
  6
CONTINUOUS
 62
    7
 10
221.81781667167013
 20
13.335727411633172
 11
221.81781667167013
 21
16.335727411633172
  0
LINE
  8
_0-0_
  6
CONTINUOUS
 62
    7
 10
209.81781667167013
 20
13.335727411633172
 11
221.81781667167013
 21
13.335727411633172
  0
LINE
  8
_0-0_
  6
CONTINUOUS
 62
    7
 10
187.4991580497757
 20
52.182533504205935
 11
187.4991580497757
 21
42.882536510206194
  0
LINE
  8
_0-0_
  6
CONTINUOUS
 62
    7
 10
68.499158049775701
 20
52.182533504205935
 11
187.4991580497757
 21
52.182533504205935
  0
LINE
  8
_0-0_
  6
CONTINUOUS
 62
    7
 10
68.499158049775701
 20
42.882536510206194
 11
68.499158049775701
 21
52.182533504205935
  0
LINE
  8
_0-0_
  6
CONTINUOUS
 62
    7
 10
187.4991580497757
 20
16.33572741125829
 11
187.4991580497757
 21
6.0357304172585486
  0
LINE
  8
_0-0_
  6
CONTINUOUS
 62
    7
 10
68.499158049775701
 20
16.33572741125829
 11
187.4991580497757
 21
16.33572741125829
  0
LINE
  8
_0-0_
  6
CONTINUOUS
 62
    7
 10
68.499158049775701
 20
6.0357304172585486
 11
68.499158049775701
 21
16.33572741125829
  0
TEXT
  8
_0-1_
 62
    7
 10
155.18988822199742
 20
128.91074948623429
 40
5
 41
1
 50
0
  1
R03S
  0
TEXT
  8
_0-1_
 62
    7
 10
84.692936710430331
 20
129.18505669055946
 40
5
 41
1
 50
0
  1
R02S
  0
TEXT
  8
_0-1_
 62
    7
 10
17.213364446440096
 20
130.55659271218525
 40
5
 41
1
 50
0
  1
R05W
  0
LINE
  8
_0-1_
  6
CONTINUOUS
 62
  152
 10
34.030845328361124
 20
118.361728207944
 11
34.030845328361124
 21
121.76172820794363
  0
LINE
  8
_0-1_
  6
CONTINUOUS
 62
  152
 10
31.530845328361124
 20
118.86172820794354
 11
34.530845328360897
 21
118.86172820794354
  0
LINE
  8
_0-1_
  6
CONTINUOUS
 62
  152
 10
32.030845328360897
 20
121.76172820794363
 11
32.030845328360897
 21
118.361728207944
  0
LINE
  8
_0-1_
  6
CENTER2
 62
  152
 10
33.030845328360897
 20
128.6531032495439
 11
33.030845328360897
 21
117.66875826954794
  0
ARC
  8
_0-1_
  6
PHANTOM1
 62
  152
 10
37.123737715641823
 20
118.861728207944
 40
0.5
 50
270
 51
315
  0
LINE
  8
_0-1_
  6
CENTER2
 62
  152
 10
172.63084532836081
 20
195.96601290002212
 11
172.63084532836081
 21
185.15955204925689
  0
LINE
  8
_0-1_
  6
CONTINUOUS
 62
  152
 10
34.030845328361124
 20
186.25276127842199
 11
34.030845328361124
 21
189.65276127842162
  0
LINE
  8
_0-1_
  6
CONTINUOUS
 62
  152
 10
31.530845328361124
 20
186.75276127842153
 11
34.530845328360897
 21
186.75276127842153
  0
LINE
  8
_0-1_
  6
CONTINUOUS
 62
  152
 10
32.030845328360897
 20
189.65276127842162
 11
32.030845328360897
 21
186.25276127842199
  0
LINE
  8
_0-1_
  6
CENTER2
 62
  152
 10
33.030845328360897
 20
196.54413632002189
 11
33.030845328360897
 21
185.55979134002595
  0
LINE
  8
_0-1_
  6
CENTER2
 62
  152
 10
103.03084532836078
 20
195.96601290002212
 11
103.03084532836078
 21
185.15955204925689
  0
LINE
  8
_0-1_
  6
PHANTOM1
 62
  152
 10
164.33494410619937
 20
218.65413469251143
 11
168.54212611766695
 21
217.5268236701279
  0
LINE
  8
_0-1_
  6
PHANTOM1
 62
  152
 10
93.995372723670471
 20
218.74512257023275
 11
100.33156734350769
 21
217.04734433876092
  0
LINE
  8
_0-1_
  6
PHANTOM1
 62
  152
 10
23.995372723670471
 20
218.74512257023275
 11
32.592401511809612
 21
216.44155564914377
  0
LINE
  8
_0-1_
  6
PHANTOM1
 62
  152
 10
30.730845328117425
 20
186.25276127842199
 11
30.730845328117425
 21
216.94035812522924
  0
LINE
  8
_0-1_
  6
PHANTOM1
 62
  152
 10
25.730844878117409
 20
186.25276127842199
 11
25.730844878117409
 21
218.28010420796198
  0
LINE
  8
_0-1_
  6
PHANTOM1
 62
  152
 10
98.730845328117425
 20
217.4762565100915
 11
98.730845328117425
 21
186.25276127842199
  0
LINE
  8
_0-1_
  6
PHANTOM1
 62
  152
 10
95.730844878117409
 20
186.25276127842199
 11
95.730844878117409
 21
218.28010420796198
  0
LINE
  8
_0-1_
  6
PHANTOM1
 62
  152
 10
167.33084532811733
 20
186.25276127842199
 11
167.33084532811733
 21
217.85138537949507
  0
LINE
  8
_0-1_
  6
PHANTOM1
 62
  152
 10
165.73084487811741
 20
186.25276127842199
 11
165.73084487811741
 21
218.28010420796198
  0
TEXT
  8
_0-1_
 62
    7
 10
214.66053411907922
 20
200.38292881561853
 40
5
 41
1
 50
0
  1
R02B
  0
TEXT
  8
_0-1_
 62
    7
 10
144.66053411907922
 20
200.38292881561853
 40
5
 41
1
 50
0
  1
RS3S
  0
TEXT
  8
_0-1_
 62
    7
 10
74.660534119079216
 20
200.38292881561853
 40
5
 41
1
 50
0
  1
RS2S
  0
TEXT
  8
_0-1_
 62
    7
 10
4.660534119079216
 20
200.38292881561853
 40
5
 41
1
 50
0
  1
R05W
  0
LINE
  8
_0-1_
  6
PHANTOM1
 62
  152
 10
230.83084525958714
 20
169.9598688223673
 11
230.83084525958714
 21
182.54565468815099
  0
LINE
  8
_0-1_
  6
PHANTOM1
 62
  152
 10
250.83084525958714
 20
169.9598688223673
 11
250.83084525958714
 21
182.54565468815099
  0
ARC
  8
_0-1_
  6
PHANTOM1
 62
  152
 10
229.12373866931614
 20
183.75276127842199
 40
0.5
 50
45.00000000000005
 51
90.000000000000057
  0
ARC
  8
_0-1_
  6
PHANTOM1
 62
  152
 10
230.33084525958714
 20
182.54565468815099
 40
0.5
 50
0
 51
45
  0
ARC
  8
_0-1_
  6
PHANTOM1
 62
  152
 10
230.33084525958714
 20
169.9598688223673
 40
0.5
 50
315
 51
0
  0
ARC
  8
_0-1_
  6
PHANTOM1
 62
  152
 10
229.12373866931614
 20
168.75276127842199
 40
0.5
 50
270
 51
315
  0
ARC
  8
_0-1_
  6
PHANTOM1
 62
  152
 10
233.33084525958714
 20
187.95986786869298
 40
0.5
 50
180
 51
225
  0
ARC
  8
_0-1_
  6
PHANTOM1
 62
  152
 10
234.53795184985813
 20
186.75276127842199
 40
0.5
 50
225
 51
270
  0
ARC
  8
_0-1_
  6
PHANTOM1
 62
  152
 10
247.12373771564182
 20
186.75276127842199
 40
0.5
 50
270
 51
315
  0
ARC
  8
_0-1_
  6
PHANTOM1
 62
  152
 10
248.33084525958714
 20
187.95986786869298
 40
0.5
 50
315
 51
0
  0
ARC
  8
_0-1_
  6
PHANTOM1
 62
  152
 10
252.53795280353245
 20
183.75276127842199
 40
0.5
 50
90
 51
135
  0
ARC
  8
_0-1_
  6
PHANTOM1
 62
  152
 10
251.33084525958714
 20
182.54565468815099
 40
0.5
 50
135
 51
180
  0
ARC
  8
_0-1_
  6
PHANTOM1
 62
  152
 10
251.33084525958714
 20
169.9598688223673
 40
0.5
 50
180
 51
224.99998474121097
  0
ARC
  8
_0-1_
  6
PHANTOM1
 62
  152
 10
252.53795280353245
 20
168.75276127842199
 40
0.5
 50
225
 51
270
  0
ARC
  8
_0-1_
  6
PHANTOM1
 62
  152
 10
248.33084525958714
 20
164.54565373447667
 40
0.5
 50
0
 51
45
  0
ARC
  8
_0-1_
  6
PHANTOM1
 62
  152
 10
247.12373771564182
 20
165.75276127842199
 40
0.5
 50
45.00000000000005
 51
90.000000000000057
  0
ARC
  8
_0-1_
  6
PHANTOM1
 62
  152
 10
234.53795184985813
 20
165.75276127842199
 40
0.5
 50
90
 51
135
  0
ARC
  8
_0-1_
  6
PHANTOM1
 62
  152
 10
233.33084525958714
 20
164.54565373447667
 40
0.5
 50
135
 51
180
  0
ARC
  8
_0-1_
  6
PHANTOM1
 62
  152
 10
246.43084564105686
 20
158.53472844150792
 40
0.5
 50
153.43493652343753
 51
180.00000000000003
  0
ARC
  8
_0-1_
  6
PHANTOM1
 62
  152
 10
248.33084525958714
 20
160.35275975254308
 40
0.5
 50
270
 51
0
  0
ARC
  8
_0-1_
  6
PHANTOM1
 62
  152
 10
233.33084525958714
 20
160.35275975254308
 40
0.5
 50
180
 51
270
  0
ARC
  8
_0-1_
  6
PHANTOM1
 62
  152
 10
235.23084487811741
 20
158.53472844150792
 40
0.5
 50
359.99998474121088
 51
26.565048217773398
  0
ARC
  8
_0-1_
  6
PHANTOM1
 62
  152
 10
258.5488780965012
 20
181.85276165989171
 40
0.5
 50
243.43493652343753
 51
270
  0
ARC
  8
_0-1_
  6
PHANTOM1
 62
  152
 10
256.73084678546604
 20
183.75276127842199
 40
0.5
 50
0
 51
90
  0
ARC
  8
_0-1_
  6
PHANTOM1
 62
  152
 10
256.73084678546604
 20
168.75276127842199
 40
0.5
 50
270
 51
0
  0
ARC
  8
_0-1_
  6
PHANTOM1
 62
  152
 10
258.5488780965012
 20
170.65276089695226
 40
0.5
 50
90
 51
116.56504821777344
  0
ARC
  8
_0-1_
  6
PHANTOM1
 62
  152
 10
246.43084564105686
 20
193.97079530742894
 40
0.5
 50
180
 51
206.56504821777344
  0
ARC
  8
_0-1_
  6
PHANTOM1
 62
  152
 10
248.33084525958714
 20
192.15276137378942
 40
0.5
 50
0
 51
90
  0
ARC
  8
_0-1_
  6
PHANTOM1
 62
  152
 10
233.33084525958714
 20
192.15276137378942
 40
0.5
 50
90
 51
180
  0
ARC
  8
_0-1_
  6
PHANTOM1
 62
  152
 10
235.23084487811741
 20
193.97079530742894
 40
0.5
 50
333.4349365234375
 51
0.000000000000019
  0
ARC
  8
_0-1_
  6
PHANTOM1
 62
  152
 10
224.9308451642197
 20
168.75276127842199
 40
0.5
 50
180
 51
270
  0
ARC
  8
_0-1_
  6
PHANTOM1
 62
  152
 10
224.9308451642197
 20
183.75276127842199
 40
0.5
 50
90
 51
180
  0
ARC
  8
_0-1_
  6
PHANTOM1
 62
  152
 10
223.11281123058018
 20
181.85276165989171
 40
0.5
 50
270
 51
296.56504821777344
  0
ARC
  8
_0-1_
  6
PHANTOM1
 62
  152
 10
223.11281123058018
 20
170.65276089695226
 40
0.5
 50
63.434936523437521
 51
90.000000000000028
  0
ARC
  8
_0-1_
  6
PHANTOM1
 62
  152
 10
235.23084487811741
 20
156.75276127842199
 40
0.5
 50
270
 51
359.99998474121094
  0
ARC
  8
_0-1_
  6
PHANTOM1
 62
  152
 10
246.43084564105686
 20
156.75276127842199
 40
0.5
 50
180
 51
270
  0
ARC
  8
_0-1_
  6
PHANTOM1
 62
  152
 10
260.33084525958714
 20
170.65276089695226
 40
0.5
 50
0
 51
90
  0
ARC
  8
_0-1_
  6
PHANTOM1
 62
  152
 10
260.33084525958714
 20
181.85276165989171
 40
0.5
 50
270
 51
0
  0
ARC
  8
_0-1_
  6
PHANTOM1
 62
  152
 10
246.43084564105686
 20
195.75276127842199
 40
0.5
 50
90
 51
180
  0
ARC
  8
_0-1_
  6
PHANTOM1
 62
  152
 10
235.23084487811741
 20
195.75276127842199
 40
0.5
 50
0
 51
90
  0
ARC
  8
_0-1_
  6
PHANTOM1
 62
  152
 10
221.33084525958714
 20
181.85276165989171
 40
0.5
 50
180
 51
270
  0
ARC
  8
_0-1_
  6
PHANTOM1
 62
  152
 10
221.33084525958714
 20
170.65276089695226
 40
0.5
 50
90
 51
180
  0
ARC
  8
_0-1_
  6
PHANTOM1
 62
  152
 10
259.33084525958714
 20
157.75276127842199
 40
1.5
 50
270
 51
0
  0
ARC
  8
_0-1_
  6
PHANTOM1
 62
  152
 10
259.33084525958714
 20
194.75276127842199
 40
1.5
 50
0
 51
90
  0
ARC
  8
_0-1_
  6
PHANTOM1
 62
  152
 10
222.33084525958714
 20
194.75276127842199
 40
1.5
 50
90
 51
180
  0
ARC
  8
_0-1_
  6
PHANTOM1
 62
  152
 10
222.33084525958714
 20
157.75276127842199
 40
1.5
 50
180
 51
270
  0
ARC
  8
_0-1_
  6
PHANTOM1
 62
  152
 10
223.9308451642197
 20
182.26177826908361
 40
0.5
 50
296.56504821777344
 51
0
  0
ARC
  8
_0-1_
  6
PHANTOM1
 62
  152
 10
223.9308451642197
 20
170.24374333408605
 40
0.5
 50
0
 51
63.434936523437493
  0
ARC
  8
_0-1_
  6
PHANTOM1
 62
  152
 10
257.73084678546604
 20
170.24374333408605
 40
0.5
 50
116.56504821777345
 51
180.00000000000003
  0
ARC
  8
_0-1_
  6
PHANTOM1
 62
  152
 10
257.73084678546604
 20
182.26177826908361
 40
0.5
 50
180
 51
243.43493652343753
  0
ARC
  8
_0-1_
  6
PHANTOM1
 62
  152
 10
234.82182826892551
 20
159.35275975254308
 40
0.5
 50
26.56504821777343
 51
90
  0
ARC
  8
_0-1_
  6
PHANTOM1
 62
  152
 10
246.83986320392307
 20
159.35275975254308
 40
0.5
 50
90
 51
153.43493652343753
  0
ARC
  8
_0-1_
  6
PHANTOM1
 62
  152
 10
246.83986320392307
 20
193.15276137378942
 40
0.5
 50
206.56504821777344
 51
270
  0
ARC
  8
_0-1_
  6
PHANTOM1
 62
  152
 10
234.82182826892551
 20
193.15276137378942
 40
0.5
 50
270
 51
333.4349365234375
  0
LINE
  8
_0-1_
  6
PHANTOM1
 62
  152
 10
229.12373866931614
 20
184.25276127842199
 11
224.9308451642197
 21
184.25276127842199
  0
LINE
  8
_0-1_
  6
PHANTOM1
 62
  152
 10
229.47729148761448
 20
184.10631505039464
 11
230.68439903155979
 21
182.89920750644933
  0
LINE
  8
_0-1_
  6
PHANTOM1
 62
  152
 10
230.68439903155979
 20
169.60631505039464
 11
229.47729148761448
 21
168.39920750644933
  0
LINE
  8
_0-1_
  6
PHANTOM1
 62
  152
 10
229.12373866931614
 20
168.25276127842199
 11
224.9308451642197
 21
168.25276127842199
  0
LINE
  8
_0-1_
  6
PHANTOM1
 62
  152
 10
232.83084525958714
 20
187.95986786869298
 11
232.83084525958714
 21
192.15276137378942
  0
LINE
  8
_0-1_
  6
PHANTOM1
 62
  152
 10
232.97729148761448
 20
187.60631505039464
 11
234.18439903155979
 21
186.39920750644933
  0
LINE
  8
_0-1_
  6
PHANTOM1
 62
  152
 10
234.53795184985813
 20
186.25276127842199
 11
247.12373771564182
 21
186.25276127842199
  0
LINE
  8
_0-1_
  6
PHANTOM1
 62
  152
 10
247.47729148761448
 20
186.39920750644933
 11
248.68439903155979
 21
187.60631505039464
  0
LINE
  8
_0-1_
  6
PHANTOM1
 62
  152
 10
248.83084525958714
 20
187.95986786869298
 11
248.83084525958714
 21
192.15276137378942
  0
LINE
  8
_0-1_
  6
PHANTOM1
 62
  152
 10
252.53795280353245
 20
184.25276127842199
 11
256.73084678546604
 21
184.25276127842199
  0
LINE
  8
_0-1_
  6
PHANTOM1
 62
  152
 10
252.18439903155979
 20
184.10631505039464
 11
250.97729148761448
 21
182.89920750644933
  0
LINE
  8
_0-1_
  6
PHANTOM1
 62
  152
 10
250.97729148761448
 20
169.60631505039464
 11
252.18439903155979
 21
168.39920750644933
  0
LINE
  8
_0-1_
  6
PHANTOM1
 62
  152
 10
252.53795280353245
 20
168.25276127842199
 11
256.73084678546604
 21
168.25276127842199
  0
LINE
  8
_0-1_
  6
PHANTOM1
 62
  152
 10
248.83084525958714
 20
164.54565373447667
 11
248.83084525958714
 21
160.35275975254308
  0
LINE
  8
_0-1_
  6
PHANTOM1
 62
  152
 10
248.68439903155979
 20
164.89920750644933
 11
247.47729148761448
 21
166.10631505039464
  0
LINE
  8
_0-1_
  6
PHANTOM1
 62
  152
 10
247.12373771564182
 20
166.25276127842199
 11
234.53795184985813
 21
166.25276127842199
  0
LINE
  8
_0-1_
  6
PHANTOM1
 62
  152
 10
234.18439903155979
 20
166.10631505039464
 11
232.97729148761448
 21
164.89920750644933
  0
LINE
  8
_0-1_
  6
PHANTOM1
 62
  152
 10
232.83084525958714
 20
164.54565373447667
 11
232.83084525958714
 21
160.35275975254308
  0
LINE
  8
_0-1_
  6
PHANTOM1
 62
  152
 10
245.93084564105686
 20
158.53472844150792
 11
245.93084564105686
 21
156.75276127842199
  0
LINE
  8
_0-1_
  6
PHANTOM1
 62
  152
 10
245.98363151446995
 20
158.75833455112706
 11
246.39264907733616
 21
159.57636967685949
  0
LINE
  8
_0-1_
  6
PHANTOM1
 62
  152
 10
248.33084525958714
 20
159.85275975254308
 11
246.83986320392307
 21
159.85275975254308
  0
LINE
  8
_0-1_
  6
PHANTOM1
 62
  152
 10
233.33084525958714
 20
159.85275975254308
 11
234.82182826892551
 21
159.85275975254308
  0
LINE
  8
_0-1_
  6
PHANTOM1
 62
  152
 10
235.67805900470432
 20
158.75833455112706
 11
235.26904144183811
 21
159.57636967685949
  0
LINE
  8
_0-1_
  6
PHANTOM1
 62
  152
 10
235.73084487811741
 20
158.53472844150792
 11
235.73084487811741
 21
156.75276127842199
  0
LINE
  8
_0-1_
  6
PHANTOM1
 62
  152
 10
258.5488780965012
 20
181.35276165989171
 11
260.33084525958714
 21
181.35276165989171
  0
LINE
  8
_0-1_
  6
PHANTOM1
 62
  152
 10
258.32527198688206
 20
181.4055475333048
 11
257.50723686114964
 21
181.81456509617101
  0
LINE
  8
_0-1_
  6
PHANTOM1
 62
  152
 10
257.23084678546604
 20
183.75276127842199
 11
257.23084678546604
 21
182.26177826908361
  0
LINE
  8
_0-1_
  6
PHANTOM1
 62
  152
 10
257.23084678546604
 20
168.75276127842199
 11
257.23084678546604
 21
170.24374333408605
  0
LINE
  8
_0-1_
  6
PHANTOM1
 62
  152
 10
258.32527198688206
 20
171.09997502353917
 11
257.50723686114964
 21
170.69095746067296
  0
LINE
  8
_0-1_
  6
PHANTOM1
 62
  152
 10
258.5488780965012
 20
171.15276089695226
 11
260.33084525958714
 21
171.15276089695226
  0
LINE
  8
_0-1_
  6
PHANTOM1
 62
  152
 10
245.93084564105686
 20
193.97079530742894
 11
245.93084564105686
 21
195.75276127842199
  0
LINE
  8
_0-1_
  6
PHANTOM1
 62
  152
 10
245.98363151446995
 20
193.74718848255407
 11
246.39264907733616
 21
192.92915454891454
  0
LINE
  8
_0-1_
  6
PHANTOM1
 62
  152
 10
248.33084525958714
 20
192.65276137378942
 11
246.83986320392307
 21
192.65276137378942
  0
LINE
  8
_0-1_
  6
PHANTOM1
 62
  152
 10
233.33084525958714
 20
192.65276137378942
 11
234.82182826892551
 21
192.65276137378942
  0
LINE
  8
_0-1_
  6
PHANTOM1
 62
  152
 10
235.67805900470432
 20
193.74718848255407
 11
235.26904144183811
 21
192.92915454891454
  0
LINE
  8
_0-1_
  6
PHANTOM1
 62
  152
 10
235.73084487811741
 20
193.97079530742894
 11
235.73084487811741
 21
195.75276127842199
  0
LINE
  8
_0-1_
  6
PHANTOM1
 62
  152
 10
224.4308451642197
 20
168.75276127842199
 11
224.4308451642197
 21
170.24374333408605
  0
LINE
  8
_0-1_
  6
PHANTOM1
 62
  152
 10
224.4308451642197
 20
183.75276127842199
 11
224.4308451642197
 21
182.26177826908361
  0
LINE
  8
_0-1_
  6
PHANTOM1
 62
  152
 10
223.33641805545506
 20
181.4055475333048
 11
224.15445198909458
 21
181.81456509617101
  0
LINE
  8
_0-1_
  6
PHANTOM1
 62
  152
 10
223.11281123058018
 20
181.35276165989171
 11
221.33084525958714
 21
181.35276165989171
  0
LINE
  8
_0-1_
  6
PHANTOM1
 62
  152
 10
223.33641805545506
 20
171.09997502353917
 11
224.15445198909458
 21
170.69095746067296
  0
LINE
  8
_0-1_
  6
PHANTOM1
 62
  152
 10
223.11281123058018
 20
171.15276089695226
 11
221.33084525958714
 21
171.15276089695226
  0
LINE
  8
_0-1_
  6
PHANTOM1
 62
  152
 10
235.23084487811741
 20
156.25276127842199
 11
222.33084525958714
 21
156.25276127842199
  0
LINE
  8
_0-1_
  6
PHANTOM1
 62
  152
 10
246.43084564105686
 20
156.25276127842199
 11
259.33084525958714
 21
156.25276127842199
  0
LINE
  8
_0-1_
  6
PHANTOM1
 62
  152
 10
260.83084525958714
 20
170.65276089695226
 11
260.83084525958714
 21
157.75276127842199
  0
LINE
  8
_0-1_
  6
PHANTOM1
 62
  152
 10
260.83084525958714
 20
181.85276165989171
 11
260.83084525958714
 21
194.75276127842199
  0
LINE
  8
_0-1_
  6
PHANTOM1
 62
  152
 10
246.43084564105686
 20
196.25276127842199
 11
259.33084525958714
 21
196.25276127842199
  0
LINE
  8
_0-1_
  6
PHANTOM1
 62
  152
 10
235.23084487811741
 20
196.25276127842199
 11
222.33084525958714
 21
196.25276127842199
  0
LINE
  8
_0-1_
  6
PHANTOM1
 62
  152
 10
220.83084525958714
 20
181.85276165989171
 11
220.83084525958714
 21
194.75276127842199
  0
LINE
  8
_0-1_
  6
PHANTOM1
 62
  152
 10
220.83084525958714
 20
170.65276089695226
 11
220.83084525958714
 21
157.75276127842199
  0
LINE
  8
_0-1_
  6
CENTER2
 62
  152
 10
240.83084532836062
 20
180.3527615911172
 11
240.83084532836062
 21
172.15276082817775
  0
LINE
  8
_0-1_
  6
CENTER2
 62
  152
 10
244.93084570983035
 20
176.25276120964747
 11
236.7308449468909
 21
176.25276120964747
  0
LINE
  8
_0-1_
  6
PHANTOM1
 62
  152
 10
160.83084525958714
 20
169.9598688223673
 11
160.83084525958714
 21
182.54565468815099
  0
LINE
  8
_0-1_
  6
PHANTOM1
 62
  152
 10
180.83084525958714
 20
169.9598688223673
 11
180.83084525958714
 21
182.54565468815099
  0
ARC
  8
_0-1_
  6
PHANTOM1
 62
  152
 10
159.12373866931614
 20
183.75276127842199
 40
0.5
 50
45.00000000000005
 51
90.000000000000057
  0
ARC
  8
_0-1_
  6
PHANTOM1
 62
  152
 10
160.33084525958714
 20
182.54565468815099
 40
0.5
 50
0
 51
45
  0
ARC
  8
_0-1_
  6
PHANTOM1
 62
  152
 10
160.33084525958714
 20
169.9598688223673
 40
0.5
 50
315
 51
0
  0
ARC
  8
_0-1_
  6
PHANTOM1
 62
  152
 10
159.12373866931614
 20
168.75276127842199
 40
0.5
 50
270
 51
315
  0
ARC
  8
_0-1_
  6
PHANTOM1
 62
  152
 10
163.33084525958714
 20
187.95986786869298
 40
0.5
 50
180
 51
225
  0
ARC
  8
_0-1_
  6
PHANTOM1
 62
  152
 10
164.53795184985813
 20
186.75276127842199
 40
0.5
 50
225
 51
270
  0
ARC
  8
_0-1_
  6
PHANTOM1
 62
  152
 10
177.12373771564182
 20
186.75276127842199
 40
0.5
 50
270
 51
315
  0
ARC
  8
_0-1_
  6
PHANTOM1
 62
  152
 10
178.33084525958714
 20
187.95986786869298
 40
0.5
 50
315
 51
0
  0
ARC
  8
_0-1_
  6
PHANTOM1
 62
  152
 10
182.53795280353245
 20
183.75276127842199
 40
0.5
 50
90
 51
135
  0
ARC
  8
_0-1_
  6
PHANTOM1
 62
  152
 10
181.33084525958714
 20
182.54565468815099
 40
0.5
 50
135
 51
180
  0
ARC
  8
_0-1_
  6
PHANTOM1
 62
  152
 10
181.33084525958714
 20
169.9598688223673
 40
0.5
 50
180
 51
224.99998474121097
  0
ARC
  8
_0-1_
  6
PHANTOM1
 62
  152
 10
182.53795280353245
 20
168.75276127842199
 40
0.5
 50
225
 51
270
  0
ARC
  8
_0-1_
  6
PHANTOM1
 62
  152
 10
178.33084525958714
 20
164.54565373447667
 40
0.5
 50
0
 51
45
  0
ARC
  8
_0-1_
  6
PHANTOM1
 62
  152
 10
177.12373771564182
 20
165.75276127842199
 40
0.5
 50
45.00000000000005
 51
90.000000000000057
  0
ARC
  8
_0-1_
  6
PHANTOM1
 62
  152
 10
164.53795184985813
 20
165.75276127842199
 40
0.5
 50
90
 51
135
  0
ARC
  8
_0-1_
  6
PHANTOM1
 62
  152
 10
163.33084525958714
 20
164.54565373447667
 40
0.5
 50
135
 51
180
  0
ARC
  8
_0-1_
  6
PHANTOM1
 62
  152
 10
176.43084564105686
 20
158.53472844150792
 40
0.5
 50
153.43493652343753
 51
180.00000000000003
  0
ARC
  8
_0-1_
  6
PHANTOM1
 62
  152
 10
178.33084525958714
 20
160.35275975254308
 40
0.5
 50
270
 51
0
  0
ARC
  8
_0-1_
  6
PHANTOM1
 62
  152
 10
163.33084525958714
 20
160.35275975254308
 40
0.5
 50
180
 51
270
  0
ARC
  8
_0-1_
  6
PHANTOM1
 62
  152
 10
165.23084487811741
 20
158.53472844150792
 40
0.5
 50
359.99998474121088
 51
26.565048217773398
  0
ARC
  8
_0-1_
  6
PHANTOM1
 62
  152
 10
188.5488780965012
 20
181.85276165989171
 40
0.5
 50
243.43493652343753
 51
270
  0
ARC
  8
_0-1_
  6
PHANTOM1
 62
  152
 10
186.73084678546604
 20
183.75276127842199
 40
0.5
 50
0
 51
90
  0
ARC
  8
_0-1_
  6
PHANTOM1
 62
  152
 10
186.73084678546604
 20
168.75276127842199
 40
0.5
 50
270
 51
0
  0
ARC
  8
_0-1_
  6
PHANTOM1
 62
  152
 10
188.5488780965012
 20
170.65276089695226
 40
0.5
 50
90
 51
116.56504821777344
  0
ARC
  8
_0-1_
  6
PHANTOM1
 62
  152
 10
176.43084564105686
 20
193.97079530742894
 40
0.5
 50
180
 51
206.56504821777344
  0
ARC
  8
_0-1_
  6
PHANTOM1
 62
  152
 10
178.33084525958714
 20
192.15276137378942
 40
0.5
 50
0
 51
90
  0
ARC
  8
_0-1_
  6
PHANTOM1
 62
  152
 10
163.33084525958714
 20
192.15276137378942
 40
0.5
 50
90
 51
180
  0
ARC
  8
_0-1_
  6
PHANTOM1
 62
  152
 10
165.23084487811741
 20
193.97079530742894
 40
0.5
 50
333.4349365234375
 51
0.000000000000019
  0
ARC
  8
_0-1_
  6
PHANTOM1
 62
  152
 10
154.9308451642197
 20
168.75276127842199
 40
0.5
 50
180
 51
270
  0
ARC
  8
_0-1_
  6
PHANTOM1
 62
  152
 10
154.9308451642197
 20
183.75276127842199
 40
0.5
 50
90
 51
180
  0
ARC
  8
_0-1_
  6
PHANTOM1
 62
  152
 10
153.11281123058018
 20
181.85276165989171
 40
0.5
 50
270
 51
296.56504821777344
  0
ARC
  8
_0-1_
  6
PHANTOM1
 62
  152
 10
153.11281123058018
 20
170.65276089695226
 40
0.5
 50
63.434936523437521
 51
90.000000000000028
  0
ARC
  8
_0-1_
  6
PHANTOM1
 62
  152
 10
165.23084487811741
 20
156.75276127842199
 40
0.5
 50
270
 51
359.99998474121094
  0
ARC
  8
_0-1_
  6
PHANTOM1
 62
  152
 10
176.43084564105686
 20
156.75276127842199
 40
0.5
 50
180
 51
270
  0
ARC
  8
_0-1_
  6
PHANTOM1
 62
  152
 10
190.33084525958714
 20
170.65276089695226
 40
0.5
 50
0
 51
90
  0
ARC
  8
_0-1_
  6
PHANTOM1
 62
  152
 10
190.33084525958714
 20
181.85276165989171
 40
0.5
 50
270
 51
0
  0
ARC
  8
_0-1_
  6
PHANTOM1
 62
  152
 10
176.43084564105686
 20
195.75276127842199
 40
0.5
 50
90
 51
180
  0
ARC
  8
_0-1_
  6
PHANTOM1
 62
  152
 10
165.23084487811741
 20
195.75276127842199
 40
0.5
 50
0
 51
90
  0
ARC
  8
_0-1_
  6
PHANTOM1
 62
  152
 10
151.33084525958714
 20
181.85276165989171
 40
0.5
 50
180
 51
270
  0
ARC
  8
_0-1_
  6
PHANTOM1
 62
  152
 10
151.33084525958714
 20
170.65276089695226
 40
0.5
 50
90
 51
180
  0
ARC
  8
_0-1_
  6
PHANTOM1
 62
  152
 10
189.33084525958714
 20
157.75276127842199
 40
1.5
 50
270
 51
0
  0
ARC
  8
_0-1_
  6
PHANTOM1
 62
  152
 10
189.33084525958714
 20
194.75276127842199
 40
1.5
 50
0
 51
90
  0
ARC
  8
_0-1_
  6
PHANTOM1
 62
  152
 10
152.33084525958714
 20
194.75276127842199
 40
1.5
 50
90
 51
180
  0
ARC
  8
_0-1_
  6
PHANTOM1
 62
  152
 10
152.33084525958714
 20
157.75276127842199
 40
1.5
 50
180
 51
270
  0
ARC
  8
_0-1_
  6
PHANTOM1
 62
  152
 10
153.9308451642197
 20
182.26177826908361
 40
0.5
 50
296.56504821777344
 51
0
  0
ARC
  8
_0-1_
  6
PHANTOM1
 62
  152
 10
153.9308451642197
 20
170.24374333408605
 40
0.5
 50
0
 51
63.434936523437493
  0
ARC
  8
_0-1_
  6
PHANTOM1
 62
  152
 10
187.73084678546604
 20
170.24374333408605
 40
0.5
 50
116.56504821777345
 51
180.00000000000003
  0
ARC
  8
_0-1_
  6
PHANTOM1
 62
  152
 10
187.73084678546604
 20
182.26177826908361
 40
0.5
 50
180
 51
243.43493652343753
  0
ARC
  8
_0-1_
  6
PHANTOM1
 62
  152
 10
164.82182826892551
 20
159.35275975254308
 40
0.5
 50
26.56504821777343
 51
90
  0
ARC
  8
_0-1_
  6
PHANTOM1
 62
  152
 10
176.83986320392307
 20
159.35275975254308
 40
0.5
 50
90
 51
153.43493652343753
  0
ARC
  8
_0-1_
  6
PHANTOM1
 62
  152
 10
176.83986320392307
 20
193.15276137378942
 40
0.5
 50
206.56504821777344
 51
270
  0
ARC
  8
_0-1_
  6
PHANTOM1
 62
  152
 10
164.82182826892551
 20
193.15276137378942
 40
0.5
 50
270
 51
333.4349365234375
  0
LINE
  8
_0-1_
  6
PHANTOM1
 62
  152
 10
159.12373866931614
 20
184.25276127842199
 11
154.9308451642197
 21
184.25276127842199
  0
LINE
  8
_0-1_
  6
PHANTOM1
 62
  152
 10
159.47729148761448
 20
184.10631505039464
 11
160.68439903155979
 21
182.89920750644933
  0
LINE
  8
_0-1_
  6
PHANTOM1
 62
  152
 10
160.68439903155979
 20
169.60631505039464
 11
159.47729148761448
 21
168.39920750644933
  0
LINE
  8
_0-1_
  6
PHANTOM1
 62
  152
 10
159.12373866931614
 20
168.25276127842199
 11
154.9308451642197
 21
168.25276127842199
  0
LINE
  8
_0-1_
  6
PHANTOM1
 62
  152
 10
162.83084525958714
 20
187.95986786869298
 11
162.83084525958714
 21
192.15276137378942
  0
LINE
  8
_0-1_
  6
PHANTOM1
 62
  152
 10
162.97729148761448
 20
187.60631505039464
 11
164.18439903155979
 21
186.39920750644933
  0
LINE
  8
_0-1_
  6
PHANTOM1
 62
  152
 10
164.53795184985813
 20
186.25276127842199
 11
177.12373771564182
 21
186.25276127842199
  0
LINE
  8
_0-1_
  6
PHANTOM1
 62
  152
 10
177.47729148761448
 20
186.39920750644933
 11
178.68439903155979
 21
187.60631505039464
  0
LINE
  8
_0-1_
  6
PHANTOM1
 62
  152
 10
178.83084525958714
 20
187.95986786869298
 11
178.83084525958714
 21
192.15276137378942
  0
LINE
  8
_0-1_
  6
PHANTOM1
 62
  152
 10
182.53795280353245
 20
184.25276127842199
 11
186.73084678546604
 21
184.25276127842199
  0
LINE
  8
_0-1_
  6
PHANTOM1
 62
  152
 10
182.18439903155979
 20
184.10631505039464
 11
180.97729148761448
 21
182.89920750644933
  0
LINE
  8
_0-1_
  6
PHANTOM1
 62
  152
 10
180.97729148761448
 20
169.60631505039464
 11
182.18439903155979
 21
168.39920750644933
  0
LINE
  8
_0-1_
  6
PHANTOM1
 62
  152
 10
182.53795280353245
 20
168.25276127842199
 11
186.73084678546604
 21
168.25276127842199
  0
LINE
  8
_0-1_
  6
PHANTOM1
 62
  152
 10
178.83084525958714
 20
164.54565373447667
 11
178.83084525958714
 21
160.35275975254308
  0
LINE
  8
_0-1_
  6
PHANTOM1
 62
  152
 10
178.68439903155979
 20
164.89920750644933
 11
177.47729148761448
 21
166.10631505039464
  0
LINE
  8
_0-1_
  6
PHANTOM1
 62
  152
 10
177.12373771564182
 20
166.25276127842199
 11
164.53795184985813
 21
166.25276127842199
  0
LINE
  8
_0-1_
  6
PHANTOM1
 62
  152
 10
164.18439903155979
 20
166.10631505039464
 11
162.97729148761448
 21
164.89920750644933
  0
LINE
  8
_0-1_
  6
PHANTOM1
 62
  152
 10
162.83084525958714
 20
164.54565373447667
 11
162.83084525958714
 21
160.35275975254308
  0
LINE
  8
_0-1_
  6
PHANTOM1
 62
  152
 10
175.93084564105686
 20
158.53472844150792
 11
175.93084564105686
 21
156.75276127842199
  0
LINE
  8
_0-1_
  6
PHANTOM1
 62
  152
 10
175.98363151446995
 20
158.75833455112706
 11
176.39264907733616
 21
159.57636967685949
  0
LINE
  8
_0-1_
  6
PHANTOM1
 62
  152
 10
178.33084525958714
 20
159.85275975254308
 11
176.83986320392307
 21
159.85275975254308
  0
LINE
  8
_0-1_
  6
PHANTOM1
 62
  152
 10
163.33084525958714
 20
159.85275975254308
 11
164.82182826892551
 21
159.85275975254308
  0
LINE
  8
_0-1_
  6
PHANTOM1
 62
  152
 10
165.67805900470432
 20
158.75833455112706
 11
165.26904144183811
 21
159.57636967685949
  0
LINE
  8
_0-1_
  6
PHANTOM1
 62
  152
 10
165.73084487811741
 20
158.53472844150792
 11
165.73084487811741
 21
156.75276127842199
  0
LINE
  8
_0-1_
  6
PHANTOM1
 62
  152
 10
188.5488780965012
 20
181.35276165989171
 11
190.33084525958714
 21
181.35276165989171
  0
LINE
  8
_0-1_
  6
PHANTOM1
 62
  152
 10
188.32527198688206
 20
181.4055475333048
 11
187.50723686114964
 21
181.81456509617101
  0
LINE
  8
_0-1_
  6
PHANTOM1
 62
  152
 10
187.23084678546604
 20
183.75276127842199
 11
187.23084678546604
 21
182.26177826908361
  0
LINE
  8
_0-1_
  6
PHANTOM1
 62
  152
 10
187.23084678546604
 20
168.75276127842199
 11
187.23084678546604
 21
170.24374333408605
  0
LINE
  8
_0-1_
  6
PHANTOM1
 62
  152
 10
188.32527198688206
 20
171.09997502353917
 11
187.50723686114964
 21
170.69095746067296
  0
LINE
  8
_0-1_
  6
PHANTOM1
 62
  152
 10
188.5488780965012
 20
171.15276089695226
 11
190.33084525958714
 21
171.15276089695226
  0
LINE
  8
_0-1_
  6
PHANTOM1
 62
  152
 10
175.93084564105686
 20
193.97079530742894
 11
175.93084564105686
 21
195.75276127842199
  0
LINE
  8
_0-1_
  6
PHANTOM1
 62
  152
 10
175.98363151446995
 20
193.74718848255407
 11
176.39264907733616
 21
192.92915454891454
  0
LINE
  8
_0-1_
  6
PHANTOM1
 62
  152
 10
178.33084525958714
 20
192.65276137378942
 11
176.83986320392307
 21
192.65276137378942
  0
LINE
  8
_0-1_
  6
PHANTOM1
 62
  152
 10
163.33084525958714
 20
192.65276137378942
 11
164.82182826892551
 21
192.65276137378942
  0
LINE
  8
_0-1_
  6
PHANTOM1
 62
  152
 10
165.67805900470432
 20
193.74718848255407
 11
165.26904144183811
 21
192.92915454891454
  0
LINE
  8
_0-1_
  6
PHANTOM1
 62
  152
 10
165.73084487811741
 20
193.97079530742894
 11
165.73084487811741
 21
195.75276127842199
  0
LINE
  8
_0-1_
  6
PHANTOM1
 62
  152
 10
154.4308451642197
 20
168.75276127842199
 11
154.4308451642197
 21
170.24374333408605
  0
LINE
  8
_0-1_
  6
PHANTOM1
 62
  152
 10
154.4308451642197
 20
183.75276127842199
 11
154.4308451642197
 21
182.26177826908361
  0
LINE
  8
_0-1_
  6
PHANTOM1
 62
  152
 10
153.33641805545506
 20
181.4055475333048
 11
154.15445198909458
 21
181.81456509617101
  0
LINE
  8
_0-1_
  6
PHANTOM1
 62
  152
 10
153.11281123058018
 20
181.35276165989171
 11
151.33084525958714
 21
181.35276165989171
  0
LINE
  8
_0-1_
  6
PHANTOM1
 62
  152
 10
153.33641805545506
 20
171.09997502353917
 11
154.15445198909458
 21
170.69095746067296
  0
LINE
  8
_0-1_
  6
PHANTOM1
 62
  152
 10
153.11281123058018
 20
171.15276089695226
 11
151.33084525958714
 21
171.15276089695226
  0
LINE
  8
_0-1_
  6
PHANTOM1
 62
  152
 10
165.23084487811741
 20
156.25276127842199
 11
152.33084525958714
 21
156.25276127842199
  0
LINE
  8
_0-1_
  6
PHANTOM1
 62
  152
 10
176.43084564105686
 20
156.25276127842199
 11
189.33084525958714
 21
156.25276127842199
  0
LINE
  8
_0-1_
  6
PHANTOM1
 62
  152
 10
190.83084525958714
 20
170.65276089695226
 11
190.83084525958714
 21
157.75276127842199
  0
LINE
  8
_0-1_
  6
PHANTOM1
 62
  152
 10
190.83084525958714
 20
181.85276165989171
 11
190.83084525958714
 21
194.75276127842199
  0
LINE
  8
_0-1_
  6
PHANTOM1
 62
  152
 10
176.43084564105686
 20
196.25276127842199
 11
189.33084525958714
 21
196.25276127842199
  0
LINE
  8
_0-1_
  6
PHANTOM1
 62
  152
 10
165.23084487811741
 20
196.25276127842199
 11
152.33084525958714
 21
196.25276127842199
  0
LINE
  8
_0-1_
  6
PHANTOM1
 62
  152
 10
150.83084525958714
 20
181.85276165989171
 11
150.83084525958714
 21
194.75276127842199
  0
LINE
  8
_0-1_
  6
PHANTOM1
 62
  152
 10
150.83084525958714
 20
170.65276089695226
 11
150.83084525958714
 21
157.75276127842199
  0
LINE
  8
_0-1_
  6
CENTER2
 62
  152
 10
175.8308153283607
 20
176.25276120964747
 11
165.83086532836057
 21
176.25276120964747
  0
LINE
  8
_0-1_
  6
CENTER2
 62
  152
 10
170.83084532836062
 20
181.25273120964732
 11
170.83084532836062
 21
171.25273120964732
  0
LINE
  8
_0-1_
  6
CONTINUOUS
 62
  152
 10
173.63084532836058
 20
186.25276120964747
 11
173.63084532836058
 21
190.45276120964729
  0
LINE
  8
_0-1_
  6
CONTINUOUS
 62
  152
 10
171.13084532836058
 20
186.75276120964747
 11
174.13084532836081
 21
186.75276120964747
  0
LINE
  8
_0-1_
  6
CONTINUOUS
 62
  152
 10
171.63084532836081
 20
190.45276120964729
 11
171.63084532836081
 21
186.25276120964747
  0
LINE
  8
_0-1_
  6
PHANTOM1
 62
  152
 10
90.830845259587136
 20
169.9598688223673
 11
90.830845259587136
 21
182.54565468815099
  0
LINE
  8
_0-1_
  6
PHANTOM1
 62
  152
 10
110.83084525958714
 20
169.9598688223673
 11
110.83084525958714
 21
182.54565468815099
  0
ARC
  8
_0-1_
  6
PHANTOM1
 62
  152
 10
89.12373866931614
 20
183.75276127842199
 40
0.5
 50
45.00000000000005
 51
90.000000000000057
  0
ARC
  8
_0-1_
  6
PHANTOM1
 62
  152
 10
90.330845259587136
 20
182.54565468815099
 40
0.5
 50
0
 51
45
  0
ARC
  8
_0-1_
  6
PHANTOM1
 62
  152
 10
90.330845259587136
 20
169.9598688223673
 40
0.5
 50
315
 51
0
  0
ARC
  8
_0-1_
  6
PHANTOM1
 62
  152
 10
89.12373866931614
 20
168.75276127842199
 40
0.5
 50
270
 51
315
  0
ARC
  8
_0-1_
  6
PHANTOM1
 62
  152
 10
93.330845259587136
 20
187.95986786869298
 40
0.5
 50
180
 51
225
  0
ARC
  8
_0-1_
  6
PHANTOM1
 62
  152
 10
94.537951849858132
 20
186.75276127842199
 40
0.5
 50
225
 51
270
  0
ARC
  8
_0-1_
  6
PHANTOM1
 62
  152
 10
107.12373771564182
 20
186.75276127842199
 40
0.5
 50
270
 51
315
  0
ARC
  8
_0-1_
  6
PHANTOM1
 62
  152
 10
108.33084525958714
 20
187.95986786869298
 40
0.5
 50
315
 51
0
  0
ARC
  8
_0-1_
  6
PHANTOM1
 62
  152
 10
112.53795280353245
 20
183.75276127842199
 40
0.5
 50
90
 51
135
  0
ARC
  8
_0-1_
  6
PHANTOM1
 62
  152
 10
111.33084525958714
 20
182.54565468815099
 40
0.5
 50
135
 51
180
  0
ARC
  8
_0-1_
  6
PHANTOM1
 62
  152
 10
111.33084525958714
 20
169.9598688223673
 40
0.5
 50
180
 51
224.99998474121097
  0
ARC
  8
_0-1_
  6
PHANTOM1
 62
  152
 10
112.53795280353245
 20
168.75276127842199
 40
0.5
 50
225
 51
270
  0
ARC
  8
_0-1_
  6
PHANTOM1
 62
  152
 10
108.33084525958714
 20
164.54565373447667
 40
0.5
 50
0
 51
45
  0
ARC
  8
_0-1_
  6
PHANTOM1
 62
  152
 10
107.12373771564182
 20
165.75276127842199
 40
0.5
 50
45.00000000000005
 51
90.000000000000057
  0
ARC
  8
_0-1_
  6
PHANTOM1
 62
  152
 10
94.537951849858132
 20
165.75276127842199
 40
0.5
 50
90
 51
135
  0
ARC
  8
_0-1_
  6
PHANTOM1
 62
  152
 10
93.330845259587136
 20
164.54565373447667
 40
0.5
 50
135
 51
180
  0
ARC
  8
_0-1_
  6
PHANTOM1
 62
  152
 10
106.43084564105686
 20
158.53472844150792
 40
0.5
 50
153.43493652343753
 51
180.00000000000003
  0
ARC
  8
_0-1_
  6
PHANTOM1
 62
  152
 10
108.33084525958714
 20
160.35275975254308
 40
0.5
 50
270
 51
0
  0
ARC
  8
_0-1_
  6
PHANTOM1
 62
  152
 10
93.330845259587136
 20
160.35275975254308
 40
0.5
 50
180
 51
270
  0
ARC
  8
_0-1_
  6
PHANTOM1
 62
  152
 10
95.230844878117409
 20
158.53472844150792
 40
0.5
 50
359.99998474121088
 51
26.565048217773398
  0
ARC
  8
_0-1_
  6
PHANTOM1
 62
  152
 10
118.5488780965012
 20
181.85276165989171
 40
0.5
 50
243.43493652343753
 51
270
  0
ARC
  8
_0-1_
  6
PHANTOM1
 62
  152
 10
116.73084678546604
 20
183.75276127842199
 40
0.5
 50
0
 51
90
  0
ARC
  8
_0-1_
  6
PHANTOM1
 62
  152
 10
116.73084678546604
 20
168.75276127842199
 40
0.5
 50
270
 51
0
  0
ARC
  8
_0-1_
  6
PHANTOM1
 62
  152
 10
118.5488780965012
 20
170.65276089695226
 40
0.5
 50
90
 51
116.56504821777344
  0
ARC
  8
_0-1_
  6
PHANTOM1
 62
  152
 10
106.43084564105686
 20
193.97079530742894
 40
0.5
 50
180
 51
206.56504821777344
  0
ARC
  8
_0-1_
  6
PHANTOM1
 62
  152
 10
108.33084525958714
 20
192.15276137378942
 40
0.5
 50
0
 51
90
  0
ARC
  8
_0-1_
  6
PHANTOM1
 62
  152
 10
93.330845259587136
 20
192.15276137378942
 40
0.5
 50
90
 51
180
  0
ARC
  8
_0-1_
  6
PHANTOM1
 62
  152
 10
95.230844878117409
 20
193.97079530742894
 40
0.5
 50
333.4349365234375
 51
0.000000000000019
  0
ARC
  8
_0-1_
  6
PHANTOM1
 62
  152
 10
84.930845164219704
 20
168.75276127842199
 40
0.5
 50
180
 51
270
  0
ARC
  8
_0-1_
  6
PHANTOM1
 62
  152
 10
84.930845164219704
 20
183.75276127842199
 40
0.5
 50
90
 51
180
  0
ARC
  8
_0-1_
  6
PHANTOM1
 62
  152
 10
83.112811230580178
 20
181.85276165989171
 40
0.5
 50
270
 51
296.56504821777344
  0
ARC
  8
_0-1_
  6
PHANTOM1
 62
  152
 10
83.112811230580178
 20
170.65276089695226
 40
0.5
 50
63.434936523437521
 51
90.000000000000028
  0
ARC
  8
_0-1_
  6
PHANTOM1
 62
  152
 10
95.230844878117409
 20
156.75276127842199
 40
0.5
 50
270
 51
359.99998474121094
  0
ARC
  8
_0-1_
  6
PHANTOM1
 62
  152
 10
106.43084564105686
 20
156.75276127842199
 40
0.5
 50
180
 51
270
  0
ARC
  8
_0-1_
  6
PHANTOM1
 62
  152
 10
120.33084525958714
 20
170.65276089695226
 40
0.5
 50
0
 51
90
  0
ARC
  8
_0-1_
  6
PHANTOM1
 62
  152
 10
120.33084525958714
 20
181.85276165989171
 40
0.5
 50
270
 51
0
  0
ARC
  8
_0-1_
  6
PHANTOM1
 62
  152
 10
106.43084564105686
 20
195.75276127842199
 40
0.5
 50
90
 51
180
  0
ARC
  8
_0-1_
  6
PHANTOM1
 62
  152
 10
95.230844878117409
 20
195.75276127842199
 40
0.5
 50
0
 51
90
  0
ARC
  8
_0-1_
  6
PHANTOM1
 62
  152
 10
81.330845259587136
 20
181.85276165989171
 40
0.5
 50
180
 51
270
  0
ARC
  8
_0-1_
  6
PHANTOM1
 62
  152
 10
81.330845259587136
 20
170.65276089695226
 40
0.5
 50
90
 51
180
  0
ARC
  8
_0-1_
  6
PHANTOM1
 62
  152
 10
119.33084525958714
 20
157.75276127842199
 40
1.5
 50
270
 51
0
  0
ARC
  8
_0-1_
  6
PHANTOM1
 62
  152
 10
119.33084525958714
 20
194.75276127842199
 40
1.5
 50
0
 51
90
  0
ARC
  8
_0-1_
  6
PHANTOM1
 62
  152
 10
82.330845259587136
 20
194.75276127842199
 40
1.5
 50
90
 51
180
  0
ARC
  8
_0-1_
  6
PHANTOM1
 62
  152
 10
82.330845259587136
 20
157.75276127842199
 40
1.5
 50
180
 51
270
  0
ARC
  8
_0-1_
  6
PHANTOM1
 62
  152
 10
83.930845164219704
 20
182.26177826908361
 40
0.5
 50
296.56504821777344
 51
0
  0
ARC
  8
_0-1_
  6
PHANTOM1
 62
  152
 10
83.930845164219704
 20
170.24374333408605
 40
0.5
 50
0
 51
63.434936523437493
  0
ARC
  8
_0-1_
  6
PHANTOM1
 62
  152
 10
117.73084678546604
 20
170.24374333408605
 40
0.5
 50
116.56504821777345
 51
180.00000000000003
  0
ARC
  8
_0-1_
  6
PHANTOM1
 62
  152
 10
117.73084678546604
 20
182.26177826908361
 40
0.5
 50
180
 51
243.43493652343753
  0
ARC
  8
_0-1_
  6
PHANTOM1
 62
  152
 10
94.821828268925515
 20
159.35275975254308
 40
0.5
 50
26.56504821777343
 51
90
  0
ARC
  8
_0-1_
  6
PHANTOM1
 62
  152
 10
106.83986320392307
 20
159.35275975254308
 40
0.5
 50
90
 51
153.43493652343753
  0
ARC
  8
_0-1_
  6
PHANTOM1
 62
  152
 10
106.83986320392307
 20
193.15276137378942
 40
0.5
 50
206.56504821777344
 51
270
  0
ARC
  8
_0-1_
  6
PHANTOM1
 62
  152
 10
94.821828268925515
 20
193.15276137378942
 40
0.5
 50
270
 51
333.4349365234375
  0
LINE
  8
_0-1_
  6
PHANTOM1
 62
  152
 10
89.12373866931614
 20
184.25276127842199
 11
84.930845164219704
 21
184.25276127842199
  0
LINE
  8
_0-1_
  6
PHANTOM1
 62
  152
 10
89.47729148761448
 20
184.10631505039464
 11
90.684399031559792
 21
182.89920750644933
  0
LINE
  8
_0-1_
  6
PHANTOM1
 62
  152
 10
90.684399031559792
 20
169.60631505039464
 11
89.47729148761448
 21
168.39920750644933
  0
LINE
  8
_0-1_
  6
PHANTOM1
 62
  152
 10
89.12373866931614
 20
168.25276127842199
 11
84.930845164219704
 21
168.25276127842199
  0
LINE
  8
_0-1_
  6
PHANTOM1
 62
  152
 10
92.830845259587136
 20
187.95986786869298
 11
92.830845259587136
 21
192.15276137378942
  0
LINE
  8
_0-1_
  6
PHANTOM1
 62
  152
 10
92.97729148761448
 20
187.60631505039464
 11
94.184399031559792
 21
186.39920750644933
  0
LINE
  8
_0-1_
  6
PHANTOM1
 62
  152
 10
94.537951849858132
 20
186.25276127842199
 11
107.12373771564182
 21
186.25276127842199
  0
LINE
  8
_0-1_
  6
PHANTOM1
 62
  152
 10
107.47729148761448
 20
186.39920750644933
 11
108.68439903155979
 21
187.60631505039464
  0
LINE
  8
_0-1_
  6
PHANTOM1
 62
  152
 10
108.83084525958714
 20
187.95986786869298
 11
108.83084525958714
 21
192.15276137378942
  0
LINE
  8
_0-1_
  6
PHANTOM1
 62
  152
 10
112.53795280353245
 20
184.25276127842199
 11
116.73084678546604
 21
184.25276127842199
  0
LINE
  8
_0-1_
  6
PHANTOM1
 62
  152
 10
112.18439903155979
 20
184.10631505039464
 11
110.97729148761448
 21
182.89920750644933
  0
LINE
  8
_0-1_
  6
PHANTOM1
 62
  152
 10
110.97729148761448
 20
169.60631505039464
 11
112.18439903155979
 21
168.39920750644933
  0
LINE
  8
_0-1_
  6
PHANTOM1
 62
  152
 10
112.53795280353245
 20
168.25276127842199
 11
116.73084678546604
 21
168.25276127842199
  0
LINE
  8
_0-1_
  6
PHANTOM1
 62
  152
 10
108.83084525958714
 20
164.54565373447667
 11
108.83084525958714
 21
160.35275975254308
  0
LINE
  8
_0-1_
  6
PHANTOM1
 62
  152
 10
108.68439903155979
 20
164.89920750644933
 11
107.47729148761448
 21
166.10631505039464
  0
LINE
  8
_0-1_
  6
PHANTOM1
 62
  152
 10
107.12373771564182
 20
166.25276127842199
 11
94.537951849858132
 21
166.25276127842199
  0
LINE
  8
_0-1_
  6
PHANTOM1
 62
  152
 10
94.184399031559792
 20
166.10631505039464
 11
92.97729148761448
 21
164.89920750644933
  0
LINE
  8
_0-1_
  6
PHANTOM1
 62
  152
 10
92.830845259587136
 20
164.54565373447667
 11
92.830845259587136
 21
160.35275975254308
  0
LINE
  8
_0-1_
  6
PHANTOM1
 62
  152
 10
105.93084564105686
 20
158.53472844150792
 11
105.93084564105686
 21
156.75276127842199
  0
LINE
  8
_0-1_
  6
PHANTOM1
 62
  152
 10
105.98363151446995
 20
158.75833455112706
 11
106.39264907733616
 21
159.57636967685949
  0
LINE
  8
_0-1_
  6
PHANTOM1
 62
  152
 10
108.33084525958714
 20
159.85275975254308
 11
106.83986320392307
 21
159.85275975254308
  0
LINE
  8
_0-1_
  6
PHANTOM1
 62
  152
 10
93.330845259587136
 20
159.85275975254308
 11
94.821828268925515
 21
159.85275975254308
  0
LINE
  8
_0-1_
  6
PHANTOM1
 62
  152
 10
95.678059004704323
 20
158.75833455112706
 11
95.269041441838112
 21
159.57636967685949
  0
LINE
  8
_0-1_
  6
PHANTOM1
 62
  152
 10
95.730844878117409
 20
158.53472844150792
 11
95.730844878117409
 21
156.75276127842199
  0
LINE
  8
_0-1_
  6
PHANTOM1
 62
  152
 10
118.5488780965012
 20
181.35276165989171
 11
120.33084525958714
 21
181.35276165989171
  0
LINE
  8
_0-1_
  6
PHANTOM1
 62
  152
 10
118.32527198688206
 20
181.4055475333048
 11
117.50723686114964
 21
181.81456509617101
  0
LINE
  8
_0-1_
  6
PHANTOM1
 62
  152
 10
117.23084678546604
 20
183.75276127842199
 11
117.23084678546604
 21
182.26177826908361
  0
LINE
  8
_0-1_
  6
PHANTOM1
 62
  152
 10
117.23084678546604
 20
168.75276127842199
 11
117.23084678546604
 21
170.24374333408605
  0
LINE
  8
_0-1_
  6
PHANTOM1
 62
  152
 10
118.32527198688206
 20
171.09997502353917
 11
117.50723686114964
 21
170.69095746067296
  0
LINE
  8
_0-1_
  6
PHANTOM1
 62
  152
 10
118.5488780965012
 20
171.15276089695226
 11
120.33084525958714
 21
171.15276089695226
  0
LINE
  8
_0-1_
  6
PHANTOM1
 62
  152
 10
105.93084564105686
 20
193.97079530742894
 11
105.93084564105686
 21
195.75276127842199
  0
LINE
  8
_0-1_
  6
PHANTOM1
 62
  152
 10
105.98363151446995
 20
193.74718848255407
 11
106.39264907733616
 21
192.92915454891454
  0
LINE
  8
_0-1_
  6
PHANTOM1
 62
  152
 10
108.33084525958714
 20
192.65276137378942
 11
106.83986320392307
 21
192.65276137378942
  0
LINE
  8
_0-1_
  6
PHANTOM1
 62
  152
 10
93.330845259587136
 20
192.65276137378942
 11
94.821828268925515
 21
192.65276137378942
  0
LINE
  8
_0-1_
  6
PHANTOM1
 62
  152
 10
95.678059004704323
 20
193.74718848255407
 11
95.269041441838112
 21
192.92915454891454
  0
LINE
  8
_0-1_
  6
PHANTOM1
 62
  152
 10
84.430845164219704
 20
168.75276127842199
 11
84.430845164219704
 21
170.24374333408605
  0
LINE
  8
_0-1_
  6
PHANTOM1
 62
  152
 10
84.430845164219704
 20
183.75276127842199
 11
84.430845164219704
 21
182.26177826908361
  0
LINE
  8
_0-1_
  6
PHANTOM1
 62
  152
 10
83.336418055455056
 20
181.4055475333048
 11
84.154451989094582
 21
181.81456509617101
  0
LINE
  8
_0-1_
  6
PHANTOM1
 62
  152
 10
83.112811230580178
 20
181.35276165989171
 11
81.330845259587136
 21
181.35276165989171
  0
LINE
  8
_0-1_
  6
PHANTOM1
 62
  152
 10
83.336418055455056
 20
171.09997502353917
 11
84.154451989094582
 21
170.69095746067296
  0
LINE
  8
_0-1_
  6
PHANTOM1
 62
  152
 10
83.112811230580178
 20
171.15276089695226
 11
81.330845259587136
 21
171.15276089695226
  0
LINE
  8
_0-1_
  6
PHANTOM1
 62
  152
 10
95.230844878117409
 20
156.25276127842199
 11
82.330845259587136
 21
156.25276127842199
  0
LINE
  8
_0-1_
  6
PHANTOM1
 62
  152
 10
106.43084564105686
 20
156.25276127842199
 11
119.33084525958714
 21
156.25276127842199
  0
LINE
  8
_0-1_
  6
PHANTOM1
 62
  152
 10
120.83084525958714
 20
170.65276089695226
 11
120.83084525958714
 21
157.75276127842199
  0
LINE
  8
_0-1_
  6
PHANTOM1
 62
  152
 10
120.83084525958714
 20
181.85276165989171
 11
120.83084525958714
 21
194.75276127842199
  0
LINE
  8
_0-1_
  6
PHANTOM1
 62
  152
 10
106.43084564105686
 20
196.25276127842199
 11
119.33084525958714
 21
196.25276127842199
  0
LINE
  8
_0-1_
  6
PHANTOM1
 62
  152
 10
95.230844878117409
 20
196.25276127842199
 11
82.330845259587136
 21
196.25276127842199
  0
LINE
  8
_0-1_
  6
PHANTOM1
 62
  152
 10
80.830845259587136
 20
181.85276165989171
 11
80.830845259587136
 21
194.75276127842199
  0
LINE
  8
_0-1_
  6
PHANTOM1
 62
  152
 10
80.830845259587136
 20
170.65276089695226
 11
80.830845259587136
 21
157.75276127842199
  0
LINE
  8
_0-1_
  6
CENTER2
 62
  152
 10
105.8308153283607
 20
176.25276120964747
 11
95.830865328360574
 21
176.25276120964747
  0
LINE
  8
_0-1_
  6
CONTINUOUS
 62
  152
 10
104.0308453283609
 20
186.25276120964747
 11
104.0308453283609
 21
189.65276120964711
  0
LINE
  8
_0-1_
  6
CONTINUOUS
 62
  152
 10
101.5308453283609
 20
186.75276120964702
 11
104.53084532836067
 21
186.75276120964702
  0
LINE
  8
_0-1_
  6
CONTINUOUS
 62
  152
 10
102.03084532836067
 20
189.65276120964711
 11
102.03084532836067
 21
186.25276120964747
  0
LINE
  8
_0-1_
  6
CENTER2
 62
  152
 10
100.83084532836062
 20
171.25274120964752
 11
100.83084532836062
 21
181.25273120964732
  0
LINE
  8
_0-1_
  6
PHANTOM1
 62
  152
 10
20.830845259587136
 20
169.9598688223673
 11
20.830845259587136
 21
182.54565468815099
  0
LINE
  8
_0-1_
  6
PHANTOM1
 62
  152
 10
40.830845259587136
 20
169.9598688223673
 11
40.830845259587136
 21
182.54565468815099
  0
ARC
  8
_0-1_
  6
PHANTOM1
 62
  152
 10
19.12373866931614
 20
183.75276127842199
 40
0.5
 50
45.00000000000005
 51
90.000000000000057
  0
ARC
  8
_0-1_
  6
PHANTOM1
 62
  152
 10
20.330845259587136
 20
182.54565468815099
 40
0.5
 50
0
 51
45
  0
ARC
  8
_0-1_
  6
PHANTOM1
 62
  152
 10
20.330845259587136
 20
169.9598688223673
 40
0.5
 50
315
 51
0
  0
ARC
  8
_0-1_
  6
PHANTOM1
 62
  152
 10
19.12373866931614
 20
168.75276127842199
 40
0.5
 50
270
 51
315
  0
ARC
  8
_0-1_
  6
PHANTOM1
 62
  152
 10
23.330845259587136
 20
187.95986786869298
 40
0.5
 50
180
 51
225
  0
ARC
  8
_0-1_
  6
PHANTOM1
 62
  152
 10
24.537951849858132
 20
186.75276127842199
 40
0.5
 50
225
 51
270
  0
ARC
  8
_0-1_
  6
PHANTOM1
 62
  152
 10
37.123737715641823
 20
186.75276127842199
 40
0.5
 50
270
 51
315
  0
ARC
  8
_0-1_
  6
PHANTOM1
 62
  152
 10
38.330845259587136
 20
187.95986786869298
 40
0.5
 50
315
 51
0
  0
ARC
  8
_0-1_
  6
PHANTOM1
 62
  152
 10
42.537952803532448
 20
183.75276127842199
 40
0.5
 50
90
 51
135
  0
ARC
  8
_0-1_
  6
PHANTOM1
 62
  152
 10
41.330845259587136
 20
182.54565468815099
 40
0.5
 50
135
 51
180
  0
ARC
  8
_0-1_
  6
PHANTOM1
 62
  152
 10
41.330845259587136
 20
169.9598688223673
 40
0.5
 50
180
 51
224.99998474121097
  0
ARC
  8
_0-1_
  6
PHANTOM1
 62
  152
 10
42.537952803532448
 20
168.75276127842199
 40
0.5
 50
225
 51
270
  0
ARC
  8
_0-1_
  6
PHANTOM1
 62
  152
 10
38.330845259587136
 20
164.54565373447667
 40
0.5
 50
0
 51
45
  0
ARC
  8
_0-1_
  6
PHANTOM1
 62
  152
 10
37.123737715641823
 20
165.75276127842199
 40
0.5
 50
45.00000000000005
 51
90.000000000000057
  0
ARC
  8
_0-1_
  6
PHANTOM1
 62
  152
 10
24.537951849858132
 20
165.75276127842199
 40
0.5
 50
90
 51
135
  0
ARC
  8
_0-1_
  6
PHANTOM1
 62
  152
 10
23.330845259587136
 20
164.54565373447667
 40
0.5
 50
135
 51
180
  0
ARC
  8
_0-1_
  6
PHANTOM1
 62
  152
 10
36.430845641056862
 20
158.53472844150792
 40
0.5
 50
153.43493652343753
 51
180.00000000000003
  0
ARC
  8
_0-1_
  6
PHANTOM1
 62
  152
 10
38.330845259587136
 20
160.35275975254308
 40
0.5
 50
270
 51
0
  0
ARC
  8
_0-1_
  6
PHANTOM1
 62
  152
 10
23.330845259587136
 20
160.35275975254308
 40
0.5
 50
180
 51
270
  0
ARC
  8
_0-1_
  6
PHANTOM1
 62
  152
 10
25.230844878117409
 20
158.53472844150792
 40
0.5
 50
359.99998474121088
 51
26.565048217773398
  0
ARC
  8
_0-1_
  6
PHANTOM1
 62
  152
 10
48.548878096501198
 20
181.85276165989171
 40
0.5
 50
243.43493652343753
 51
270
  0
ARC
  8
_0-1_
  6
PHANTOM1
 62
  152
 10
46.730846785466042
 20
183.75276127842199
 40
0.5
 50
0
 51
90
  0
ARC
  8
_0-1_
  6
PHANTOM1
 62
  152
 10
46.730846785466042
 20
168.75276127842199
 40
0.5
 50
270
 51
0
  0
ARC
  8
_0-1_
  6
PHANTOM1
 62
  152
 10
48.548878096501198
 20
170.65276089695226
 40
0.5
 50
90
 51
116.56504821777344
  0
ARC
  8
_0-1_
  6
PHANTOM1
 62
  152
 10
36.430845641056862
 20
193.97079530742894
 40
0.5
 50
180
 51
206.56504821777344
  0
ARC
  8
_0-1_
  6
PHANTOM1
 62
  152
 10
38.330845259587136
 20
192.15276137378942
 40
0.5
 50
0
 51
90
  0
ARC
  8
_0-1_
  6
PHANTOM1
 62
  152
 10
23.330845259587136
 20
192.15276137378942
 40
0.5
 50
90
 51
180
  0
ARC
  8
_0-1_
  6
PHANTOM1
 62
  152
 10
25.230844878117409
 20
193.97079530742894
 40
0.5
 50
333.4349365234375
 51
0.000000000000019
  0
ARC
  8
_0-1_
  6
PHANTOM1
 62
  152
 10
14.930845164219704
 20
168.75276127842199
 40
0.5
 50
180
 51
270
  0
ARC
  8
_0-1_
  6
PHANTOM1
 62
  152
 10
14.930845164219704
 20
183.75276127842199
 40
0.5
 50
90
 51
180
  0
ARC
  8
_0-1_
  6
PHANTOM1
 62
  152
 10
13.112811230580178
 20
181.85276165989171
 40
0.5
 50
270
 51
296.56504821777344
  0
ARC
  8
_0-1_
  6
PHANTOM1
 62
  152
 10
13.112811230580178
 20
170.65276089695226
 40
0.5
 50
63.434936523437521
 51
90.000000000000028
  0
ARC
  8
_0-1_
  6
PHANTOM1
 62
  152
 10
25.230844878117409
 20
156.75276127842199
 40
0.5
 50
270
 51
359.99998474121094
  0
ARC
  8
_0-1_
  6
PHANTOM1
 62
  152
 10
36.430845641056862
 20
156.75276127842199
 40
0.5
 50
180
 51
270
  0
ARC
  8
_0-1_
  6
PHANTOM1
 62
  152
 10
50.330845259587136
 20
170.65276089695226
 40
0.5
 50
0
 51
90
  0
ARC
  8
_0-1_
  6
PHANTOM1
 62
  152
 10
50.330845259587136
 20
181.85276165989171
 40
0.5
 50
270
 51
0
  0
ARC
  8
_0-1_
  6
PHANTOM1
 62
  152
 10
36.430845641056862
 20
195.75276127842199
 40
0.5
 50
90
 51
180
  0
ARC
  8
_0-1_
  6
PHANTOM1
 62
  152
 10
25.230844878117409
 20
195.75276127842199
 40
0.5
 50
0
 51
90
  0
ARC
  8
_0-1_
  6
PHANTOM1
 62
  152
 10
11.330845259587136
 20
181.85276165989171
 40
0.5
 50
180
 51
270
  0
ARC
  8
_0-1_
  6
PHANTOM1
 62
  152
 10
11.330845259587136
 20
170.65276089695226
 40
0.5
 50
90
 51
180
  0
ARC
  8
_0-1_
  6
PHANTOM1
 62
  152
 10
49.330845259587136
 20
157.75276127842199
 40
1.5
 50
270
 51
0
  0
ARC
  8
_0-1_
  6
PHANTOM1
 62
  152
 10
49.330845259587136
 20
194.75276127842199
 40
1.5
 50
0
 51
90
  0
ARC
  8
_0-1_
  6
PHANTOM1
 62
  152
 10
12.330845259587136
 20
194.75276127842199
 40
1.5
 50
90
 51
180
  0
ARC
  8
_0-1_
  6
PHANTOM1
 62
  152
 10
12.330845259587136
 20
157.75276127842199
 40
1.5
 50
180
 51
270
  0
ARC
  8
_0-1_
  6
PHANTOM1
 62
  152
 10
13.930845164219704
 20
182.26177826908361
 40
0.5
 50
296.56504821777344
 51
0
  0
ARC
  8
_0-1_
  6
PHANTOM1
 62
  152
 10
13.930845164219704
 20
170.24374333408605
 40
0.5
 50
0
 51
63.434936523437493
  0
ARC
  8
_0-1_
  6
PHANTOM1
 62
  152
 10
47.730846785466042
 20
170.24374333408605
 40
0.5
 50
116.56504821777345
 51
180.00000000000003
  0
ARC
  8
_0-1_
  6
PHANTOM1
 62
  152
 10
47.730846785466042
 20
182.26177826908361
 40
0.5
 50
180
 51
243.43493652343753
  0
ARC
  8
_0-1_
  6
PHANTOM1
 62
  152
 10
24.821828268925515
 20
159.35275975254308
 40
0.5
 50
26.56504821777343
 51
90
  0
ARC
  8
_0-1_
  6
PHANTOM1
 62
  152
 10
36.839863203923073
 20
159.35275975254308
 40
0.5
 50
90
 51
153.43493652343753
  0
ARC
  8
_0-1_
  6
PHANTOM1
 62
  152
 10
36.839863203923073
 20
193.15276137378942
 40
0.5
 50
206.56504821777344
 51
270
  0
ARC
  8
_0-1_
  6
PHANTOM1
 62
  152
 10
24.821828268925515
 20
193.15276137378942
 40
0.5
 50
270
 51
333.4349365234375
  0
LINE
  8
_0-1_
  6
PHANTOM1
 62
  152
 10
19.12373866931614
 20
184.25276127842199
 11
14.930845164219704
 21
184.25276127842199
  0
LINE
  8
_0-1_
  6
PHANTOM1
 62
  152
 10
19.47729148761448
 20
184.10631505039464
 11
20.684399031559792
 21
182.89920750644933
  0
LINE
  8
_0-1_
  6
PHANTOM1
 62
  152
 10
20.684399031559792
 20
169.60631505039464
 11
19.47729148761448
 21
168.39920750644933
  0
LINE
  8
_0-1_
  6
PHANTOM1
 62
  152
 10
19.12373866931614
 20
168.25276127842199
 11
14.930845164219704
 21
168.25276127842199
  0
LINE
  8
_0-1_
  6
PHANTOM1
 62
  152
 10
22.830845259587136
 20
187.95986786869298
 11
22.830845259587136
 21
192.15276137378942
  0
LINE
  8
_0-1_
  6
PHANTOM1
 62
  152
 10
22.97729148761448
 20
187.60631505039464
 11
24.184399031559792
 21
186.39920750644933
  0
LINE
  8
_0-1_
  6
PHANTOM1
 62
  152
 10
24.537951849858132
 20
186.25276127842199
 11
37.123737715641823
 21
186.25276127842199
  0
LINE
  8
_0-1_
  6
PHANTOM1
 62
  152
 10
37.47729148761448
 20
186.39920750644933
 11
38.684399031559792
 21
187.60631505039464
  0
LINE
  8
_0-1_
  6
PHANTOM1
 62
  152
 10
38.830845259587136
 20
187.95986786869298
 11
38.830845259587136
 21
192.15276137378942
  0
LINE
  8
_0-1_
  6
PHANTOM1
 62
  152
 10
42.537952803532448
 20
184.25276127842199
 11
46.730846785466042
 21
184.25276127842199
  0
LINE
  8
_0-1_
  6
PHANTOM1
 62
  152
 10
42.184399031559792
 20
184.10631505039464
 11
40.97729148761448
 21
182.89920750644933
  0
LINE
  8
_0-1_
  6
PHANTOM1
 62
  152
 10
40.97729148761448
 20
169.60631505039464
 11
42.184399031559792
 21
168.39920750644933
  0
LINE
  8
_0-1_
  6
PHANTOM1
 62
  152
 10
42.537952803532448
 20
168.25276127842199
 11
46.730846785466042
 21
168.25276127842199
  0
LINE
  8
_0-1_
  6
PHANTOM1
 62
  152
 10
38.830845259587136
 20
164.54565373447667
 11
38.830845259587136
 21
160.35275975254308
  0
LINE
  8
_0-1_
  6
PHANTOM1
 62
  152
 10
38.684399031559792
 20
164.89920750644933
 11
37.47729148761448
 21
166.10631505039464
  0
LINE
  8
_0-1_
  6
PHANTOM1
 62
  152
 10
37.123737715641823
 20
166.25276127842199
 11
24.537951849858132
 21
166.25276127842199
  0
LINE
  8
_0-1_
  6
PHANTOM1
 62
  152
 10
24.184399031559792
 20
166.10631505039464
 11
22.97729148761448
 21
164.89920750644933
  0
LINE
  8
_0-1_
  6
PHANTOM1
 62
  152
 10
22.830845259587136
 20
164.54565373447667
 11
22.830845259587136
 21
160.35275975254308
  0
LINE
  8
_0-1_
  6
PHANTOM1
 62
  152
 10
35.930845641056862
 20
158.53472844150792
 11
35.930845641056862
 21
156.75276127842199
  0
LINE
  8
_0-1_
  6
PHANTOM1
 62
  152
 10
35.983631514469948
 20
158.75833455112706
 11
36.392649077336159
 21
159.57636967685949
  0
LINE
  8
_0-1_
  6
PHANTOM1
 62
  152
 10
38.330845259587136
 20
159.85275975254308
 11
36.839863203923073
 21
159.85275975254308
  0
LINE
  8
_0-1_
  6
PHANTOM1
 62
  152
 10
23.330845259587136
 20
159.85275975254308
 11
24.821828268925515
 21
159.85275975254308
  0
LINE
  8
_0-1_
  6
PHANTOM1
 62
  152
 10
25.678059004704323
 20
158.75833455112706
 11
25.269041441838112
 21
159.57636967685949
  0
LINE
  8
_0-1_
  6
PHANTOM1
 62
  152
 10
25.730844878117409
 20
158.53472844150792
 11
25.730844878117409
 21
156.75276127842199
  0
LINE
  8
_0-1_
  6
PHANTOM1
 62
  152
 10
48.548878096501198
 20
181.35276165989171
 11
50.330845259587136
 21
181.35276165989171
  0
LINE
  8
_0-1_
  6
PHANTOM1
 62
  152
 10
48.325271986882058
 20
181.4055475333048
 11
47.507236861149636
 21
181.81456509617101
  0
LINE
  8
_0-1_
  6
PHANTOM1
 62
  152
 10
47.230846785466042
 20
183.75276127842199
 11
47.230846785466042
 21
182.26177826908361
  0
LINE
  8
_0-1_
  6
PHANTOM1
 62
  152
 10
47.230846785466042
 20
168.75276127842199
 11
47.230846785466042
 21
170.24374333408605
  0
LINE
  8
_0-1_
  6
PHANTOM1
 62
  152
 10
48.325271986882058
 20
171.09997502353917
 11
47.507236861149636
 21
170.69095746067296
  0
LINE
  8
_0-1_
  6
PHANTOM1
 62
  152
 10
48.548878096501198
 20
171.15276089695226
 11
50.330845259587136
 21
171.15276089695226
  0
LINE
  8
_0-1_
  6
PHANTOM1
 62
  152
 10
35.930845641056862
 20
193.97079530742894
 11
35.930845641056862
 21
195.75276127842199
  0
LINE
  8
_0-1_
  6
PHANTOM1
 62
  152
 10
35.983631514469948
 20
193.74718848255407
 11
36.392649077336159
 21
192.92915454891454
  0
LINE
  8
_0-1_
  6
PHANTOM1
 62
  152
 10
38.330845259587136
 20
192.65276137378942
 11
36.839863203923073
 21
192.65276137378942
  0
LINE
  8
_0-1_
  6
PHANTOM1
 62
  152
 10
23.330845259587136
 20
192.65276137378942
 11
24.821828268925515
 21
192.65276137378942
  0
LINE
  8
_0-1_
  6
PHANTOM1
 62
  152
 10
25.678059004704323
 20
193.74718848255407
 11
25.269041441838112
 21
192.92915454891454
  0
LINE
  8
_0-1_
  6
PHANTOM1
 62
  152
 10
14.430845164219704
 20
168.75276127842199
 11
14.430845164219704
 21
170.24374333408605
  0
LINE
  8
_0-1_
  6
PHANTOM1
 62
  152
 10
14.430845164219704
 20
183.75276127842199
 11
14.430845164219704
 21
182.26177826908361
  0
LINE
  8
_0-1_
  6
PHANTOM1
 62
  152
 10
13.336418055455056
 20
181.4055475333048
 11
14.154451989094582
 21
181.81456509617101
  0
LINE
  8
_0-1_
  6
PHANTOM1
 62
  152
 10
13.112811230580178
 20
181.35276165989171
 11
11.330845259587136
 21
181.35276165989171
  0
LINE
  8
_0-1_
  6
PHANTOM1
 62
  152
 10
13.336418055455056
 20
171.09997502353917
 11
14.154451989094582
 21
170.69095746067296
  0
LINE
  8
_0-1_
  6
PHANTOM1
 62
  152
 10
13.112811230580178
 20
171.15276089695226
 11
11.330845259587136
 21
171.15276089695226
  0
LINE
  8
_0-1_
  6
PHANTOM1
 62
  152
 10
25.230844878117409
 20
156.25276127842199
 11
12.330845259587136
 21
156.25276127842199
  0
LINE
  8
_0-1_
  6
PHANTOM1
 62
  152
 10
36.430845641056862
 20
156.25276127842199
 11
49.330845259587136
 21
156.25276127842199
  0
LINE
  8
_0-1_
  6
PHANTOM1
 62
  152
 10
50.830845259587136
 20
170.65276089695226
 11
50.830845259587136
 21
157.75276127842199
  0
LINE
  8
_0-1_
  6
PHANTOM1
 62
  152
 10
50.830845259587136
 20
181.85276165989171
 11
50.830845259587136
 21
194.75276127842199
  0
LINE
  8
_0-1_
  6
PHANTOM1
 62
  152
 10
36.430845641056862
 20
196.25276127842199
 11
49.330845259587136
 21
196.25276127842199
  0
LINE
  8
_0-1_
  6
PHANTOM1
 62
  152
 10
25.230844878117409
 20
196.25276127842199
 11
12.330845259587136
 21
196.25276127842199
  0
LINE
  8
_0-1_
  6
PHANTOM1
 62
  152
 10
10.830845259587136
 20
181.85276165989171
 11
10.830845259587136
 21
194.75276127842199
  0
LINE
  8
_0-1_
  6
PHANTOM1
 62
  152
 10
10.830845259587136
 20
170.65276089695226
 11
10.830845259587136
 21
157.75276127842199
  0
LINE
  8
_0-1_
  6
CENTER2
 62
  152
 10
35.8308153283607
 20
176.25276120964747
 11
25.830865328360574
 21
176.25276120964747
  0
LINE
  8
_0-1_
  6
CENTER2
 62
  152
 10
30.830845328360624
 20
171.25274120964752
 11
30.830845328360624
 21
181.25273120964732
  0
LINE
  8
_0-1_
  6
CENTER2
 62
  152
 10
24.91999688649139
 20
84.729342603153839
 11
31.980959977745215
 21
84.729342603153839
  0
LINE
  8
_0-1_
  6
CENTER2
 62
  152
 10
28.619352680296174
 20
88.164416664186092
 11
28.619352680296174
 21
81.364970724460136
  0
LINE
  8
_0-1_
  6
CENTER2
 62
  152
 10
77.999158049775701
 20
87.029342603153566
 11
77.999158049775701
 21
79.729342603153839
  0
LINE
  8
_0-1_
  6
CENTER2
 62
  152
 10
68.499158049775701
 20
84.729342603153839
 11
187.4991580497757
 21
84.729342603153839
  0
LINE
  8
_0-1_
  6
CENTER2
 62
  152
 10
177.9991580497757
 20
87.029342603153566
 11
177.9991580497757
 21
79.729342603153839
  0
TEXT
  8
_0-1_
 62
    7
 10
68.765214889514709
 20
91.259031211631338
 40
5
 41
1
 50
0
  1
R05N-L120
  0
TEXT
  8
_0-1_
 62
    7
 10
18.885409520035068
 20
91.259031211631338
 40
5
 41
1
 50
0
  1
NW40
  0
LINE
  8
_0-1_
  6
CENTER2
 62
  152
 10
231.01781667166995
 20
81.929372603153809
 11
231.01781667166995
 21
91.929322603154162
  0
LINE
  8
_0-1_
  6
CENTER2
 62
  152
 10
226.0178466716701
 20
86.929342603154112
 11
236.0178366716699
 21
86.929342603154112
  0
LINE
  8
_0-1_
  6
CENTER2
 62
  152
 10
77.999158049775701
 20
50.182536510205921
 11
77.999158049775701
 21
42.882536510206194
  0
LINE
  8
_0-1_
  6
CENTER2
 62
  152
 10
68.499158049775701
 20
47.882536510206194
 11
187.4991580497757
 21
47.882536510206194
  0
LINE
  8
_0-1_
  6
CENTER2
 62
  152
 10
177.9991580497757
 20
50.182536510205921
 11
177.9991580497757
 21
42.882536510206194
  0
LINE
  8
_0-1_
  6
CENTER2
 62
  152
 10
231.01781667166995
 20
45.082566510206163
 11
231.01781667166995
 21
55.082516510206517
  0
LINE
  8
_0-1_
  6
CENTER2
 62
  152
 10
226.0178466716701
 20
50.082536510206467
 11
236.0178366716699
 21
50.082536510206467
  0
LINE
  8
_0-1_
  6
CENTER2
 62
  152
 10
77.999158049775701
 20
13.335730417258276
 11
77.999158049775701
 21
6.0357304172585486
  0
LINE
  8
_0-1_
  6
CENTER2
 62
  152
 10
68.499158049775701
 20
11.035730417258549
 11
187.4991580497757
 21
11.035730417258549
  0
LINE
  8
_0-1_
  6
CENTER2
 62
  152
 10
177.9991580497757
 20
13.335730417258276
 11
177.9991580497757
 21
6.0357304172585486
  0
LINE
  8
_0-1_
  6
CENTER2
 62
  152
 10
231.01781667166995
 20
8.2357604172585184
 11
231.01781667166995
 21
18.235710417258872
  0
LINE
  8
_0-1_
  6
CENTER2
 62
  152
 10
226.0178466716701
 20
13.235730417258821
 11
236.0178366716699
 21
13.235730417258821
  0
TEXT
  8
_0-1_
 62
    7
 10
68.765214889514709
 20
54.412225118683693
 40
5
 41
1
 50
0
  1
RS2N-L120
  0
TEXT
  8
_0-1_
 62
    7
 10
68.765214889514709
 20
17.565419025736048
 40
5
 41
1
 50
0
  1
RS3N-L120
  0
CIRCLE
  8
_0-0_
  6
CONTINUOUS
 62
  152
 10
28.619352680296174
 20
84.729342603153839
 40
1.5
  0
CIRCLE
  8
_0-0_
  6
CONTINUOUS
 62
  152
 10
77.999158049775701
 20
84.729342603153839
 40
1.5
  0
CIRCLE
  8
_0-0_
  6
CONTINUOUS
 62
  152
 10
177.9991580497757
 20
84.729342603153839
 40
1.5
  0
CIRCLE
  8
_0-0_
  6
CONTINUOUS
 62
  152
 10
177.9991580497757
 20
47.882536510206194
 40
1.5
  0
CIRCLE
  8
_0-0_
  6
CONTINUOUS
 62
  152
 10
177.9991580497757
 20
11.035730417258549
 40
1.5
  0
CIRCLE
  8
_0-0_
  6
CONTINUOUS
 62
  152
 10
77.999158049775701
 20
11.035730417258549
 40
1.5
  0
CIRCLE
  8
_0-0_
  6
CONTINUOUS
 62
  152
 10
77.999158049775701
 20
47.882536510206194
 40
1.5
  0
LINE
  8
_0-0_
  6
DASHED2
 62
  152
 10
211.81781667167036
 20
83.229342603153839
 11
217.61781667167031
 21
83.229342603153839
  0
LINE
  8
_0-0_
  6
DASHED2
 62
    7
 10
217.61781667167031
 20
83.429342650837555
 11
211.81781667167036
 21
83.429342650837555
  0
LINE
  8
_0-0_
  6
DASHED2
 62
    7
 10
211.81781667167036
 20
86.029342555470123
 11
217.61781667167031
 21
86.029342555470123
  0
LINE
  8
_0-0_
  6
DASHED2
 62
  152
 10
217.61781667167031
 20
86.229342603153839
 11
211.81781667167036
 21
86.229342603153839
  0
LINE
  8
_0-0_
  6
DASHED2
 62
  152
 10
211.81781667167036
 20
46.382536510206194
 11
217.61781667167031
 21
46.382536510206194
  0
LINE
  8
_0-0_
  6
DASHED2
 62
    7
 10
217.61781667167031
 20
46.58253655788991
 11
211.81781667167036
 21
46.58253655788991
  0
LINE
  8
_0-0_
  6
DASHED2
 62
    7
 10
211.81781667167036
 20
49.182536462522478
 11
217.61781667167031
 21
49.182536462522478
  0
LINE
  8
_0-0_
  6
DASHED2
 62
  152
 10
217.61781667167031
 20
49.382536510206194
 11
211.81781667167036
 21
49.382536510206194
  0
LINE
  8
_0-0_
  6
DASHED2
 62
  152
 10
211.81781667167036
 20
9.5357304172585486
 11
217.61781667167031
 21
9.5357304172585486
  0
LINE
  8
_0-0_
  6
DASHED2
 62
    7
 10
217.61781667167031
 20
9.7357304649422645
 11
211.81781667167036
 21
9.7357304649422645
  0
LINE
  8
_0-0_
  6
DASHED2
 62
  152
 10
211.81781667167036
 20
12.335730369574833
 11
217.61781667167031
 21
12.335730369574833
  0
LINE
  8
_0-0_
  6
DASHED2
 62
    7
 10
217.61781667167031
 20
12.535730417258549
 11
211.81781667167036
 21
12.535730417258549
  0
ENDSEC
  0
EOF
