  0
SECTION
  2
HEADER
  9
$ACADVER
  1
AC1009
  9
$INSBASE
 10
0
 20
0
 30
0
  9
$EXTMIN
 10
0
 20
0
  9
$EXTMAX
 10
1189
 20
841
  9
$LIMMIN
 10
0
 20
0
  9
$LIMMAX
 10
1189
 20
841
  9
$LTSCALE
 40
1
  0
ENDSEC
  0
SECTION
  2
TABLES
  0
TABLE
  2
LTYPE
 70
     9
  0
LTYPE
  2
CONTINUOUS
 70
    64
  3
実線
 72
    65
 73
     0
 40
0.0
  0
LTYPE
  2
DASHED1
 70
    64
  3
--  --  --  --  --  --  --  --  
 72
    65
 73
     2
 40
2.5
 49
1.25
 49
-1.25
  0
LTYPE
  2
DASHED2
 70
    64
  3
----    ----    ----    ----    
 72
    65
 73
     2
 40
5.0
 49
2.5
 49
-2.5
  0
LTYPE
  2
DASHED3
 70
    64
  3
------  ------  ------  ------  
 72
    65
 73
     2
 40
5.0
 49
3.75
 49
-1.25
  0
LTYPE
  2
CENTER1
 70
    64
  3
----- - ----- - ----- - ----- - 
 72
    65
 73
     4
 40
10.0
 49
6.25
 49
-1.25
 49
1.25
 49
-1.25
  0
LTYPE
  2
CENTER2
 70
    64
  3
----------  --  ----------  --  
 72
    65
 73
     4
 40
20.0
 49
12.5
 49
-2.5
 49
2.5
 49
-2.5
  0
LTYPE
  2
PHANTOM1
 70
    64
  3
--- - - --- - - --- - - --- - - 
 72
    65
 73
     6
 40
10.0
 49
3.25
 49
-1.25
 49
1.25
 49
-1.25
 49
1.25
 49
-1.25
  0
LTYPE
  2
PHANTOM2
 70
    64
  3
--------  -  -  --------  -  -  
 72
    65
 73
     6
 40
20.0
 49
10.0
 49
-2.5
 49
1.25
 49
-2.5
 49
1.25
 49
-2.5
  0
LTYPE
  2
DOT
 70
    64
  3
-   -   -   -   -   -   -   -   
 72
    65
 73
     2
 40
2.5
 49
0.625
 49
-1.875
  0
LTYPE
  2
DUMMY
 70
    64
  3
ダミー
 72
    65
 73
     0
 40
0.0
  0
LTYPE
  2
RAND1
 70
    64
  3
ランダム線1
 72
    65
 73
     4
 40
10.0
 49
1.0
 49
-2.0
 49
3.0
 49
-4.0
  0
LTYPE
  2
RAND2
 70
    64
  3
ランダム線2
 72
    65
 73
     4
 40
14.0
 49
2.0
 49
-3.0
 49
4.0
 49
-5.0
  0
LTYPE
  2
RAND3
 70
    64
  3
ランダム線3
 72
    65
 73
     4
 40
18.0
 49
3.0
 49
-4.0
 49
5.0
 49
-6.0
  0
LTYPE
  2
RAND4
 70
    64
  3
ランダム線4
 72
    65
 73
     4
 40
22.0
 49
4.0
 49
-5.0
 49
6.0
 49
-7.0
  0
LTYPE
  2
RAND5
 70
    64
  3
ランダム線5
 72
    65
 73
     4
 40
26.0
 49
5.0
 49
-6.0
 49
7.0
 49
-8.0
  0
LTYPE
  2
LONG1
 70
    64
  3
----------  --  ----------  --  
 72
    65
 73
     4
 40
40.0
 49
32.5
 49
-2.5
 49
2.5
 49
-2.5
  0
LTYPE
  2
LONG2
 70
    64
  3
--------  -  -  --------  -  -  
 72
    65
 73
     6
 40
40.0
 49
30.0
 49
-2.5
 49
1.25
 49
-2.5
 49
1.25
 49
-2.5
  0
LTYPE
  2
LONG3
 70
    64
  3
+++++++++++++++..+++++++++++++++
 72
    65
 73
     2
 40
40.0
 49
37.5
 49
-2.5
  0
LTYPE
  2
LONG4
 70
    64
  3
+++++++++++++++..+++++++++++++++
 72
    65
 73
     2
 40
80.0
 49
75.0
 49
-5.0
  0
LTYPE
  2
LONG5
 70
    64
  3
----------  --  ----------  --  
 72
    65
 73
     4
 40
60.0
 49
37.5
 49
-7.5
 49
7.5
 49
-7.5
  0
LTYPE
  2
dashed
 70
   64
  3
-------   -------------   ------
 72
   65
 73
    2
 40
7.5
 49
6
 49
-1.5
  0
LTYPE
  2
dashed_spaced
 70
   64
  3
----        --------        ----
 72
   65
 73
    2
 40
12
 49
6
 49
-6
  0
LTYPE
  2
long_dashed_dotted
 70
   64
  3
------------- --- --------------
 72
   65
 73
    4
 40
15.25
 49
12
 49
-1.5
 49
0.25
 49
-1.5
  0
LTYPE
  2
long_dashed_double-dotted
 70
   64
  3
----------- --- --- ------------
 72
   65
 73
    6
 40
17
 49
12
 49
-1.5
 49
0.25
 49
-1.5
 49
0.25
 49
-1.5
  0
LTYPE
  2
long_dashed_triplicate-dotted
 70
   64
  3
--------- --- --- --- ----------
 72
   65
 73
    8
 40
18.75
 49
12
 49
-1.5
 49
0.25
 49
-1.5
 49
0.25
 49
-1.5
 49
0.25
 49
-1.5
  0
LTYPE
  2
dotted
 70
   64
  3
   -       -       -       -    
 72
   65
 73
    2
 40
1.75
 49
0.25
 49
-1.5
  0
LTYPE
  2
chain
 70
   64
  3
-------------- -- --------------
 72
   65
 73
    4
 40
18.5
 49
12
 49
-1.5
 49
3.5
 49
-1.5
  0
LTYPE
  2
chain_double_dash
 70
   64
  3
------------ -- -- -------------
 72
   65
 73
    6
 40
23.5
 49
12
 49
-1.5
 49
3.5
 49
-1.5
 49
3.5
 49
-1.5
  0
LTYPE
  2
dashed_dotted
 70
   64
  3
-----------     -     ----------
 72
   65
 73
    4
 40
9.25
 49
6
 49
-1.5
 49
0.25
 49
-1.5
  0
LTYPE
  2
double-dashed_dotted
 70
   64
  3
------   -----------   -   -----
 72
   65
 73
    6
 40
16.75
 49
6
 49
-1.5
 49
6
 49
-1.5
 49
0.25
 49
-1.5
  0
LTYPE
  2
dashed_double-dotted
 70
   64
  3
---------    -    -    ---------
 72
   65
 73
    6
 40
11
 49
6
 49
-1.5
 49
0.25
 49
-1.5
 49
0.25
 49
-1.5
  0
LTYPE
  2
double-dashed_double-dotted
 70
   64
  3
-----   ---------   -   -   ----
 72
   65
 73
    8
 40
18.5
 49
6
 49
-1.5
 49
6
 49
-1.5
 49
0.25
 49
-1.5
 49
0.25
 49
-1.5
  0
LTYPE
  2
dashed_triplicate-dotted
 70
   64
  3
-------    -    -    -    ------
 72
   65
 73
    8
 40
12.75
 49
6
 49
-1.5
 49
0.25
 49
-1.5
 49
0.25
 49
-1.5
 49
0.25
 49
-1.5
  0
LTYPE
  2
double-dashed_triplicate-dotted
 70
   64
  3
-----  ---------  -  -  -  -----
 72
   65
 73
   10
 40
20.25
 49
6
 49
-1.5
 49
6
 49
-1.5
 49
0.25
 49
-1.5
 49
0.25
 49
-1.5
 49
0.25
 49
-1.5
  0
LTYPE
  2
undefined
 70
   64
  3
--------------------------------
 72
   65
 73
    0
 40
0
  0
ENDTAB
  0
TABLE
  2
STYLE
  5
3
100
AcDbSymbolTable
 70
     1
  0
STYLE
  5
10
100
AcDbSymbolTableRecord
100
AcDbTextStyleTableRecord
  2
STANDARD
 70
     0
 40
0.0
 41
1.0
 50
0.0
 71
     0
 42
0.2
  3
txt
  4
bigfont.shx
  0
STYLE
  5
26
100
AcDbSymbolTableRecord
100
AcDbTextStyleTableRecord
  2
TATEGAKI
 70
    68
 40
0.0
 41
1.0
 50
0.0
 71
     0
 42
1.0
  3
txt
  4
bigfont.shx
  0
ENDTAB
  0
TABLE
  2
LAYER
 70
    3
  0
LAYER
  2
_0-0_
 70
   64
 62
    7
  6
CONTINUOUS
  0
LAYER
  2
_0-1_
 70
   64
 62
    7
  6
CONTINUOUS
  0
LAYER
  2
ADD_LINE
 70
   64
 62
    7
  6
CONTINUOUS
  0
ENDTAB
  0
ENDSEC
  0
SECTION
  2
BLOCKS
  0
ENDSEC
  0
SECTION
  2
ENTITIES
  0
LINE
  8
_0-0_
  6
CONTINUOUS
 62
    7
 10
45.978653939117294
 20
27.46526263242481
 11
41.685760720303961
 21
27.46526263242481
  0
LINE
  8
_0-0_
  6
CONTINUOUS
 62
    7
 10
41.185760720303961
 20
27.96526263242481
 11
41.185760720303961
 21
32.557271636011819
  0
LINE
  8
_0-0_
  6
CONTINUOUS
 62
    7
 10
41.908859626859112
 20
33.00473881681296
 11
44.462661813749264
 21
31.731460015823131
  0
LINE
  8
_0-0_
  6
CONTINUOUS
 62
    7
 10
45.185760720303961
 20
32.178927196623818
 11
45.185760720303961
 21
46.365262632424901
  0
LINE
  8
_0-0_
  6
CONTINUOUS
 62
    7
 10
45.485760720304143
 20
46.665262632425083
 11
50.142016388541151
 21
46.665262632425083
  0
LINE
  8
_0-0_
  6
CONTINUOUS
 62
    7
 10
50.228840477374661
 20
46.657666508930788
 11
54.77258480913747
 21
45.856481789799773
  0
LINE
  8
_0-0_
  6
CONTINUOUS
 62
    7
 10
55.185760720303961
 20
45.364077913294068
 11
55.185760720303961
 21
45.165262632424628
  0
LINE
  8
_0-0_
  6
CONTINUOUS
 62
    7
 10
54.885760720303779
 20
44.865262632424901
 11
52.885760720303779
 21
44.865262632424901
  0
LINE
  8
_0-0_
  6
CONTINUOUS
 62
    7
 10
52.885760720303779
 20
44.865262632424901
 11
52.685760720303961
 21
45.065262632424719
  0
LINE
  8
_0-0_
  6
CONTINUOUS
 62
    7
 10
52.685760720303961
 20
45.065262632424719
 11
48.185760720303961
 21
45.065262632424719
  0
LINE
  8
_0-0_
  6
CONTINUOUS
 62
    7
 10
47.685760720303961
 20
44.565262632424719
 11
47.685760720303961
 21
35.333891568436911
  0
LINE
  8
_0-0_
  6
CONTINUOUS
 62
    7
 10
48.408859626858657
 20
34.88642438763577
 11
54.751901376371052
 21
38.048948343057646
  0
LINE
  8
_0-0_
  6
CONTINUOUS
 62
    7
 10
55.185760720303961
 20
37.780468034577325
 11
55.185760720303961
 21
36.672369413611477
  0
LINE
  8
_0-0_
  6
CONTINUOUS
 62
    7
 10
55.039314110897294
 20
36.318816023018144
 11
46.332207329710627
 21
27.611709241831477
  0
ARC
  8
_0-0_
  6
CONTINUOUS
 62
    7
 10
44.685760720303961
 20
32.178927196623818
 40
0.5
 50
243.5
 51
0.0000000000001017
  0
ARC
  8
_0-0_
  6
CONTINUOUS
 62
    7
 10
41.685760720303961
 20
32.557271636011819
 40
0.5
 50
63.500000000000021
 51
180.00000000000006
  0
ARC
  8
_0-0_
  6
CONTINUOUS
 62
    7
 10
41.685760720303961
 20
27.96526263242481
 40
0.5
 50
180
 51
270
  0
ARC
  8
_0-0_
  6
CONTINUOUS
 62
    7
 10
48.185760720303961
 20
44.565262632424719
 40
0.5
 50
90
 51
180
  0
ARC
  8
_0-0_
  6
CONTINUOUS
 62
    7
 10
48.185760720303961
 20
35.333891568436911
 40
0.5
 50
180
 51
296.5
  0
ARC
  8
_0-0_
  6
CONTINUOUS
 62
    7
 10
45.978653939117294
 20
27.96526263242481
 40
0.5
 50
270
 51
315
  0
ARC
  8
_0-0_
  6
CONTINUOUS
 62
    7
 10
54.685760720303961
 20
45.364077913294068
 40
0.5
 50
0
 51
80.000000000000028
  0
ARC
  8
_0-0_
  6
CONTINUOUS
 62
    7
 10
50.142016388541151
 20
46.165262632425083
 40
0.5
 50
80.000000000000028
 51
90.000000000000014
  0
ARC
  8
_0-0_
  6
CONTINUOUS
 62
    7
 10
54.685760720303961
 20
36.672369413611477
 40
0.5
 50
314.99999999999994
 51
359.99999999999994
  0
ARC
  8
_0-0_
  6
CONTINUOUS
 62
    7
 10
54.885760720303779
 20
37.780468034577325
 40
0.2999999999999998
 50
0
 51
116.49999999999999
  0
ARC
  8
_0-0_
  6
CONTINUOUS
 62
    7
 10
54.885760720303779
 20
45.165262632424628
 40
0.2999999999999998
 50
270
 51
0
  0
ARC
  8
_0-0_
  6
CONTINUOUS
 62
    7
 10
45.485760720304143
 20
46.365262632424901
 40
0.2999999999999998
 50
90
 51
180
  0
LINE
  8
_0-1_
  6
CENTER2
 62
  152
 10
24.206961101773459
 20
32.466628109649946
 11
24.206961101773459
 21
22.466638109649693
  0
LINE
  8
_0-1_
  6
CENTER2
 62
  152
 10
29.206981101773863
 20
27.466658109649643
 11
19.206931101773762
 21
27.466658109649643
  0
LINE
  8
_0-1_
  6
PHANTOM1
 62
  152
 10
5.1857607203039606
 20
21.86665724817999
 11
5.1857607203039606
 21
8.9666576296497169
  0
LINE
  8
_0-1_
  6
PHANTOM1
 62
  152
 10
5.1857607203039606
 20
33.066658011119443
 11
5.1857607203039606
 21
45.96665762964966
  0
LINE
  8
_0-1_
  6
PHANTOM1
 62
  152
 10
19.585760338834234
 20
47.46665762964966
 11
6.6857607203039606
 21
47.46665762964966
  0
LINE
  8
_0-1_
  6
PHANTOM1
 62
  152
 10
30.785761101773687
 20
47.46665762964966
 11
43.685760720303961
 21
47.46665762964966
  0
LINE
  8
_0-1_
  6
PHANTOM1
 62
  152
 10
45.185760720303961
 20
33.066658011119443
 11
45.185760720303961
 21
45.96665762964966
  0
LINE
  8
_0-1_
  6
PHANTOM1
 62
  152
 10
45.185760720303961
 20
21.86665724817999
 11
45.185760720303961
 21
8.9666576296497169
  0
LINE
  8
_0-1_
  6
PHANTOM1
 62
  152
 10
30.785761101773687
 20
7.4666576296497169
 11
43.685760720303961
 21
7.4666576296497169
  0
LINE
  8
_0-1_
  6
PHANTOM1
 62
  152
 10
19.585760338834234
 20
7.4666576296497169
 11
6.6857607203039606
 21
7.4666576296497169
  0
LINE
  8
_0-1_
  6
PHANTOM1
 62
  152
 10
7.4677266912970026
 20
22.36665724817999
 11
5.6857607203039606
 21
22.36665724817999
  0
LINE
  8
_0-1_
  6
PHANTOM1
 62
  152
 10
7.6913335161718805
 20
22.313871374766904
 11
8.5093674498114069
 21
21.904853811900693
  0
LINE
  8
_0-1_
  6
PHANTOM1
 62
  152
 10
7.4677266912970026
 20
32.566658011119443
 11
5.6857607203039606
 21
32.566658011119443
  0
LINE
  8
_0-1_
  6
PHANTOM1
 62
  152
 10
7.6913335161718805
 20
32.619443884532529
 11
8.5093674498114069
 21
33.02846144739874
  0
LINE
  8
_0-1_
  6
PHANTOM1
 62
  152
 10
8.785760624936529
 20
34.96665762964966
 11
8.785760624936529
 21
33.475674620311338
  0
LINE
  8
_0-1_
  6
PHANTOM1
 62
  152
 10
8.785760624936529
 20
19.966657629649717
 11
8.785760624936529
 21
21.457639685313779
  0
LINE
  8
_0-1_
  6
PHANTOM1
 62
  152
 10
20.085760338834234
 20
45.184691658656618
 11
20.085760338834234
 21
46.96665762964966
  0
LINE
  8
_0-1_
  6
PHANTOM1
 62
  152
 10
20.032974465421148
 20
44.96108483378174
 11
19.623956902554937
 21
44.143050900142214
  0
LINE
  8
_0-1_
  6
PHANTOM1
 62
  152
 10
17.685760720303961
 20
43.866657725017092
 11
19.17674372964234
 21
43.866657725017092
  0
LINE
  8
_0-1_
  6
PHANTOM1
 62
  152
 10
32.685760720303961
 20
43.866657725017092
 11
31.194778664639898
 21
43.866657725017092
  0
LINE
  8
_0-1_
  6
PHANTOM1
 62
  152
 10
30.338546975186773
 20
44.96108483378174
 11
30.747564538052984
 21
44.143050900142214
  0
LINE
  8
_0-1_
  6
PHANTOM1
 62
  152
 10
30.285761101773687
 20
45.184691658656618
 11
30.285761101773687
 21
46.96665762964966
  0
LINE
  8
_0-1_
  6
PHANTOM1
 62
  152
 10
41.585762246182867
 20
19.966657629649717
 11
41.585762246182867
 21
21.457639685313779
  0
LINE
  8
_0-1_
  6
PHANTOM1
 62
  152
 10
41.585762246182867
 20
34.96665762964966
 11
41.585762246182867
 21
33.475674620311338
  0
LINE
  8
_0-1_
  6
PHANTOM1
 62
  152
 10
42.680187447598882
 20
32.619443884532529
 11
41.862152321866461
 21
33.02846144739874
  0
LINE
  8
_0-1_
  6
PHANTOM1
 62
  152
 10
42.903793557218023
 20
32.566658011119443
 11
44.685760720303961
 21
32.566658011119443
  0
LINE
  8
_0-1_
  6
PHANTOM1
 62
  152
 10
20.085760338834234
 20
9.7486247927356544
 11
20.085760338834234
 21
7.9666576296497169
  0
LINE
  8
_0-1_
  6
PHANTOM1
 62
  152
 10
20.032974465421148
 20
9.972230902354795
 11
19.623956902554937
 21
10.790266028087217
  0
LINE
  8
_0-1_
  6
PHANTOM1
 62
  152
 10
17.685760720303961
 20
11.066656103770811
 11
19.17674372964234
 21
11.066656103770811
  0
LINE
  8
_0-1_
  6
PHANTOM1
 62
  152
 10
32.685760720303961
 20
11.066656103770811
 11
31.194778664639898
 21
11.066656103770811
  0
LINE
  8
_0-1_
  6
PHANTOM1
 62
  152
 10
30.338546975186773
 20
9.972230902354795
 11
30.747564538052984
 21
10.790266028087217
  0
LINE
  8
_0-1_
  6
PHANTOM1
 62
  152
 10
30.285761101773687
 20
9.7486247927356544
 11
30.285761101773687
 21
7.9666576296497169
  0
LINE
  8
_0-1_
  6
PHANTOM1
 62
  152
 10
17.185760720303961
 20
15.759550085704404
 11
17.185760720303961
 21
11.566656103770811
  0
LINE
  8
_0-1_
  6
PHANTOM1
 62
  152
 10
18.539314492276617
 20
17.320211401622373
 11
17.332206948331304
 21
16.113103857677061
  0
LINE
  8
_0-1_
  6
PHANTOM1
 62
  152
 10
31.478653176358648
 20
17.466657629649717
 11
18.892867310574957
 21
17.466657629649717
  0
LINE
  8
_0-1_
  6
PHANTOM1
 62
  152
 10
33.039314492276617
 20
16.113103857677061
 11
31.832206948331304
 21
17.320211401622373
  0
LINE
  8
_0-1_
  6
PHANTOM1
 62
  152
 10
33.185760720303961
 20
15.759550085704404
 11
33.185760720303961
 21
11.566656103770811
  0
LINE
  8
_0-1_
  6
PHANTOM1
 62
  152
 10
36.892868264249273
 20
19.466657629649717
 11
41.085762246182867
 21
19.466657629649717
  0
LINE
  8
_0-1_
  6
PHANTOM1
 62
  152
 10
35.332206948331304
 20
20.820211401622373
 11
36.539314492276617
 21
19.613103857677061
  0
LINE
  8
_0-1_
  6
PHANTOM1
 62
  152
 10
36.539314492276617
 20
35.320211401622316
 11
35.332206948331304
 21
34.113103857677061
  0
LINE
  8
_0-1_
  6
PHANTOM1
 62
  152
 10
36.892868264249273
 20
35.46665762964966
 11
41.085762246182867
 21
35.46665762964966
  0
LINE
  8
_0-1_
  6
PHANTOM1
 62
  152
 10
33.185760720303961
 20
39.173764219920656
 11
33.185760720303961
 21
43.366657725017092
  0
LINE
  8
_0-1_
  6
PHANTOM1
 62
  152
 10
31.832206948331304
 20
37.613103857677004
 11
33.039314492276617
 21
38.820211401622316
  0
LINE
  8
_0-1_
  6
PHANTOM1
 62
  152
 10
18.892867310574957
 20
37.46665762964966
 11
31.478653176358648
 21
37.46665762964966
  0
LINE
  8
_0-1_
  6
PHANTOM1
 62
  152
 10
17.332206948331304
 20
38.820211401622316
 11
18.539314492276617
 21
37.613103857677004
  0
LINE
  8
_0-1_
  6
PHANTOM1
 62
  152
 10
17.185760720303961
 20
39.173764219920656
 11
17.185760720303961
 21
43.366657725017092
  0
LINE
  8
_0-1_
  6
PHANTOM1
 62
  152
 10
13.478654130032965
 20
19.466657629649717
 11
9.285760624936529
 21
19.466657629649717
  0
LINE
  8
_0-1_
  6
PHANTOM1
 62
  152
 10
15.039314492276617
 20
20.820211401622373
 11
13.832206948331304
 21
19.613103857677061
  0
LINE
  8
_0-1_
  6
PHANTOM1
 62
  152
 10
13.832206948331304
 20
35.320211401622316
 11
15.039314492276617
 21
34.113103857677061
  0
LINE
  8
_0-1_
  6
PHANTOM1
 62
  152
 10
13.478654130032965
 20
35.46665762964966
 11
9.285760624936529
 21
35.46665762964966
  0
ARC
  8
_0-1_
  6
PHANTOM1
 62
  152
 10
19.17674372964234
 20
44.366657725017092
 40
0.5
 50
270
 51
333.4349365234375
  0
ARC
  8
_0-1_
  6
PHANTOM1
 62
  152
 10
31.194778664639898
 20
44.366657725017092
 40
0.5
 50
206.56504821777344
 51
270
  0
ARC
  8
_0-1_
  6
PHANTOM1
 62
  152
 10
31.194778664639898
 20
10.566656103770811
 40
0.5
 50
90
 51
153.43493652343753
  0
ARC
  8
_0-1_
  6
PHANTOM1
 62
  152
 10
19.17674372964234
 20
10.566656103770811
 40
0.5
 50
26.56504821777343
 51
90
  0
ARC
  8
_0-1_
  6
PHANTOM1
 62
  152
 10
42.085762246182867
 20
33.475674620311338
 40
0.5
 50
180
 51
243.43493652343753
  0
ARC
  8
_0-1_
  6
PHANTOM1
 62
  152
 10
8.285760624936529
 20
21.457639685313779
 40
0.5
 50
0
 51
63.434936523437493
  0
ARC
  8
_0-1_
  6
PHANTOM1
 62
  152
 10
8.285760624936529
 20
33.475674620311338
 40
0.5
 50
296.56504821777344
 51
0
  0
ARC
  8
_0-1_
  6
PHANTOM1
 62
  152
 10
6.6857607203039606
 20
8.9666576296497169
 40
1.5
 50
180
 51
270
  0
ARC
  8
_0-1_
  6
PHANTOM1
 62
  152
 10
6.6857607203039606
 20
45.96665762964966
 40
1.5
 50
90
 51
180
  0
ARC
  8
_0-1_
  6
PHANTOM1
 62
  152
 10
43.685760720303961
 20
45.96665762964966
 40
1.5
 50
0
 51
90
  0
ARC
  8
_0-1_
  6
PHANTOM1
 62
  152
 10
43.685760720303961
 20
8.9666576296497169
 40
1.5
 50
270
 51
0
  0
ARC
  8
_0-1_
  6
PHANTOM1
 62
  152
 10
5.6857607203039606
 20
21.86665724817999
 40
0.5
 50
90
 51
180
  0
ARC
  8
_0-1_
  6
PHANTOM1
 62
  152
 10
5.6857607203039606
 20
33.066658011119443
 40
0.5
 50
180
 51
270
  0
ARC
  8
_0-1_
  6
PHANTOM1
 62
  152
 10
19.585760338834234
 20
46.96665762964966
 40
0.5
 50
0
 51
90
  0
ARC
  8
_0-1_
  6
PHANTOM1
 62
  152
 10
30.785761101773687
 20
46.96665762964966
 40
0.5
 50
90
 51
180
  0
ARC
  8
_0-1_
  6
PHANTOM1
 62
  152
 10
44.685760720303961
 20
33.066658011119443
 40
0.5
 50
270
 51
0
  0
ARC
  8
_0-1_
  6
PHANTOM1
 62
  152
 10
44.685760720303961
 20
21.86665724817999
 40
0.5
 50
0
 51
90
  0
ARC
  8
_0-1_
  6
PHANTOM1
 62
  152
 10
30.785761101773687
 20
7.9666576296497169
 40
0.5
 50
180
 51
270
  0
ARC
  8
_0-1_
  6
PHANTOM1
 62
  152
 10
19.585760338834234
 20
7.9666576296497169
 40
0.5
 50
270
 51
359.99998474121094
  0
ARC
  8
_0-1_
  6
PHANTOM1
 62
  152
 10
7.4677266912970026
 20
21.86665724817999
 40
0.5
 50
63.434936523437521
 51
90.000000000000028
  0
ARC
  8
_0-1_
  6
PHANTOM1
 62
  152
 10
7.4677266912970026
 20
33.066658011119443
 40
0.5
 50
270
 51
296.56504821777344
  0
ARC
  8
_0-1_
  6
PHANTOM1
 62
  152
 10
9.285760624936529
 20
34.96665762964966
 40
0.5
 50
90
 51
180
  0
ARC
  8
_0-1_
  6
PHANTOM1
 62
  152
 10
9.285760624936529
 20
19.966657629649717
 40
0.5
 50
180
 51
270
  0
ARC
  8
_0-1_
  6
PHANTOM1
 62
  152
 10
19.585760338834234
 20
45.184691658656618
 40
0.5
 50
333.4349365234375
 51
0.000000000000019
  0
ARC
  8
_0-1_
  6
PHANTOM1
 62
  152
 10
17.685760720303961
 20
43.366657725017092
 40
0.5
 50
90
 51
180
  0
ARC
  8
_0-1_
  6
PHANTOM1
 62
  152
 10
32.685760720303961
 20
43.366657725017092
 40
0.5
 50
0
 51
90
  0
ARC
  8
_0-1_
  6
PHANTOM1
 62
  152
 10
30.785761101773687
 20
45.184691658656618
 40
0.5
 50
180
 51
206.56504821777344
  0
ARC
  8
_0-1_
  6
PHANTOM1
 62
  152
 10
41.085762246182867
 20
19.966657629649717
 40
0.5
 50
270
 51
0
  0
ARC
  8
_0-1_
  6
PHANTOM1
 62
  152
 10
41.085762246182867
 20
34.96665762964966
 40
0.5
 50
0
 51
90
  0
ARC
  8
_0-1_
  6
PHANTOM1
 62
  152
 10
42.903793557218023
 20
33.066658011119443
 40
0.5
 50
243.43493652343753
 51
270
  0
ARC
  8
_0-1_
  6
PHANTOM1
 62
  152
 10
19.585760338834234
 20
9.7486247927356544
 40
0.5
 50
359.99998474121088
 51
26.565048217773398
  0
ARC
  8
_0-1_
  6
PHANTOM1
 62
  152
 10
17.685760720303961
 20
11.566656103770811
 40
0.5
 50
180
 51
270
  0
ARC
  8
_0-1_
  6
PHANTOM1
 62
  152
 10
32.685760720303961
 20
11.566656103770811
 40
0.5
 50
270
 51
0
  0
ARC
  8
_0-1_
  6
PHANTOM1
 62
  152
 10
30.785761101773687
 20
9.7486247927356544
 40
0.5
 50
153.43493652343753
 51
180.00000000000003
  0
ARC
  8
_0-1_
  6
PHANTOM1
 62
  152
 10
17.685760720303961
 20
15.759550085704404
 40
0.5
 50
135
 51
180
  0
ARC
  8
_0-1_
  6
PHANTOM1
 62
  152
 10
18.892867310574957
 20
16.966657629649717
 40
0.5
 50
90
 51
135
  0
ARC
  8
_0-1_
  6
PHANTOM1
 62
  152
 10
31.478653176358648
 20
16.966657629649717
 40
0.5
 50
45.00000000000005
 51
90.000000000000057
  0
ARC
  8
_0-1_
  6
PHANTOM1
 62
  152
 10
32.685760720303961
 20
15.759550085704404
 40
0.5
 50
0
 51
45
  0
ARC
  8
_0-1_
  6
PHANTOM1
 62
  152
 10
36.892868264249273
 20
19.966657629649717
 40
0.5
 50
225
 51
270
  0
ARC
  8
_0-1_
  6
PHANTOM1
 62
  152
 10
35.685760720303961
 20
33.759551039378721
 40
0.5
 50
135
 51
180
  0
ARC
  8
_0-1_
  6
PHANTOM1
 62
  152
 10
36.892868264249273
 20
34.96665762964966
 40
0.5
 50
90
 51
135
  0
ARC
  8
_0-1_
  6
PHANTOM1
 62
  152
 10
32.685760720303961
 20
39.173764219920656
 40
0.5
 50
315
 51
0
  0
ARC
  8
_0-1_
  6
PHANTOM1
 62
  152
 10
31.478653176358648
 20
37.96665762964966
 40
0.5
 50
270
 51
315
  0
ARC
  8
_0-1_
  6
PHANTOM1
 62
  152
 10
18.892867310574957
 20
37.96665762964966
 40
0.5
 50
225
 51
270
  0
ARC
  8
_0-1_
  6
PHANTOM1
 62
  152
 10
17.685760720303961
 20
39.173764219920656
 40
0.5
 50
180
 51
225
  0
ARC
  8
_0-1_
  6
PHANTOM1
 62
  152
 10
13.478654130032965
 20
19.966657629649717
 40
0.5
 50
270
 51
315
  0
ARC
  8
_0-1_
  6
PHANTOM1
 62
  152
 10
14.685760720303961
 20
21.173765173595029
 40
0.5
 50
315
 51
0
  0
ARC
  8
_0-1_
  6
PHANTOM1
 62
  152
 10
14.685760720303961
 20
33.759551039378721
 40
0.5
 50
0
 51
45
  0
ARC
  8
_0-1_
  6
PHANTOM1
 62
  152
 10
13.478654130032965
 20
34.96665762964966
 40
0.5
 50
45.00000000000005
 51
90.000000000000057
  0
LINE
  8
_0-1_
  6
PHANTOM1
 62
  152
 10
35.185760720303961
 20
21.173765173595029
 11
35.185760720303961
 21
33.759551039378721
  0
LINE
  8
_0-1_
  6
PHANTOM1
 62
  152
 10
15.185760720303961
 20
21.173765173595029
 11
15.185760720303961
 21
33.759551039378721
  0
LINE
  8
_0-1_
  6
CENTER2
 62
  152
 10
35.190280720304372
 20
25.166658109649916
 11
44.190280720303917
 21
25.166658109649916
  0
LINE
  8
_0-1_
  6
CENTER2
 62
  152
 10
47.685760720303961
 20
41.065262632425174
 11
56.580592431946911
 21
41.065262632425174
  0
LINE
  8
_0-1_
  6
PHANTOM1
 62
  152
 10
42.903793557218023
 20
22.36665724817999
 11
44.685760720303961
 21
22.36665724817999
  0
LINE
  8
_0-1_
  6
PHANTOM1
 62
  152
 10
42.680187447598882
 20
22.313871374766904
 11
41.862152321866461
 21
21.904853811900693
  0
ARC
  8
_0-1_
  6
PHANTOM1
 62
  152
 10
42.085762246182867
 20
21.457639685313779
 40
0.5
 50
116.56504821777345
 51
180.00000000000003
  0
ARC
  8
_0-1_
  6
PHANTOM1
 62
  152
 10
42.903793557218023
 20
21.86665724817999
 40
0.5
 50
90
 51
116.56504821777344
  0
ARC
  8
_0-1_
  6
PHANTOM1
 62
  152
 10
35.685760720303961
 20
21.173765173595029
 40
0.5
 50
180
 51
224.99998474121097
  0
LINE
  8
_0-1_
  6
PHANTOM1
 62
  152
 10
35.690280720303917
 20
26.666658109649461
 11
35.190280720304372
 21
26.166658109649461
  0
LINE
  8
_0-1_
  6
PHANTOM1
 62
  152
 10
35.190280720304372
 20
26.166658109649461
 11
35.190280720304372
 21
24.166658109649461
  0
LINE
  8
_0-1_
  6
PHANTOM1
 62
  152
 10
35.190280720304372
 20
24.166658109649461
 11
35.690280720303917
 21
23.666658109649461
  0
LINE
  8
_0-1_
  6
PHANTOM1
 62
  152
 10
35.690280720303917
 20
23.666658109649461
 11
38.390280720303736
 21
23.666658109649461
  0
LINE
  8
_0-1_
  6
PHANTOM1
 62
  152
 10
38.390280720303736
 20
24.166658109649461
 11
35.190280720304372
 21
24.166658109649461
  0
LINE
  8
_0-1_
  6
PHANTOM1
 62
  152
 10
35.690280720303917
 20
23.666658109649461
 11
35.690280720303917
 21
26.666658109649461
  0
LINE
  8
_0-1_
  6
PHANTOM1
 62
  152
 10
35.690280720303917
 20
26.666658109649461
 11
38.390280720303736
 21
26.666658109649461
  0
LINE
  8
_0-1_
  6
PHANTOM1
 62
  152
 10
38.390280720303736
 20
26.966658109649643
 11
38.390280720303736
 21
20.975678109649607
  0
LINE
  8
_0-1_
  6
PHANTOM1
 62
  152
 10
39.113890720303743
 20
20.528468109649793
 11
43.913890720303925
 21
22.928468109649884
  0
LINE
  8
_0-1_
  6
PHANTOM1
 62
  152
 10
44.190280720303917
 20
23.375678109649698
 11
44.190280720303917
 21
24.03262810964975
  0
LINE
  8
_0-1_
  6
PHANTOM1
 62
  152
 10
44.12330072030386
 20
24.2826081096498
 11
43.757270720303723
 21
24.916668109649663
  0
LINE
  8
_0-1_
  6
PHANTOM1
 62
  152
 10
43.757280720303925
 20
25.416648109649714
 11
44.123290720304112
 21
26.050578109649678
  0
LINE
  8
_0-1_
  6
PHANTOM1
 62
  152
 10
44.190280720303917
 20
26.300578109649678
 11
44.190280720303917
 21
26.966658109649643
  0
LINE
  8
_0-1_
  6
PHANTOM1
 62
  152
 10
43.690280720304372
 20
27.466658109649643
 11
38.89028072030419
 21
27.466658109649643
  0
LINE
  8
_0-1_
  6
PHANTOM1
 62
  152
 10
38.390280720303736
 20
26.166658109649461
 11
35.190280720304372
 21
26.166658109649461
  0
ARC
  8
_0-1_
  6
PHANTOM1
 62
  152
 10
38.89028072030419
 20
20.975678109649607
 40
0.5
 50
180
 51
296.56505999999996
  0
ARC
  8
_0-1_
  6
PHANTOM1
 62
  152
 10
43.690280720304372
 20
26.966658109649643
 40
0.5
 50
0
 51
90
  0
ARC
  8
_0-1_
  6
PHANTOM1
 62
  152
 10
43.690280720304372
 20
26.300578109649678
 40
0.5
 50
329.99932000000001
 51
0
  0
ARC
  8
_0-1_
  6
PHANTOM1
 62
  152
 10
44.19029072030412
 20
25.166648109649714
 40
0.5
 50
149.99931999999995
 51
209.99737999999999
  0
ARC
  8
_0-1_
  6
PHANTOM1
 62
  152
 10
43.690280720304372
 20
24.03262810964975
 40
0.5
 50
0
 51
29.997377
  0
ARC
  8
_0-1_
  6
PHANTOM1
 62
  152
 10
43.690280720304372
 20
23.375678109649698
 40
0.5
 50
296.5650599999999
 51
0
  0
ARC
  8
_0-1_
  6
PHANTOM1
 62
  152
 10
38.89028072030419
 20
26.966658109649643
 40
0.5
 50
90
 51
180
  0
LINE
  8
_0-1_
  6
PHANTOM1
 62
  152
 10
50.780592431946729
 20
42.865262632424901
 11
50.780592431946729
 21
36.874282632424865
  0
LINE
  8
_0-1_
  6
PHANTOM1
 62
  152
 10
51.504202431946737
 20
36.427072632425052
 11
56.304202431946919
 21
38.827072632425143
  0
LINE
  8
_0-1_
  6
PHANTOM1
 62
  152
 10
56.580592431946911
 20
39.274282632424956
 11
56.580592431946911
 21
39.931232632425008
  0
LINE
  8
_0-1_
  6
PHANTOM1
 62
  152
 10
56.513612431946854
 20
40.181212632425058
 11
56.147582431946716
 21
40.815272632424922
  0
LINE
  8
_0-1_
  6
PHANTOM1
 62
  152
 10
56.147592431946919
 20
41.315252632424972
 11
56.513602431947106
 21
41.949182632424936
  0
LINE
  8
_0-1_
  6
PHANTOM1
 62
  152
 10
56.580592431946911
 20
42.199182632424936
 11
56.580592431946911
 21
42.865262632424901
  0
ARC
  8
_0-1_
  6
PHANTOM1
 62
  152
 10
51.280592431947184
 20
36.874282632424865
 40
0.5
 50
180
 51
296.56505999999996
  0
ARC
  8
_0-1_
  6
PHANTOM1
 62
  152
 10
56.080592431947366
 20
42.865262632424901
 40
0.5
 50
0
 51
90
  0
ARC
  8
_0-1_
  6
PHANTOM1
 62
  152
 10
56.080592431947366
 20
42.199182632424936
 40
0.5
 50
329.99932000000001
 51
0
  0
ARC
  8
_0-1_
  6
PHANTOM1
 62
  152
 10
56.580602431947113
 20
41.065252632424972
 40
0.5
 50
149.99931999999995
 51
209.99737999999999
  0
ARC
  8
_0-1_
  6
PHANTOM1
 62
  152
 10
56.080592431947366
 20
39.931232632425008
 40
0.5
 50
0
 51
29.997377
  0
ARC
  8
_0-1_
  6
PHANTOM1
 62
  152
 10
56.080592431947366
 20
39.274282632424956
 40
0.5
 50
296.5650599999999
 51
0
  0
ARC
  8
_0-1_
  6
PHANTOM1
 62
  152
 10
51.280592431947184
 20
42.865262632424901
 40
0.5
 50
90
 51
180
  0
LINE
  8
_0-1_
  6
PHANTOM1
 62
  152
 10
48.185760720303506
 20
42.565262632424719
 11
47.685760720303961
 21
42.065262632424719
  0
LINE
  8
_0-1_
  6
PHANTOM1
 62
  152
 10
47.685760720303961
 20
42.065262632424719
 11
47.685760720303961
 21
40.065262632424719
  0
LINE
  8
_0-1_
  6
PHANTOM1
 62
  152
 10
47.685760720303961
 20
40.065262632424719
 11
48.185760720303506
 21
39.565262632424719
  0
LINE
  8
_0-1_
  6
PHANTOM1
 62
  152
 10
48.185760720303506
 20
39.565262632424719
 11
50.780592431946729
 21
39.565262632424719
  0
LINE
  8
_0-1_
  6
PHANTOM1
 62
  152
 10
50.780592431946729
 20
40.065262632424719
 11
47.685760720303961
 21
40.065262632424719
  0
LINE
  8
_0-1_
  6
PHANTOM1
 62
  152
 10
48.185760720303506
 20
39.565262632424719
 11
48.185760720303506
 21
42.565262632424719
  0
LINE
  8
_0-1_
  6
PHANTOM1
 62
  152
 10
48.185760720303506
 20
42.565262632424719
 11
50.780592431946729
 21
42.565262632424719
  0
LINE
  8
_0-1_
  6
PHANTOM1
 62
  152
 10
50.780592431946729
 20
42.065262632424719
 11
47.685760720303961
 21
42.065262632424719
  0
LINE
  8
_0-1_
  6
PHANTOM1
 62
  152
 10
49.685760720303961
 20
44.865262632424901
 11
49.685760720303961
 21
43.365262632424901
  0
LINE
  8
_0-1_
  6
PHANTOM1
 62
  152
 10
80.852638970243675
 20
46.458571642307106
 11
77.821494827444553
 21
41.208475981914262
  0
LINE
  8
_0-1_
  6
PHANTOM1
 62
  152
 10
79.066716180701519
 20
43.365262632424901
 11
49.685760720303961
 21
43.365262632424901
  0
LINE
  8
_0-1_
  6
PHANTOM1
 62
  152
 10
79.932741584485939
 20
44.865262632424901
 11
49.685760720303961
 21
44.865262632424901
  0
TEXT
  8
_0-1_
 62
    7
 10
51.731614435687334
 20
25.647953762597467
 40
5
 41
1
 50
0
  1
R02F
  0
ENDSEC
  0
EOF
