  0
SECTION
  2
HEADER
  9
$ACADVER
  1
AC1009
  9
$INSBASE
 10
0
 20
0
 30
0
  9
$EXTMIN
 10
0
 20
0
  9
$EXTMAX
 10
1189
 20
841
  9
$LIMMIN
 10
0
 20
0
  9
$LIMMAX
 10
1189
 20
841
  9
$LTSCALE
 40
1
  0
ENDSEC
  0
SECTION
  2
TABLES
  0
TABLE
  2
LTYPE
 70
     9
  0
LTYPE
  2
CONTINUOUS
 70
    64
  3
実線
 72
    65
 73
     0
 40
0.0
  0
LTYPE
  2
DASHED1
 70
    64
  3
--  --  --  --  --  --  --  --  
 72
    65
 73
     2
 40
2.5
 49
1.25
 49
-1.25
  0
LTYPE
  2
DASHED2
 70
    64
  3
----    ----    ----    ----    
 72
    65
 73
     2
 40
5.0
 49
2.5
 49
-2.5
  0
LTYPE
  2
DASHED3
 70
    64
  3
------  ------  ------  ------  
 72
    65
 73
     2
 40
5.0
 49
3.75
 49
-1.25
  0
LTYPE
  2
CENTER1
 70
    64
  3
----- - ----- - ----- - ----- - 
 72
    65
 73
     4
 40
10.0
 49
6.25
 49
-1.25
 49
1.25
 49
-1.25
  0
LTYPE
  2
CENTER2
 70
    64
  3
----------  --  ----------  --  
 72
    65
 73
     4
 40
20.0
 49
12.5
 49
-2.5
 49
2.5
 49
-2.5
  0
LTYPE
  2
PHANTOM1
 70
    64
  3
--- - - --- - - --- - - --- - - 
 72
    65
 73
     6
 40
10.0
 49
3.25
 49
-1.25
 49
1.25
 49
-1.25
 49
1.25
 49
-1.25
  0
LTYPE
  2
PHANTOM2
 70
    64
  3
--------  -  -  --------  -  -  
 72
    65
 73
     6
 40
20.0
 49
10.0
 49
-2.5
 49
1.25
 49
-2.5
 49
1.25
 49
-2.5
  0
LTYPE
  2
DOT
 70
    64
  3
-   -   -   -   -   -   -   -   
 72
    65
 73
     2
 40
2.5
 49
0.625
 49
-1.875
  0
LTYPE
  2
DUMMY
 70
    64
  3
ダミー
 72
    65
 73
     0
 40
0.0
  0
LTYPE
  2
RAND1
 70
    64
  3
ランダム線1
 72
    65
 73
     4
 40
10.0
 49
1.0
 49
-2.0
 49
3.0
 49
-4.0
  0
LTYPE
  2
RAND2
 70
    64
  3
ランダム線2
 72
    65
 73
     4
 40
14.0
 49
2.0
 49
-3.0
 49
4.0
 49
-5.0
  0
LTYPE
  2
RAND3
 70
    64
  3
ランダム線3
 72
    65
 73
     4
 40
18.0
 49
3.0
 49
-4.0
 49
5.0
 49
-6.0
  0
LTYPE
  2
RAND4
 70
    64
  3
ランダム線4
 72
    65
 73
     4
 40
22.0
 49
4.0
 49
-5.0
 49
6.0
 49
-7.0
  0
LTYPE
  2
RAND5
 70
    64
  3
ランダム線5
 72
    65
 73
     4
 40
26.0
 49
5.0
 49
-6.0
 49
7.0
 49
-8.0
  0
LTYPE
  2
LONG1
 70
    64
  3
----------  --  ----------  --  
 72
    65
 73
     4
 40
40.0
 49
32.5
 49
-2.5
 49
2.5
 49
-2.5
  0
LTYPE
  2
LONG2
 70
    64
  3
--------  -  -  --------  -  -  
 72
    65
 73
     6
 40
40.0
 49
30.0
 49
-2.5
 49
1.25
 49
-2.5
 49
1.25
 49
-2.5
  0
LTYPE
  2
LONG3
 70
    64
  3
+++++++++++++++..+++++++++++++++
 72
    65
 73
     2
 40
40.0
 49
37.5
 49
-2.5
  0
LTYPE
  2
LONG4
 70
    64
  3
+++++++++++++++..+++++++++++++++
 72
    65
 73
     2
 40
80.0
 49
75.0
 49
-5.0
  0
LTYPE
  2
LONG5
 70
    64
  3
----------  --  ----------  --  
 72
    65
 73
     4
 40
60.0
 49
37.5
 49
-7.5
 49
7.5
 49
-7.5
  0
LTYPE
  2
dashed
 70
   64
  3
-------   -------------   ------
 72
   65
 73
    2
 40
7.5
 49
6
 49
-1.5
  0
LTYPE
  2
dashed_spaced
 70
   64
  3
----        --------        ----
 72
   65
 73
    2
 40
12
 49
6
 49
-6
  0
LTYPE
  2
long_dashed_dotted
 70
   64
  3
------------- --- --------------
 72
   65
 73
    4
 40
15.25
 49
12
 49
-1.5
 49
0.25
 49
-1.5
  0
LTYPE
  2
long_dashed_double-dotted
 70
   64
  3
----------- --- --- ------------
 72
   65
 73
    6
 40
17
 49
12
 49
-1.5
 49
0.25
 49
-1.5
 49
0.25
 49
-1.5
  0
LTYPE
  2
long_dashed_triplicate-dotted
 70
   64
  3
--------- --- --- --- ----------
 72
   65
 73
    8
 40
18.75
 49
12
 49
-1.5
 49
0.25
 49
-1.5
 49
0.25
 49
-1.5
 49
0.25
 49
-1.5
  0
LTYPE
  2
dotted
 70
   64
  3
   -       -       -       -    
 72
   65
 73
    2
 40
1.75
 49
0.25
 49
-1.5
  0
LTYPE
  2
chain
 70
   64
  3
-------------- -- --------------
 72
   65
 73
    4
 40
18.5
 49
12
 49
-1.5
 49
3.5
 49
-1.5
  0
LTYPE
  2
chain_double_dash
 70
   64
  3
------------ -- -- -------------
 72
   65
 73
    6
 40
23.5
 49
12
 49
-1.5
 49
3.5
 49
-1.5
 49
3.5
 49
-1.5
  0
LTYPE
  2
dashed_dotted
 70
   64
  3
-----------     -     ----------
 72
   65
 73
    4
 40
9.25
 49
6
 49
-1.5
 49
0.25
 49
-1.5
  0
LTYPE
  2
double-dashed_dotted
 70
   64
  3
------   -----------   -   -----
 72
   65
 73
    6
 40
16.75
 49
6
 49
-1.5
 49
6
 49
-1.5
 49
0.25
 49
-1.5
  0
LTYPE
  2
dashed_double-dotted
 70
   64
  3
---------    -    -    ---------
 72
   65
 73
    6
 40
11
 49
6
 49
-1.5
 49
0.25
 49
-1.5
 49
0.25
 49
-1.5
  0
LTYPE
  2
double-dashed_double-dotted
 70
   64
  3
-----   ---------   -   -   ----
 72
   65
 73
    8
 40
18.5
 49
6
 49
-1.5
 49
6
 49
-1.5
 49
0.25
 49
-1.5
 49
0.25
 49
-1.5
  0
LTYPE
  2
dashed_triplicate-dotted
 70
   64
  3
-------    -    -    -    ------
 72
   65
 73
    8
 40
12.75
 49
6
 49
-1.5
 49
0.25
 49
-1.5
 49
0.25
 49
-1.5
 49
0.25
 49
-1.5
  0
LTYPE
  2
double-dashed_triplicate-dotted
 70
   64
  3
-----  ---------  -  -  -  -----
 72
   65
 73
   10
 40
20.25
 49
6
 49
-1.5
 49
6
 49
-1.5
 49
0.25
 49
-1.5
 49
0.25
 49
-1.5
 49
0.25
 49
-1.5
  0
LTYPE
  2
undefined
 70
   64
  3
--------------------------------
 72
   65
 73
    0
 40
0
  0
LTYPE
  2
_
 70
   64
  3
                                
 72
   65
 73
    0
 40
0
  0
LTYPE
  2
__18
 70
   64
  3
                                
 72
   65
 73
    0
 40
0
  0
LTYPE
  2
__19
 70
   64
  3
                                
 72
   65
 73
    0
 40
0
  0
LTYPE
  2
__20
 70
   64
  3
                                
 72
   65
 73
    0
 40
0
  0
LTYPE
  2
__21
 70
   64
  3
                                
 72
   65
 73
    0
 40
0
  0
LTYPE
  2
__22
 70
   64
  3
                                
 72
   65
 73
    0
 40
0
  0
LTYPE
  2
__23
 70
   64
  3
                                
 72
   65
 73
    0
 40
0
  0
LTYPE
  2
__24
 70
   64
  3
                                
 72
   65
 73
    0
 40
0
  0
LTYPE
  2
__25
 70
   64
  3
                                
 72
   65
 73
    0
 40
0
  0
LTYPE
  2
__26
 70
   64
  3
                                
 72
   65
 73
    0
 40
0
  0
LTYPE
  2
__27
 70
   64
  3
                                
 72
   65
 73
    0
 40
0
  0
LTYPE
  2
__28
 70
   64
  3
                                
 72
   65
 73
    0
 40
0
  0
LTYPE
  2
__29
 70
   64
  3
                                
 72
   65
 73
    0
 40
0
  0
LTYPE
  2
__30
 70
   64
  3
                                
 72
   65
 73
    0
 40
0
  0
LTYPE
  2
__31
 70
   64
  3
                                
 72
   65
 73
    0
 40
0
  0
LTYPE
  2
__32
 70
   64
  3
                                
 72
   65
 73
    0
 40
0
  0
ENDTAB
  0
TABLE
  2
STYLE
  5
3
100
AcDbSymbolTable
 70
     1
  0
STYLE
  5
10
100
AcDbSymbolTableRecord
100
AcDbTextStyleTableRecord
  2
STANDARD
 70
     0
 40
0.0
 41
1.0
 50
0.0
 71
     0
 42
0.2
  3
txt
  4
bigfont.shx
  0
STYLE
  5
26
100
AcDbSymbolTableRecord
100
AcDbTextStyleTableRecord
  2
TATEGAKI
 70
    68
 40
0.0
 41
1.0
 50
0.0
 71
     0
 42
1.0
  3
txt
  4
bigfont.shx
  0
ENDTAB
  0
TABLE
  2
LAYER
 70
    3
  0
LAYER
  2
_0-0_
 70
   64
 62
    7
  6
CONTINUOUS
  0
LAYER
  2
_0-1_
 70
   64
 62
    7
  6
CONTINUOUS
  0
LAYER
  2
ADD_LINE
 70
   64
 62
    7
  6
CONTINUOUS
  0
ENDTAB
  0
ENDSEC
  0
SECTION
  2
BLOCKS
  0
ENDSEC
  0
SECTION
  2
ENTITIES
  0
LINE
  8
_0-0_
  6
CONTINUOUS
 62
    7
 10
48.099778286924447
 20
29.613447233448483
 11
49.599778286924447
 21
29.613447233448483
  0
LINE
  8
_0-0_
  6
CONTINUOUS
 62
    7
 10
49.599778286924447
 20
25.113447233448483
 11
48.099778286924447
 21
25.113447233448483
  0
LINE
  8
_0-0_
  6
CONTINUOUS
 62
    7
 10
48.099778286924447
 20
19.363447233448483
 11
48.099778286924447
 21
35.363447233448483
  0
LINE
  8
_0-0_
  6
CONTINUOUS
 62
    7
 10
48.099778286924447
 20
35.363447233448483
 11
49.599778286924447
 21
35.363447233448483
  0
LINE
  8
_0-0_
  6
CONTINUOUS
 62
    7
 10
49.599778286924447
 20
35.363447233448483
 11
49.599778286924447
 21
19.363447233448483
  0
LINE
  8
_0-0_
  6
CONTINUOUS
 62
    7
 10
49.599778286924447
 20
19.363447233448483
 11
48.099778286924447
 21
19.363447233448483
  0
LINE
  8
_0-0_
  6
CONTINUOUS
 62
    7
 10
118.09977828692445
 20
19.363447233448483
 11
118.09977828692445
 21
35.363447233448483
  0
LINE
  8
_0-0_
  6
CONTINUOUS
 62
    7
 10
118.09977828692445
 20
35.363447233448483
 11
119.59977828692445
 21
35.363447233448483
  0
LINE
  8
_0-0_
  6
CONTINUOUS
 62
    7
 10
119.59977828692445
 20
35.363447233448483
 11
119.59977828692445
 21
19.363447233448483
  0
LINE
  8
_0-0_
  6
CONTINUOUS
 62
    7
 10
119.59977828692445
 20
19.363447233448483
 11
118.09977828692445
 21
19.363447233448483
  0
LINE
  8
_0-0_
  6
CONTINUOUS
 62
    7
 10
118.09977828692445
 20
24.613447233448483
 11
119.59977828692445
 21
24.613447233448483
  0
LINE
  8
_0-0_
  6
CONTINUOUS
 62
    7
 10
119.59977828692445
 20
30.113447233448483
 11
118.09977828692445
 21
30.113447233448483
  0
CIRCLE
  8
_0-0_
  6
CONTINUOUS
 62
    7
 10
25.599778286924447
 20
27.363447233448483
 40
2.25
  0
CIRCLE
  8
_0-0_
  6
CONTINUOUS
 62
    7
 10
25.599778286924447
 20
27.363447233448483
 40
8
  0
CIRCLE
  8
_0-0_
  6
CONTINUOUS
 62
    7
 10
95.599778286924447
 20
27.363447233448483
 40
2.75
  0
CIRCLE
  8
_0-0_
  6
CONTINUOUS
 62
    7
 10
95.599778286924447
 20
27.363447233448483
 40
8
  0
LINE
  8
_0-0_
  6
CONTINUOUS
 62
    7
 10
185.59977828692445
 20
29.613447233448483
 11
189.59977828692445
 21
29.613447233448483
  0
LINE
  8
_0-0_
  6
CONTINUOUS
 62
    7
 10
189.59977828692445
 20
35.363447233448483
 11
185.59977828692445
 21
35.363447233448483
  0
LINE
  8
_0-0_
  6
CONTINUOUS
 62
    7
 10
185.59977828692445
 20
35.363447233448483
 11
185.59977828692445
 21
17.363447233448483
  0
LINE
  8
_0-0_
  6
CONTINUOUS
 62
    7
 10
185.59977828692445
 20
17.363447233448483
 11
189.59977828692445
 21
17.363447233448483
  0
LINE
  8
_0-0_
  6
CONTINUOUS
 62
    7
 10
189.59977828692445
 20
17.363447233448483
 11
189.59977828692445
 21
35.363447233448483
  0
LINE
  8
_0-0_
  6
CONTINUOUS
 62
    7
 10
189.59977828692445
 20
23.113447233448483
 11
185.59977828692445
 21
23.113447233448483
  0
LINE
  8
_0-0_
  6
CONTINUOUS
 62
    7
 10
189.59977828692445
 20
100.78966200172323
 11
185.59977828692445
 21
100.78966200172323
  0
LINE
  8
_0-0_
  6
CONTINUOUS
 62
    7
 10
185.59977828692445
 20
100.78966200172323
 11
185.59977828692445
 21
82.789662001723229
  0
LINE
  8
_0-0_
  6
CONTINUOUS
 62
    7
 10
185.59977828692445
 20
82.789662001723229
 11
189.59977828692445
 21
82.789662001723229
  0
LINE
  8
_0-0_
  6
CONTINUOUS
 62
    7
 10
189.59977828692445
 20
82.789662001723229
 11
189.59977828692445
 21
100.78966200172323
  0
LINE
  8
_0-0_
  6
CONTINUOUS
 62
    7
 10
259.59977828692445
 20
35.363447233448483
 11
256.59977828692445
 21
35.363447233448483
  0
LINE
  8
_0-0_
  6
CONTINUOUS
 62
    7
 10
256.59977828692445
 20
35.363447233448483
 11
256.59977828692445
 21
17.363447233448483
  0
LINE
  8
_0-0_
  6
CONTINUOUS
 62
    7
 10
256.59977828692445
 20
17.363447233448483
 11
259.59977828692445
 21
17.363447233448483
  0
LINE
  8
_0-0_
  6
CONTINUOUS
 62
    7
 10
259.59977828692445
 20
17.363447233448483
 11
259.59977828692445
 21
35.363447233448483
  0
LINE
  8
_0-0_
  6
CONTINUOUS
 62
    7
 10
259.59977828692445
 20
30.613447233448483
 11
256.59977828692445
 21
30.613447233448483
  0
LINE
  8
_0-0_
  6
CONTINUOUS
 62
    7
 10
256.59977828692445
 20
22.113447233448483
 11
259.59977828692445
 21
22.113447233448483
  0
LINE
  8
_0-0_
  6
CONTINUOUS
 62
    7
 10
178.69977831076631
 20
96.164662001723229
 11
184.09977828692445
 21
96.164662001723229
  0
LINE
  8
_0-0_
  6
CONTINUOUS
 62
    7
 10
178.69977831076631
 20
93.664662001723229
 11
184.09977828692445
 21
93.664662001723229
  0
LINE
  8
_0-0_
  6
CONTINUOUS
 62
    7
 10
178.69977831076631
 20
94.289662001723229
 11
184.09977828692445
 21
94.289662001723229
  0
LINE
  8
_0-0_
  6
CONTINUOUS
 62
    7
 10
178.69977831076631
 20
94.914662001723229
 11
184.09977828692445
 21
94.914662001723229
  0
LINE
  8
_0-0_
  6
CONTINUOUS
 62
    7
 10
178.69977831076631
 20
95.539662001723229
 11
184.09977828692445
 21
95.539662001723229
  0
LINE
  8
_0-0_
  6
CONTINUOUS
 62
    7
 10
178.69977831076631
 20
86.789662001723229
 11
178.09977828692445
 21
87.389661906355798
  0
LINE
  8
_0-0_
  6
CONTINUOUS
 62
    7
 10
178.09977828692445
 20
96.189662097090661
 11
178.09977828692445
 21
87.389661906355798
  0
LINE
  8
_0-0_
  6
CONTINUOUS
 62
    7
 10
178.09977828692445
 20
96.189662097090661
 11
178.69977831076631
 21
96.789662001723229
  0
LINE
  8
_0-0_
  6
CONTINUOUS
 62
    7
 10
178.69977831076631
 20
86.789662001723229
 11
178.69977831076631
 21
96.789662001723229
  0
LINE
  8
_0-0_
  6
CONTINUOUS
 62
    7
 10
184.09977828692445
 20
86.789662001723229
 11
184.09977828692445
 21
96.789662001723229
  0
LINE
  8
_0-0_
  6
CONTINUOUS
 62
    7
 10
178.69977831076631
 20
86.789662001723229
 11
185.59977828692445
 21
86.789662001723229
  0
LINE
  8
_0-0_
  6
CONTINUOUS
 62
    7
 10
178.69977831076631
 20
96.789662001723229
 11
185.59977828692445
 21
96.789662001723229
  0
LINE
  8
_0-0_
  6
CONTINUOUS
 62
    7
 10
185.59977828692445
 20
92.222674695843637
 11
184.09977828692445
 21
91.356649307602822
  0
LINE
  8
_0-0_
  6
CONTINUOUS
 62
    7
 10
196.79977530577582
 20
88.289697702763817
 11
196.79980126791781
 21
95.289532498503661
  0
LINE
  8
_0-0_
  6
CONTINUOUS
 62
    7
 10
193.19977828692447
 20
96.877070541334717
 11
190.19978986071658
 21
96.614639852249013
  0
LINE
  8
_0-0_
  6
CONTINUOUS
 62
    7
 10
196.79980126791781
 20
95.289532498503661
 11
194.96453630274857
 21
98.468377480023548
  0
LINE
  8
_0-0_
  6
CONTINUOUS
 62
    7
 10
193.19977828692447
 20
98.789615973648608
 11
193.19977828692447
 21
96.877070541334717
  0
LINE
  8
_0-0_
  6
CONTINUOUS
 62
    7
 10
194.96453630274857
 20
98.468377480023548
 11
193.19977828692447
 21
98.789615973648608
  0
LINE
  8
_0-0_
  6
CONTINUOUS
 62
    7
 10
193.19977828692447
 20
86.702180193889774
 11
190.19975671313898
 21
86.964684151235645
  0
LINE
  8
_0-0_
  6
CONTINUOUS
 62
    7
 10
190.19978986071658
 20
96.614639852249013
 11
190.19975671313898
 21
86.964684151235645
  0
LINE
  8
_0-0_
  6
CONTINUOUS
 62
    7
 10
196.79980126791781
 20
88.289779648793967
 11
194.96453630274857
 21
85.11093466727408
  0
LINE
  8
_0-0_
  6
CONTINUOUS
 62
    7
 10
193.19977828692447
 20
84.78969617364902
 11
193.19977828692447
 21
86.702241605962911
  0
LINE
  8
_0-0_
  6
CONTINUOUS
 62
    7
 10
194.96453630274857
 20
85.11093466727408
 11
193.19977828692447
 21
84.78969617364902
  0
LINE
  8
_0-0_
  6
CONTINUOUS
 62
    7
 10
189.59977828692445
 20
94.789662001723229
 11
190.19978359192152
 21
94.789662001723229
  0
LINE
  8
_0-0_
  6
CONTINUOUS
 62
    7
 10
189.59977828692445
 20
88.789662001723229
 11
190.19976298193404
 21
88.789662001723229
  0
LINE
  8
_0-0_
  6
CONTINUOUS
 62
    7
 10
189.59977828692445
 20
89.239662049406945
 11
190.19976452768327
 21
89.239662049406945
  0
LINE
  8
_0-0_
  6
CONTINUOUS
 62
    7
 10
189.59977828692445
 20
94.339661954039514
 11
190.19978204617229
 21
94.339661954039514
  0
LINE
  8
_0-0_
  6
CONTINUOUS
 62
    7
 10
164.09977828692445
 20
90.346286295050561
 11
164.09977828692445
 21
93.233037708395898
  0
LINE
  8
_0-0_
  6
CONTINUOUS
 62
    7
 10
164.09977828692445
 20
93.233037708395898
 11
161.59977828692445
 21
94.676413415068566
  0
LINE
  8
_0-0_
  6
CONTINUOUS
 62
    7
 10
161.59977828692445
 20
94.676413415068566
 11
159.09977828692445
 21
93.233037708395898
  0
LINE
  8
_0-0_
  6
CONTINUOUS
 62
    7
 10
159.09977828692445
 20
93.233037708395898
 11
159.09977828692445
 21
90.346286295050561
  0
LINE
  8
_0-0_
  6
CONTINUOUS
 62
    7
 10
159.09977828692445
 20
90.346286295050561
 11
161.59977828692445
 21
88.902910588377893
  0
LINE
  8
_0-0_
  6
CONTINUOUS
 62
    7
 10
161.59977828692445
 20
88.902910588377893
 11
164.09977828692445
 21
90.346286295050561
  0
CIRCLE
  8
_0-0_
  6
CONTINUOUS
 62
    7
 10
161.59977828692445
 20
91.789662001723229
 40
5
  0
LINE
  8
_0-0_
  6
CONTINUOUS
 62
    7
 10
218.16328548751562
 20
100.78966200172323
 11
214.16328548751562
 21
100.78966200172323
  0
LINE
  8
_0-0_
  6
CONTINUOUS
 62
    7
 10
214.16328548751562
 20
100.78966200172323
 11
214.16328548751562
 21
82.789662001723229
  0
LINE
  8
_0-0_
  6
CONTINUOUS
 62
    7
 10
214.16328548751562
 20
82.789662001723229
 11
218.16328548751562
 21
82.789662001723229
  0
LINE
  8
_0-0_
  6
CONTINUOUS
 62
    7
 10
218.16328548751562
 20
82.789662001723229
 11
218.16328548751562
 21
100.78966200172323
  0
LINE
  8
_0-0_
  6
CONTINUOUS
 62
    7
 10
207.26328551135748
 20
96.164662001723229
 11
212.66328548751562
 21
96.164662001723229
  0
LINE
  8
_0-0_
  6
CONTINUOUS
 62
    7
 10
207.26328551135748
 20
93.664662001723229
 11
212.66328548751562
 21
93.664662001723229
  0
LINE
  8
_0-0_
  6
CONTINUOUS
 62
    7
 10
207.26328551135748
 20
94.289662001723229
 11
212.66328548751562
 21
94.289662001723229
  0
LINE
  8
_0-0_
  6
CONTINUOUS
 62
    7
 10
207.26328551135748
 20
94.914662001723229
 11
212.66328548751562
 21
94.914662001723229
  0
LINE
  8
_0-0_
  6
CONTINUOUS
 62
    7
 10
207.26328551135748
 20
95.539662001723229
 11
212.66328548751562
 21
95.539662001723229
  0
LINE
  8
_0-0_
  6
CONTINUOUS
 62
    7
 10
207.26328551135748
 20
86.789662001723229
 11
206.66328548751562
 21
87.389661906355798
  0
LINE
  8
_0-0_
  6
CONTINUOUS
 62
    7
 10
206.66328548751562
 20
96.189662097090661
 11
206.66328548751562
 21
87.389661906355798
  0
LINE
  8
_0-0_
  6
CONTINUOUS
 62
    7
 10
206.66328548751562
 20
96.189662097090661
 11
207.26328551135748
 21
96.789662001723229
  0
LINE
  8
_0-0_
  6
CONTINUOUS
 62
    7
 10
207.26328551135748
 20
86.789662001723229
 11
207.26328551135748
 21
96.789662001723229
  0
LINE
  8
_0-0_
  6
CONTINUOUS
 62
    7
 10
212.66328548751562
 20
86.789662001723229
 11
212.66328548751562
 21
96.789662001723229
  0
LINE
  8
_0-0_
  6
CONTINUOUS
 62
    7
 10
207.26328551135748
 20
86.789662001723229
 11
214.16328548751562
 21
86.789662001723229
  0
LINE
  8
_0-0_
  6
CONTINUOUS
 62
    7
 10
207.26328551135748
 20
96.789662001723229
 11
214.16328548751562
 21
96.789662001723229
  0
LINE
  8
_0-0_
  6
CONTINUOUS
 62
    7
 10
214.16328548751562
 20
92.222674695843637
 11
212.66328548751562
 21
91.356649307602822
  0
LINE
  8
_0-0_
  6
CONTINUOUS
 62
    7
 10
218.16328548751562
 20
94.789662001723229
 11
218.76329079251269
 21
94.789662001723229
  0
LINE
  8
_0-0_
  6
CONTINUOUS
 62
    7
 10
218.16328548751562
 20
88.789662001723229
 11
218.76327018252522
 21
88.789662001723229
  0
LINE
  8
_0-0_
  6
CONTINUOUS
 62
    7
 10
218.16328548751562
 20
89.239662049406945
 11
218.76327172827445
 21
89.239662049406945
  0
LINE
  8
_0-0_
  6
CONTINUOUS
 62
    7
 10
218.16328548751562
 20
94.339661954039514
 11
218.76328924676346
 21
94.339661954039514
  0
LINE
  8
_0-0_
  6
CONTINUOUS
 62
    7
 10
225.36326767037474
 20
84.289662001723229
 11
218.7632547250347
 21
84.289662001723229
  0
LINE
  8
_0-0_
  6
CONTINUOUS
 62
    7
 10
225.36326767037474
 20
84.289662001723229
 11
225.36332330484913
 21
99.289662001723229
  0
LINE
  8
_0-0_
  6
CONTINUOUS
 62
    7
 10
225.36332330484913
 20
99.289662001723229
 11
218.76330625000321
 21
99.289662001723229
  0
LINE
  8
_0-0_
  6
CONTINUOUS
 62
    7
 10
218.76330625000321
 20
99.289662001723229
 11
218.7632547250347
 21
84.289662001723229
  0
LINE
  8
_0-0_
  6
CONTINUOUS
 62
    7
 10
221.76328548751565
 20
99.289662001723229
 11
221.76328548751565
 21
84.289662001723229
  0
LINE
  8
_0-0_
  6
CONTINUOUS
 62
    7
 10
223.52804350351562
 20
99.289662001723229
 11
223.52804350351562
 21
84.289662001723229
  0
LINE
  8
_0-0_
  6
CONTINUOUS
 62
    7
 10
189.59977828692445
 20
159.00573438064816
 11
185.59977828692445
 21
159.00573438064816
  0
LINE
  8
_0-0_
  6
CONTINUOUS
 62
    7
 10
185.59977828692445
 20
159.00573438064816
 11
185.59977828692445
 21
141.00573438064816
  0
LINE
  8
_0-0_
  6
CONTINUOUS
 62
    7
 10
185.59977828692445
 20
141.00573438064816
 11
189.59977828692445
 21
141.00573438064816
  0
LINE
  8
_0-0_
  6
CONTINUOUS
 62
    7
 10
189.59977828692445
 20
141.00573438064816
 11
189.59977828692445
 21
159.00573438064816
  0
LINE
  8
_0-0_
  6
CONTINUOUS
 62
    7
 10
218.16328548751562
 20
159.00573438064816
 11
214.16328548751562
 21
159.00573438064816
  0
LINE
  8
_0-0_
  6
CONTINUOUS
 62
    7
 10
214.16328548751562
 20
159.00573438064816
 11
214.16328548751562
 21
141.00573438064816
  0
LINE
  8
_0-0_
  6
CONTINUOUS
 62
    7
 10
214.16328548751562
 20
141.00573438064816
 11
218.16328548751562
 21
141.00573438064816
  0
LINE
  8
_0-0_
  6
CONTINUOUS
 62
    7
 10
218.16328548751562
 20
141.00573438064816
 11
218.16328548751562
 21
159.00573438064816
  0
LINE
  8
_0-0_
  6
CONTINUOUS
 62
    7
 10
179.79977809618958
 20
151.22002011196378
 11
184.29977809618958
 21
151.22002011196378
  0
LINE
  8
_0-0_
  6
CONTINUOUS
 62
    7
 10
179.79977809618958
 20
151.82716291801694
 11
184.29977809618958
 21
151.82716291801694
  0
LINE
  8
_0-0_
  6
CONTINUOUS
 62
    7
 10
179.79977809618958
 20
153.04144876854184
 11
184.29977809618958
 21
153.04144876854184
  0
LINE
  8
_0-0_
  6
CONTINUOUS
 62
    7
 10
179.79977809618958
 20
153.64859145538571
 11
184.29977809618958
 21
153.64859145538571
  0
LINE
  8
_0-0_
  6
CONTINUOUS
 62
    7
 10
179.79977809618958
 20
152.43430584327939
 11
184.29977809618958
 21
152.43430584327939
  0
LINE
  8
_0-0_
  6
CONTINUOUS
 62
    7
 10
179.79977809618958
 20
145.75573438064816
 11
179.29977809618958
 21
146.25573438064816
  0
LINE
  8
_0-0_
  6
CONTINUOUS
 62
    7
 10
179.29977809618958
 20
153.75573438064816
 11
179.29977809618958
 21
146.25573438064816
  0
LINE
  8
_0-0_
  6
CONTINUOUS
 62
    7
 10
179.29977809618958
 20
153.75573438064816
 11
179.79977809618958
 21
154.25573438064816
  0
LINE
  8
_0-0_
  6
CONTINUOUS
 62
    7
 10
179.79977809618958
 20
145.75573438064816
 11
179.79977809618958
 21
154.25573438064816
  0
LINE
  8
_0-0_
  6
CONTINUOUS
 62
    7
 10
184.29977809618958
 20
145.75573438064816
 11
184.29977809618958
 21
154.25573438064816
  0
LINE
  8
_0-0_
  6
CONTINUOUS
 62
    7
 10
179.79977809618958
 20
145.75573438064816
 11
185.59977828692445
 21
145.75573438064816
  0
LINE
  8
_0-0_
  6
CONTINUOUS
 62
    7
 10
179.79977809618958
 20
154.25573438064816
 11
185.59977828692445
 21
154.25573438064816
  0
LINE
  8
_0-0_
  6
CONTINUOUS
 62
    7
 10
185.59977828692445
 20
150.38101204888585
 11
184.29977809618958
 21
149.63045671241048
  0
LINE
  8
_0-0_
  6
CONTINUOUS
 62
    7
 10
194.26117828692446
 20
146.85068338064798
 11
194.57916828692424
 21
147.72434738064817
  0
LINE
  8
_0-0_
  6
CONTINUOUS
 62
    7
 10
194.69977828692441
 20
148.40838738064826
 11
194.69977828692441
 21
151.60308038064818
  0
LINE
  8
_0-0_
  6
CONTINUOUS
 62
    7
 10
194.57916828692424
 20
152.28712038064828
 11
194.26117828692446
 21
153.16078438064801
  0
ARC
  8
_0-0_
  6
CONTINUOUS
 62
    7
 10
192.69977828692441
 20
148.40838738064826
 40
2
 50
340
 51
359.99999999999994
  0
ARC
  8
_0-0_
  6
CONTINUOUS
 62
    7
 10
192.69977828692441
 20
151.60308038064818
 40
2
 50
0
 51
20
  0
ARC
  8
_0-0_
  6
CONTINUOUS
 62
    7
 10
191.9119482869242
 20
147.70573438064798
 40
2.5
 50
258.17822799457855
 51
339.99999999999994
  0
LINE
  8
_0-0_
  6
CONTINUOUS
 62
    7
 10
191.39977828692423
 20
146.43419647385576
 11
191.39977828692423
 21
145.25876035318061
  0
ARC
  8
_0-0_
  6
CONTINUOUS
 62
    7
 10
191.9119482869242
 20
152.30573438064789
 40
2.5
 50
20.000000000000028
 51
101.82177200542145
  0
LINE
  8
_0-0_
  6
CONTINUOUS
 62
    7
 10
191.39977828692423
 20
154.75270840811527
 11
191.39977828692423
 21
153.57727128744023
  0
LINE
  8
_0-0_
  6
CONTINUOUS
 62
    7
 10
190.19977828692441
 20
153.25573547385591
 11
191.39977828692423
 21
153.57727128744023
  0
LINE
  8
_0-0_
  6
CONTINUOUS
 62
    7
 10
191.39977828692423
 20
146.43419647385576
 11
190.19977828692441
 21
146.7557322874402
  0
LINE
  8
_0-0_
  6
CONTINUOUS
 62
    7
 10
190.19977828692441
 20
153.25573547385591
 11
190.19977828692441
 21
146.7557322874402
  0
LINE
  8
_0-0_
  6
CONTINUOUS
 62
    7
 10
223.26328548751565
 20
145.00573438064816
 11
218.76328548751565
 21
145.00573438064816
  0
LINE
  8
_0-0_
  6
CONTINUOUS
 62
    7
 10
223.26328548751565
 20
145.00573438064816
 11
223.26328548751565
 21
155.00573438064816
  0
LINE
  8
_0-0_
  6
CONTINUOUS
 62
    7
 10
219.96328548751563
 20
145.00573438064816
 11
219.96328548751563
 21
155.00573438064816
  0
LINE
  8
_0-0_
  6
CONTINUOUS
 62
    7
 10
218.76328548751565
 20
145.00573438064816
 11
218.76328548751565
 21
155.00573438064816
  0
LINE
  8
_0-0_
  6
CONTINUOUS
 62
    7
 10
223.26328548751565
 20
155.00573438064816
 11
218.76328548751565
 21
155.00573438064816
  0
LINE
  8
_0-0_
  6
CONTINUOUS
 62
    7
 10
208.36328529678076
 20
151.22002011196378
 11
212.86328529678076
 21
151.22002011196378
  0
LINE
  8
_0-0_
  6
CONTINUOUS
 62
    7
 10
208.36328529678076
 20
151.82716291801694
 11
212.86328529678076
 21
151.82716291801694
  0
LINE
  8
_0-0_
  6
CONTINUOUS
 62
    7
 10
208.36328529678076
 20
153.04144876854184
 11
212.86328529678076
 21
153.04144876854184
  0
LINE
  8
_0-0_
  6
CONTINUOUS
 62
    7
 10
208.36328529678076
 20
153.64859145538571
 11
212.86328529678076
 21
153.64859145538571
  0
LINE
  8
_0-0_
  6
CONTINUOUS
 62
    7
 10
208.36328529678076
 20
152.43430584327939
 11
212.86328529678076
 21
152.43430584327939
  0
LINE
  8
_0-0_
  6
CONTINUOUS
 62
    7
 10
208.36328529678076
 20
145.75573438064816
 11
207.86328529678076
 21
146.25573438064816
  0
LINE
  8
_0-0_
  6
CONTINUOUS
 62
    7
 10
207.86328529678076
 20
153.75573438064816
 11
207.86328529678076
 21
146.25573438064816
  0
LINE
  8
_0-0_
  6
CONTINUOUS
 62
    7
 10
207.86328529678076
 20
153.75573438064816
 11
208.36328529678076
 21
154.25573438064816
  0
LINE
  8
_0-0_
  6
CONTINUOUS
 62
    7
 10
208.36328529678076
 20
145.75573438064816
 11
208.36328529678076
 21
154.25573438064816
  0
LINE
  8
_0-0_
  6
CONTINUOUS
 62
    7
 10
212.86328529678076
 20
145.75573438064816
 11
212.86328529678076
 21
154.25573438064816
  0
LINE
  8
_0-0_
  6
CONTINUOUS
 62
    7
 10
208.36328529678076
 20
145.75573438064816
 11
214.16328548751562
 21
145.75573438064816
  0
LINE
  8
_0-0_
  6
CONTINUOUS
 62
    7
 10
208.36328529678076
 20
154.25573438064816
 11
214.16328548751562
 21
154.25573438064816
  0
LINE
  8
_0-0_
  6
CONTINUOUS
 62
    7
 10
214.16328548751562
 20
150.38101204888585
 11
212.86328529678076
 21
149.63045671241048
  0
LINE
  8
_0-0_
  6
CONTINUOUS
 62
    7
 10
163.59977828692445
 20
148.85103386299375
 11
163.59977828692445
 21
151.16043489830258
  0
LINE
  8
_0-0_
  6
CONTINUOUS
 62
    7
 10
163.59977828692445
 20
151.16043489830258
 11
161.59977828692445
 21
152.315135415957
  0
LINE
  8
_0-0_
  6
CONTINUOUS
 62
    7
 10
161.59977828692445
 20
152.315135415957
 11
159.59977828692445
 21
151.16043489830258
  0
LINE
  8
_0-0_
  6
CONTINUOUS
 62
    7
 10
159.59977828692445
 20
151.16043489830258
 11
159.59977828692445
 21
148.85103386299375
  0
LINE
  8
_0-0_
  6
CONTINUOUS
 62
    7
 10
159.59977828692445
 20
148.85103386299375
 11
161.59977828692445
 21
147.69633334533933
  0
LINE
  8
_0-0_
  6
CONTINUOUS
 62
    7
 10
161.59977828692445
 20
147.69633334533933
 11
163.59977828692445
 21
148.85103386299375
  0
CIRCLE
  8
_0-0_
  6
CONTINUOUS
 62
    7
 10
161.59977828692445
 20
150.00573438064816
 40
4.25
  0
LINE
  8
_0-1_
  6
CENTER1
 62
  152
 10
198.04232844562938
 20
150.00573438064816
 11
176.97446140398955
 21
150.00573438064816
  0
LINE
  8
_0-1_
  6
CENTER1
 62
  152
 10
52.139019181573303
 20
27.363447233448483
 11
46.439238633192872
 21
27.363447233448483
  0
LINE
  8
_0-1_
  6
CENTER1
 62
  152
 10
122.84256695551079
 20
27.363447233448483
 11
115.7526907733955
 21
27.363447233448483
  0
LINE
  8
_0-1_
  6
CENTER1
 62
  152
 10
25.599778286924447
 20
37.255839627015007
 11
25.599778286924447
 21
17.064741773467404
  0
LINE
  8
_0-1_
  6
CENTER1
 62
  152
 10
36.757980556380744
 20
27.363447233448483
 11
13.874736322359922
 21
27.363447233448483
  0
LINE
  8
_0-1_
  6
CENTER1
 62
  152
 10
95.599778286924447
 20
37.255839627015007
 11
95.599778286924447
 21
17.064741773467404
  0
LINE
  8
_0-1_
  6
CENTER1
 62
  152
 10
106.75798055638063
 20
27.363447233448483
 11
83.874736322359922
 21
27.363447233448483
  0
LINE
  8
_0-1_
  6
CENTER1
 62
  152
 10
165.59977828692445
 20
36.255839627015007
 11
165.59977828692445
 21
16.064741773467404
  0
LINE
  8
_0-1_
  6
CENTER1
 62
  152
 10
176.75798055638063
 20
26.363447233448483
 11
153.87473632235992
 21
26.363447233448483
  0
LINE
  8
_0-1_
  6
CENTER1
 62
  152
 10
246.75798055638063
 20
26.363447233448483
 11
223.87473632235992
 21
26.363447233448483
  0
LINE
  8
_0-1_
  6
CENTER1
 62
  152
 10
235.59977828692445
 20
37.137367064023067
 11
235.59977828692445
 21
16.064741773467404
  0
TEXT
  8
_0-1_
 62
    7
 10
30.150983042676899
 20
45.390619851063605
 40
5
 41
1
 50
0
  1
PW16-
  0
TEXT
  8
_0-1_
 62
    7
 10
42.650983042676899
 20
45.390619851063605
 40
5
 41
1
 50
0
  1
M4
  0
TEXT
  8
_0-1_
 62
    7
 10
100.1509830426769
 20
45.390619851063605
 40
5
 41
1
 50
0
  1
PW16-
  0
TEXT
  8
_0-1_
 62
    7
 10
112.6509830426769
 20
45.390619851063605
 40
5
 41
1
 50
0
  1
M5
  0
TEXT
  8
_0-1_
 62
    7
 10
170.1509830426769
 20
44.390619851063605
 40
5
 41
1
 50
0
  1
PW18D-
  0
TEXT
  8
_0-1_
 62
    7
 10
185.1509830426769
 20
44.390619851063605
 40
5
 41
1
 50
0
  1
M6
  0
TEXT
  8
_0-1_
 62
    7
 10
240.1509830426769
 20
44.390619851063605
 40
5
 41
1
 50
0
  1
PW18-
  0
TEXT
  8
_0-1_
 62
    7
 10
252.6509830426769
 20
44.390619851063605
 40
5
 41
1
 50
0
  1
M8
  0
TEXT
  8
_0-1_
 62
    7
 10
170.1509830426769
 20
109.81683461933835
 40
5
 41
1
 50
0
  1
PW18-40B
  0
LINE
  8
_0-1_
  6
CENTER1
 62
  152
 10
192.08587083338972
 20
26.363447233448483
 11
183.81434862092192
 21
26.363447233448483
  0
LINE
  8
_0-1_
  6
CENTER1
 62
  152
 10
262.08789563498112
 20
26.363447233448483
 11
253.64279733623056
 21
26.363447233448483
  0
LINE
  8
_0-1_
  6
CENTER1
 62
  152
 10
161.59977828692445
 20
101.68205439528975
 11
161.59977828692445
 21
81.49095654174215
  0
LINE
  8
_0-1_
  6
CENTER1
 62
  152
 10
172.75798055638063
 20
91.789662001723229
 11
149.87473632235992
 21
91.789662001723229
  0
LINE
  8
_0-1_
  6
DASHED2
 62
  152
 10
185.59977828692445
 20
95.039662001723229
 11
189.59977828692445
 21
95.039662001723229
  0
LINE
  8
_0-1_
  6
DASHED2
 62
  152
 10
189.59977828692445
 20
88.539662001723229
 11
185.59977828692445
 21
88.539662001723229
  0
LINE
  8
_0-1_
  6
DASHED2
 62
  152
 10
185.59977828692445
 20
89.239662049406945
 11
196.09977828692445
 21
89.239662049406945
  0
LINE
  8
_0-1_
  6
DASHED2
 62
  152
 10
196.09977828692445
 20
94.339661954039514
 11
185.59977828692445
 21
94.339661954039514
  0
LINE
  8
_0-1_
  6
DASHED2
 62
  152
 10
195.64977752398499
 20
88.789662001723229
 11
196.09977828692445
 21
89.239662049406945
  0
LINE
  8
_0-1_
  6
DASHED2
 62
  152
 10
196.09977828692445
 20
94.339661954039514
 11
196.09977828692445
 21
89.239662049406945
  0
LINE
  8
_0-1_
  6
DASHED2
 62
  152
 10
196.09977828692445
 20
94.339661954039514
 11
195.64977752398499
 21
94.789662001723229
  0
LINE
  8
_0-1_
  6
DASHED2
 62
  152
 10
195.64977752398499
 20
88.789662001723229
 11
195.64977752398499
 21
94.789662001723229
  0
LINE
  8
_0-1_
  6
DASHED2
 62
  152
 10
195.64977752398499
 20
88.789662001723229
 11
185.59977828692445
 21
88.789662001723229
  0
LINE
  8
_0-1_
  6
DASHED2
 62
  152
 10
195.64977752398499
 20
94.789662001723229
 11
185.59977828692445
 21
94.789662001723229
  0
LINE
  8
_0-1_
  6
CENTER1
 62
  152
 10
198.04232844562938
 20
91.789662001723229
 11
176.97446140398955
 21
91.789662001723229
  0
LINE
  8
_0-1_
  6
DASHED2
 62
  152
 10
214.16328548751562
 20
95.039662001723229
 11
218.16328548751562
 21
95.039662001723229
  0
LINE
  8
_0-1_
  6
DASHED2
 62
  152
 10
218.16328548751562
 20
88.539662001723229
 11
214.16328548751562
 21
88.539662001723229
  0
LINE
  8
_0-1_
  6
DASHED2
 62
  152
 10
214.16328548751562
 20
89.239662049406945
 11
224.66328548751562
 21
89.239662049406945
  0
LINE
  8
_0-1_
  6
DASHED2
 62
  152
 10
224.66328548751562
 20
94.339661954039514
 11
214.16328548751562
 21
94.339661954039514
  0
LINE
  8
_0-1_
  6
DASHED2
 62
  152
 10
224.21328472457617
 20
88.789662001723229
 11
224.66328548751562
 21
89.239662049406945
  0
LINE
  8
_0-1_
  6
DASHED2
 62
  152
 10
224.66328548751562
 20
94.339661954039514
 11
224.66328548751562
 21
89.239662049406945
  0
LINE
  8
_0-1_
  6
DASHED2
 62
  152
 10
224.66328548751562
 20
94.339661954039514
 11
224.21328472457617
 21
94.789662001723229
  0
LINE
  8
_0-1_
  6
DASHED2
 62
  152
 10
224.21328472457617
 20
88.789662001723229
 11
224.21328472457617
 21
94.789662001723229
  0
LINE
  8
_0-1_
  6
DASHED2
 62
  152
 10
224.21328472457617
 20
88.789662001723229
 11
214.16328548751562
 21
88.789662001723229
  0
LINE
  8
_0-1_
  6
DASHED2
 62
  152
 10
224.21328472457617
 20
94.789662001723229
 11
214.16328548751562
 21
94.789662001723229
  0
LINE
  8
_0-1_
  6
CENTER1
 62
  152
 10
226.60583564622056
 20
91.789662001723229
 11
205.53796860458073
 21
91.789662001723229
  0
LINE
  8
_0-1_
  6
CENTER1
 62
  152
 10
161.59977828692445
 20
159.89812677421469
 11
161.59977828692445
 21
139.70702892066709
  0
LINE
  8
_0-1_
  6
CENTER1
 62
  152
 10
172.75798055638063
 20
150.00573438064816
 11
149.87473632235992
 21
150.00573438064816
  0
LINE
  8
_0-1_
  6
CENTER1
 62
  152
 10
226.60583564622056
 20
150.00573438064816
 11
205.53796860458073
 21
150.00573438064816
  0
LINE
  8
_0-1_
  6
DASHED2
 62
  152
 10
189.59977828692445
 20
146.75573438064816
 11
185.59977828692445
 21
146.75573438064816
  0
LINE
  8
_0-1_
  6
DASHED2
 62
  152
 10
189.59977828692445
 20
153.25573438064816
 11
185.59977828692445
 21
153.25573438064816
  0
LINE
  8
_0-1_
  6
DASHED2
 62
  152
 10
185.59977828692445
 20
147.85573428528073
 11
194.29977809618958
 21
147.85573428528073
  0
LINE
  8
_0-1_
  6
DASHED2
 62
  152
 10
185.59977828692445
 20
152.1557344760156
 11
194.29977809618958
 21
152.1557344760156
  0
LINE
  8
_0-1_
  6
DASHED2
 62
  152
 10
194.29977809618958
 20
152.1557344760156
 11
194.29977809618958
 21
147.85573428528073
  0
LINE
  8
_0-1_
  6
DASHED2
 62
  152
 10
193.94977771471986
 20
147.50573438064816
 11
194.29977809618958
 21
147.85573428528073
  0
LINE
  8
_0-1_
  6
DASHED2
 62
  152
 10
194.29977809618958
 20
152.1557344760156
 11
193.94977771471986
 21
152.50573438064816
  0
LINE
  8
_0-1_
  6
DASHED2
 62
  152
 10
193.94977771471986
 20
147.50573438064816
 11
193.94977771471986
 21
152.50573438064816
  0
LINE
  8
_0-1_
  6
DASHED2
 62
  152
 10
193.94977771471986
 20
147.50573438064816
 11
185.59977828692445
 21
147.50573438064816
  0
LINE
  8
_0-1_
  6
DASHED2
 62
  152
 10
193.94977771471986
 20
152.50573438064816
 11
185.59977828692445
 21
152.50573438064816
  0
LINE
  8
_0-1_
  6
DASHED2
 62
  152
 10
218.16328548751562
 20
153.25573438064816
 11
214.16328548751562
 21
153.25573438064816
  0
LINE
  8
_0-1_
  6
DASHED2
 62
  152
 10
214.16328548751562
 20
147.85573428528073
 11
222.86328529678076
 21
147.85573428528073
  0
LINE
  8
_0-1_
  6
DASHED2
 62
  152
 10
214.16328548751562
 20
152.1557344760156
 11
222.86328529678076
 21
152.1557344760156
  0
LINE
  8
_0-1_
  6
DASHED2
 62
  152
 10
222.86328529678076
 20
152.1557344760156
 11
222.86328529678076
 21
147.85573428528073
  0
LINE
  8
_0-1_
  6
DASHED2
 62
  152
 10
222.51328491531103
 20
147.50573438064816
 11
222.86328529678076
 21
147.85573428528073
  0
LINE
  8
_0-1_
  6
DASHED2
 62
  152
 10
222.86328529678076
 20
152.1557344760156
 11
222.51328491531103
 21
152.50573438064816
  0
LINE
  8
_0-1_
  6
DASHED2
 62
  152
 10
222.51328491531103
 20
147.50573438064816
 11
222.51328491531103
 21
152.50573438064816
  0
LINE
  8
_0-1_
  6
DASHED2
 62
  152
 10
222.51328491531103
 20
147.50573438064816
 11
214.16328548751562
 21
147.50573438064816
  0
LINE
  8
_0-1_
  6
DASHED2
 62
  152
 10
222.51328491531103
 20
152.50573438064816
 11
214.16328548751562
 21
152.50573438064816
  0
LINE
  8
_0-1_
  6
DASHED2
 62
  152
 10
218.16328548751562
 20
146.75573438064816
 11
214.16328548751562
 21
146.75573438064816
  0
TEXT
  8
_0-1_
 62
    7
 10
170.1509830426769
 20
168.03290699826334
 40
5
 41
1
 50
0
  1
PW18-25B
  0
CIRCLE
  8
_0-0_
  6
CONTINUOUS
 62
    7
 10
165.59977828692445
 20
26.363447233448483
 40
9
  0
CIRCLE
  8
_0-0_
  6
CONTINUOUS
 62
    7
 10
165.59977828692445
 20
26.363447233448483
 40
3.25
  0
CIRCLE
  8
_0-0_
  6
CONTINUOUS
 62
    7
 10
235.59977828692445
 20
26.363447233448483
 40
9
  0
CIRCLE
  8
_0-0_
  6
CONTINUOUS
 62
    7
 10
235.59977828692445
 20
26.363447233448483
 40
4.25
  0
CIRCLE
  8
_0-0_
  6
CONTINUOUS
 62
    7
 10
161.59977828692445
 20
91.789662001723229
 40
9
  0
CIRCLE
  8
_0-0_
  6
CONTINUOUS
 62
    7
 10
161.59977828692445
 20
150.00573438064816
 40
9
  0
ENDSEC
  0
EOF
