  0
SECTION
  2
HEADER
  9
$ACADVER
  1
AC1009
  9
$INSBASE
 10
0
 20
0
 30
0
  9
$EXTMIN
 10
0
 20
0
  9
$EXTMAX
 10
1189
 20
841
  9
$LIMMIN
 10
0
 20
0
  9
$LIMMAX
 10
1189
 20
841
  9
$LTSCALE
 40
1
  0
ENDSEC
  0
SECTION
  2
TABLES
  0
TABLE
  2
LTYPE
 70
     9
  0
LTYPE
  2
CONTINUOUS
 70
    64
  3
実線
 72
    65
 73
     0
 40
0.0
  0
LTYPE
  2
DASHED1
 70
    64
  3
--  --  --  --  --  --  --  --  
 72
    65
 73
     2
 40
2.5
 49
1.25
 49
-1.25
  0
LTYPE
  2
DASHED2
 70
    64
  3
----    ----    ----    ----    
 72
    65
 73
     2
 40
5.0
 49
2.5
 49
-2.5
  0
LTYPE
  2
DASHED3
 70
    64
  3
------  ------  ------  ------  
 72
    65
 73
     2
 40
5.0
 49
3.75
 49
-1.25
  0
LTYPE
  2
CENTER1
 70
    64
  3
----- - ----- - ----- - ----- - 
 72
    65
 73
     4
 40
10.0
 49
6.25
 49
-1.25
 49
1.25
 49
-1.25
  0
LTYPE
  2
CENTER2
 70
    64
  3
----------  --  ----------  --  
 72
    65
 73
     4
 40
20.0
 49
12.5
 49
-2.5
 49
2.5
 49
-2.5
  0
LTYPE
  2
PHANTOM1
 70
    64
  3
--- - - --- - - --- - - --- - - 
 72
    65
 73
     6
 40
10.0
 49
3.25
 49
-1.25
 49
1.25
 49
-1.25
 49
1.25
 49
-1.25
  0
LTYPE
  2
PHANTOM2
 70
    64
  3
--------  -  -  --------  -  -  
 72
    65
 73
     6
 40
20.0
 49
10.0
 49
-2.5
 49
1.25
 49
-2.5
 49
1.25
 49
-2.5
  0
LTYPE
  2
DOT
 70
    64
  3
-   -   -   -   -   -   -   -   
 72
    65
 73
     2
 40
2.5
 49
0.625
 49
-1.875
  0
LTYPE
  2
DUMMY
 70
    64
  3
ダミー
 72
    65
 73
     0
 40
0.0
  0
LTYPE
  2
RAND1
 70
    64
  3
ランダム線1
 72
    65
 73
     4
 40
10.0
 49
1.0
 49
-2.0
 49
3.0
 49
-4.0
  0
LTYPE
  2
RAND2
 70
    64
  3
ランダム線2
 72
    65
 73
     4
 40
14.0
 49
2.0
 49
-3.0
 49
4.0
 49
-5.0
  0
LTYPE
  2
RAND3
 70
    64
  3
ランダム線3
 72
    65
 73
     4
 40
18.0
 49
3.0
 49
-4.0
 49
5.0
 49
-6.0
  0
LTYPE
  2
RAND4
 70
    64
  3
ランダム線4
 72
    65
 73
     4
 40
22.0
 49
4.0
 49
-5.0
 49
6.0
 49
-7.0
  0
LTYPE
  2
RAND5
 70
    64
  3
ランダム線5
 72
    65
 73
     4
 40
26.0
 49
5.0
 49
-6.0
 49
7.0
 49
-8.0
  0
LTYPE
  2
LONG1
 70
    64
  3
----------  --  ----------  --  
 72
    65
 73
     4
 40
40.0
 49
32.5
 49
-2.5
 49
2.5
 49
-2.5
  0
LTYPE
  2
LONG2
 70
    64
  3
--------  -  -  --------  -  -  
 72
    65
 73
     6
 40
40.0
 49
30.0
 49
-2.5
 49
1.25
 49
-2.5
 49
1.25
 49
-2.5
  0
LTYPE
  2
LONG3
 70
    64
  3
+++++++++++++++..+++++++++++++++
 72
    65
 73
     2
 40
40.0
 49
37.5
 49
-2.5
  0
LTYPE
  2
LONG4
 70
    64
  3
+++++++++++++++..+++++++++++++++
 72
    65
 73
     2
 40
80.0
 49
75.0
 49
-5.0
  0
LTYPE
  2
LONG5
 70
    64
  3
----------  --  ----------  --  
 72
    65
 73
     4
 40
60.0
 49
37.5
 49
-7.5
 49
7.5
 49
-7.5
  0
LTYPE
  2
dashed
 70
   64
  3
-------   -------------   ------
 72
   65
 73
    2
 40
7.5
 49
6
 49
-1.5
  0
LTYPE
  2
dashed_spaced
 70
   64
  3
----        --------        ----
 72
   65
 73
    2
 40
12
 49
6
 49
-6
  0
LTYPE
  2
long_dashed_dotted
 70
   64
  3
------------- --- --------------
 72
   65
 73
    4
 40
15.25
 49
12
 49
-1.5
 49
0.25
 49
-1.5
  0
LTYPE
  2
long_dashed_double-dotted
 70
   64
  3
----------- --- --- ------------
 72
   65
 73
    6
 40
17
 49
12
 49
-1.5
 49
0.25
 49
-1.5
 49
0.25
 49
-1.5
  0
LTYPE
  2
long_dashed_triplicate-dotted
 70
   64
  3
--------- --- --- --- ----------
 72
   65
 73
    8
 40
18.75
 49
12
 49
-1.5
 49
0.25
 49
-1.5
 49
0.25
 49
-1.5
 49
0.25
 49
-1.5
  0
LTYPE
  2
dotted
 70
   64
  3
   -       -       -       -    
 72
   65
 73
    2
 40
1.75
 49
0.25
 49
-1.5
  0
LTYPE
  2
chain
 70
   64
  3
-------------- -- --------------
 72
   65
 73
    4
 40
18.5
 49
12
 49
-1.5
 49
3.5
 49
-1.5
  0
LTYPE
  2
chain_double_dash
 70
   64
  3
------------ -- -- -------------
 72
   65
 73
    6
 40
23.5
 49
12
 49
-1.5
 49
3.5
 49
-1.5
 49
3.5
 49
-1.5
  0
LTYPE
  2
dashed_dotted
 70
   64
  3
-----------     -     ----------
 72
   65
 73
    4
 40
9.25
 49
6
 49
-1.5
 49
0.25
 49
-1.5
  0
LTYPE
  2
double-dashed_dotted
 70
   64
  3
------   -----------   -   -----
 72
   65
 73
    6
 40
16.75
 49
6
 49
-1.5
 49
6
 49
-1.5
 49
0.25
 49
-1.5
  0
LTYPE
  2
dashed_double-dotted
 70
   64
  3
---------    -    -    ---------
 72
   65
 73
    6
 40
11
 49
6
 49
-1.5
 49
0.25
 49
-1.5
 49
0.25
 49
-1.5
  0
LTYPE
  2
double-dashed_double-dotted
 70
   64
  3
-----   ---------   -   -   ----
 72
   65
 73
    8
 40
18.5
 49
6
 49
-1.5
 49
6
 49
-1.5
 49
0.25
 49
-1.5
 49
0.25
 49
-1.5
  0
LTYPE
  2
dashed_triplicate-dotted
 70
   64
  3
-------    -    -    -    ------
 72
   65
 73
    8
 40
12.75
 49
6
 49
-1.5
 49
0.25
 49
-1.5
 49
0.25
 49
-1.5
 49
0.25
 49
-1.5
  0
LTYPE
  2
double-dashed_triplicate-dotted
 70
   64
  3
-----  ---------  -  -  -  -----
 72
   65
 73
   10
 40
20.25
 49
6
 49
-1.5
 49
6
 49
-1.5
 49
0.25
 49
-1.5
 49
0.25
 49
-1.5
 49
0.25
 49
-1.5
  0
LTYPE
  2
undefined
 70
   64
  3
--------------------------------
 72
   65
 73
    0
 40
0
  0
LTYPE
  2
_
 70
   64
  3
                                
 72
   65
 73
    0
 40
0
  0
LTYPE
  2
__18
 70
   64
  3
                                
 72
   65
 73
    0
 40
0
  0
LTYPE
  2
__19
 70
   64
  3
                                
 72
   65
 73
    0
 40
0
  0
LTYPE
  2
__20
 70
   64
  3
                                
 72
   65
 73
    0
 40
0
  0
LTYPE
  2
__21
 70
   64
  3
                                
 72
   65
 73
    0
 40
0
  0
LTYPE
  2
__22
 70
   64
  3
                                
 72
   65
 73
    0
 40
0
  0
LTYPE
  2
__23
 70
   64
  3
                                
 72
   65
 73
    0
 40
0
  0
LTYPE
  2
__24
 70
   64
  3
                                
 72
   65
 73
    0
 40
0
  0
LTYPE
  2
__25
 70
   64
  3
                                
 72
   65
 73
    0
 40
0
  0
LTYPE
  2
__26
 70
   64
  3
                                
 72
   65
 73
    0
 40
0
  0
LTYPE
  2
__27
 70
   64
  3
                                
 72
   65
 73
    0
 40
0
  0
LTYPE
  2
__28
 70
   64
  3
                                
 72
   65
 73
    0
 40
0
  0
LTYPE
  2
__29
 70
   64
  3
                                
 72
   65
 73
    0
 40
0
  0
LTYPE
  2
__30
 70
   64
  3
                                
 72
   65
 73
    0
 40
0
  0
LTYPE
  2
__31
 70
   64
  3
                                
 72
   65
 73
    0
 40
0
  0
LTYPE
  2
__32
 70
   64
  3
                                
 72
   65
 73
    0
 40
0
  0
ENDTAB
  0
TABLE
  2
STYLE
  5
3
100
AcDbSymbolTable
 70
     1
  0
STYLE
  5
10
100
AcDbSymbolTableRecord
100
AcDbTextStyleTableRecord
  2
STANDARD
 70
     0
 40
0.0
 41
1.0
 50
0.0
 71
     0
 42
0.2
  3
txt
  4
bigfont.shx
  0
STYLE
  5
26
100
AcDbSymbolTableRecord
100
AcDbTextStyleTableRecord
  2
TATEGAKI
 70
    68
 40
0.0
 41
1.0
 50
0.0
 71
     0
 42
1.0
  3
txt
  4
bigfont.shx
  0
ENDTAB
  0
TABLE
  2
LAYER
 70
    4
  0
LAYER
  2
_0-0_
 70
   64
 62
    7
  6
CONTINUOUS
  0
LAYER
  2
_0-1_
 70
   64
 62
    7
  6
CONTINUOUS
  0
LAYER
  2
_0-2_
 70
   64
 62
    7
  6
CONTINUOUS
  0
LAYER
  2
ADD_LINE
 70
   64
 62
    7
  6
CONTINUOUS
  0
ENDTAB
  0
ENDSEC
  0
SECTION
  2
BLOCKS
  0
ENDSEC
  0
SECTION
  2
ENTITIES
  0
LINE
  8
_0-0_
  6
CONTINUOUS
 62
    7
 10
109.85909875041733
 20
159.89159147787257
 11
104.85909875041733
 21
159.89159147787257
  0
LINE
  8
_0-0_
  6
CONTINUOUS
 62
    7
 10
104.35909875041733
 20
159.39159147787257
 11
104.35909875041733
 21
137.59159147787238
  0
LINE
  8
_0-0_
  6
CONTINUOUS
 62
    7
 10
104.50554875041752
 20
137.94514147787265
 11
106.21264875041715
 21
136.23803147787237
  0
LINE
  8
_0-0_
  6
CONTINUOUS
 62
    7
 10
106.56620875041716
 20
136.09159147787284
 11
111.85909875041733
 21
136.09159147787284
  0
LINE
  8
_0-0_
  6
CONTINUOUS
 62
    7
 10
112.35909875041733
 20
136.59159147787238
 11
112.35909875041733
 21
138.38448147787255
  0
LINE
  8
_0-0_
  6
CONTINUOUS
 62
    7
 10
112.21264875041737
 20
138.73803147787237
 11
111.00554875041729
 21
139.94514147787265
  0
LINE
  8
_0-0_
  6
CONTINUOUS
 62
    7
 10
110.6519887504175
 20
140.09159147787238
 11
109.95909875041724
 21
140.09159147787238
  0
LINE
  8
_0-0_
  6
CONTINUOUS
 62
    7
 10
109.45909875041724
 20
140.59159147787238
 11
109.45909875041724
 21
143.59159147787284
  0
LINE
  8
_0-0_
  6
CONTINUOUS
 62
    7
 10
109.75909875041742
 20
143.89159147787257
 11
110.05909875041715
 21
143.89159147787257
  0
LINE
  8
_0-0_
  6
CONTINUOUS
 62
    7
 10
110.35909875041733
 20
144.19159147787275
 11
110.35909875041733
 21
149.58707147787288
  0
LINE
  8
_0-0_
  6
CONTINUOUS
 62
    7
 10
110.35909875041733
 20
149.58707147787288
 11
110.05909875041715
 21
149.88707147787261
  0
LINE
  8
_0-0_
  6
CONTINUOUS
 62
    7
 10
110.05909875041715
 20
149.88707147787261
 11
110.35909875041733
 21
150.18707147787234
  0
LINE
  8
_0-0_
  6
CONTINUOUS
 62
    7
 10
110.35909875041733
 20
150.18707147787234
 11
110.35909875041733
 21
153.59159147787284
  0
LINE
  8
_0-0_
  6
CONTINUOUS
 62
    7
 10
110.35909875041733
 20
153.59159147787284
 11
110.05909875041715
 21
153.89159147787257
  0
LINE
  8
_0-0_
  6
CONTINUOUS
 62
    7
 10
110.05909875041715
 20
153.89159147787257
 11
110.35909875041733
 21
154.19159147787275
  0
LINE
  8
_0-0_
  6
CONTINUOUS
 62
    7
 10
110.35909875041733
 20
154.19159147787275
 11
110.35909875041733
 21
159.39159147787257
  0
LINE
  8
_0-0_
  6
CONTINUOUS
 62
    7
 10
103.85909875041733
 20
142.89159147787257
 11
103.19301875041737
 21
142.89159147787257
  0
LINE
  8
_0-0_
  6
CONTINUOUS
 62
    7
 10
102.94300875041739
 20
142.82460147787276
 11
102.3090887504174
 21
142.45859147787257
  0
LINE
  8
_0-0_
  6
CONTINUOUS
 62
    7
 10
101.80909875041715
 20
142.45858147787283
 11
101.17504875041726
 21
142.82461147787296
  0
LINE
  8
_0-0_
  6
CONTINUOUS
 62
    7
 10
100.92506875041744
 20
142.89159147787257
 11
100.26811875041739
 21
142.89159147787257
  0
LINE
  8
_0-0_
  6
CONTINUOUS
 62
    7
 10
99.820898750417371
 20
142.61519147787237
 11
97.42089875041728
 21
137.81519147787265
  0
LINE
  8
_0-0_
  6
CONTINUOUS
 62
    7
 10
97.868118750417295
 20
137.09159147787284
 11
103.85909875041733
 21
137.09159147787284
  0
LINE
  8
_0-0_
  6
CONTINUOUS
 62
    7
 10
103.55909875041715
 20
137.09159147787284
 11
103.55909875041715
 21
134.39159147787257
  0
LINE
  8
_0-0_
  6
CONTINUOUS
 62
    7
 10
103.55909875041715
 20
134.39159147787257
 11
103.05909875041715
 21
133.89159147787257
  0
LINE
  8
_0-0_
  6
CONTINUOUS
 62
    7
 10
103.05909875041715
 20
133.89159147787257
 11
101.05909875041715
 21
133.89159147787257
  0
LINE
  8
_0-0_
  6
CONTINUOUS
 62
    7
 10
101.05909875041715
 20
133.89159147787257
 11
100.55909875041715
 21
134.39159147787257
  0
LINE
  8
_0-0_
  6
CONTINUOUS
 62
    7
 10
100.55909875041715
 20
134.39159147787257
 11
100.55909875041715
 21
137.09159147787284
  0
ARC
  8
_0-0_
  6
CONTINUOUS
 62
    7
 10
97.868118750417295
 20
137.59159147787238
 40
0.5
 50
153.43494000000001
 51
270
  0
ARC
  8
_0-0_
  6
CONTINUOUS
 62
    7
 10
104.85909875041733
 20
159.39159147787257
 40
0.5
 50
90
 51
180
  0
ARC
  8
_0-0_
  6
CONTINUOUS
 62
    7
 10
109.85909875041733
 20
159.39159147787257
 40
0.5
 50
0
 51
90
  0
ARC
  8
_0-0_
  6
CONTINUOUS
 62
    7
 10
109.95909875041724
 20
140.59159147787238
 40
0.5
 50
180
 51
270
  0
ARC
  8
_0-0_
  6
CONTINUOUS
 62
    7
 10
110.6519887504175
 20
139.59159147787284
 40
0.5
 50
45
 51
90
  0
ARC
  8
_0-0_
  6
CONTINUOUS
 62
    7
 10
111.85909875041733
 20
138.38448147787255
 40
0.5
 50
0
 51
45
  0
ARC
  8
_0-0_
  6
CONTINUOUS
 62
    7
 10
111.85909875041733
 20
136.59159147787238
 40
0.5
 50
270
 51
0
  0
ARC
  8
_0-0_
  6
CONTINUOUS
 62
    7
 10
106.56620875041716
 20
136.59159147787238
 40
0.5
 50
225
 51
270
  0
ARC
  8
_0-0_
  6
CONTINUOUS
 62
    7
 10
104.85909875041733
 20
138.29869147787247
 40
0.5
 50
180
 51
225
  0
ARC
  8
_0-0_
  6
CONTINUOUS
 62
    7
 10
103.85909875041733
 20
137.59159147787238
 40
0.5
 50
270
 51
0
  0
ARC
  8
_0-0_
  6
CONTINUOUS
 62
    7
 10
103.85909875041733
 20
142.39159147787257
 40
0.5
 50
0
 51
90
  0
ARC
  8
_0-0_
  6
CONTINUOUS
 62
    7
 10
103.19301875041737
 20
142.39159147787257
 40
0.5
 50
90
 51
120.00068
  0
ARC
  8
_0-0_
  6
CONTINUOUS
 62
    7
 10
102.0590787504172
 20
142.89160147787277
 40
0.5
 50
240.00262000000001
 51
300.00067999999999
  0
ARC
  8
_0-0_
  6
CONTINUOUS
 62
    7
 10
100.92506875041744
 20
142.39159147787257
 40
0.5
 50
60.002623
 51
90
  0
ARC
  8
_0-0_
  6
CONTINUOUS
 62
    7
 10
100.26811875041739
 20
142.39159147787257
 40
0.5
 50
90
 51
153.43494000000001
  0
ARC
  8
_0-0_
  6
CONTINUOUS
 62
    7
 10
110.05909875041715
 20
144.19159147787275
 40
0.2999999999999998
 50
270
 51
0
  0
ARC
  8
_0-0_
  6
CONTINUOUS
 62
    7
 10
109.75909875041742
 20
143.59159147787284
 40
0.2999999999999998
 50
90
 51
180
  0
LINE
  8
_0-0_
  6
CONTINUOUS
 62
    7
 10
111.85909875041733
 20
40.720236543470435
 11
106.56619875041741
 21
40.720236543470435
  0
LINE
  8
_0-0_
  6
CONTINUOUS
 62
    7
 10
106.21264875041715
 20
40.866676543470419
 11
104.50553875041732
 21
42.573786543470248
  0
LINE
  8
_0-0_
  6
CONTINUOUS
 62
    7
 10
104.35909875041733
 20
42.220236543470435
 11
104.35909875041733
 21
50.313126543470389
  0
LINE
  8
_0-0_
  6
CONTINUOUS
 62
    7
 10
104.50553875041732
 20
50.666676543470658
 11
106.21264875041715
 21
52.373786543470487
  0
LINE
  8
_0-0_
  6
CONTINUOUS
 62
    7
 10
106.56619875041741
 20
52.520236543470219
 11
112.85909875041688
 21
52.520236543470219
  0
LINE
  8
_0-0_
  6
CONTINUOUS
 62
    7
 10
113.35909875041733
 20
53.020236543470673
 11
113.35909875041733
 21
64.020236543470219
  0
LINE
  8
_0-0_
  6
CONTINUOUS
 62
    7
 10
113.85909875041733
 20
64.520236543470673
 11
117.85909875041688
 21
64.520236543470673
  0
LINE
  8
_0-0_
  6
CONTINUOUS
 62
    7
 10
118.35909875041733
 20
64.020236543470219
 11
118.35909875041733
 21
58.820236543470401
  0
LINE
  8
_0-0_
  6
CONTINUOUS
 62
    7
 10
118.35909875041733
 20
58.820236543470401
 11
118.05909875041715
 21
58.520236543470219
  0
LINE
  8
_0-0_
  6
CONTINUOUS
 62
    7
 10
118.05909875041715
 20
58.520236543470219
 11
118.35909875041733
 21
58.220236543470492
  0
LINE
  8
_0-0_
  6
CONTINUOUS
 62
    7
 10
118.35909875041733
 20
58.220236543470492
 11
118.35909875041733
 21
54.815716543470444
  0
LINE
  8
_0-0_
  6
CONTINUOUS
 62
    7
 10
118.35909875041733
 20
54.815716543470444
 11
118.05909875041715
 21
54.515716543470717
  0
LINE
  8
_0-0_
  6
CONTINUOUS
 62
    7
 10
118.05909875041715
 20
54.515716543470717
 11
118.35909875041733
 21
54.215716543470535
  0
LINE
  8
_0-0_
  6
CONTINUOUS
 62
    7
 10
118.35909875041733
 20
54.215716543470535
 11
118.35909875041733
 21
49.020236543470219
  0
LINE
  8
_0-0_
  6
CONTINUOUS
 62
    7
 10
117.85909875041688
 20
48.520236543470219
 11
109.95909875041724
 21
48.520236543470219
  0
LINE
  8
_0-0_
  6
CONTINUOUS
 62
    7
 10
109.45909875041724
 20
48.020236543470673
 11
109.45909875041724
 21
45.220236543470435
  0
LINE
  8
_0-0_
  6
CONTINUOUS
 62
    7
 10
109.95909875041724
 20
44.720236543470435
 11
110.65198875041705
 21
44.720236543470435
  0
LINE
  8
_0-0_
  6
CONTINUOUS
 62
    7
 10
111.00553875041686
 20
44.573786543470703
 11
112.21264875041715
 21
43.366676543470419
  0
LINE
  8
_0-0_
  6
CONTINUOUS
 62
    7
 10
112.35909875041688
 20
43.013126543470605
 11
112.35909875041688
 21
41.220236543470435
  0
LINE
  8
_0-0_
  6
CONTINUOUS
 62
    7
 10
103.85909875041733
 20
41.720236543470435
 11
97.868108750417093
 21
41.720236543470435
  0
LINE
  8
_0-0_
  6
CONTINUOUS
 62
    7
 10
97.42089875041728
 20
42.443846543470443
 11
99.820898750417371
 21
47.243846543470227
  0
LINE
  8
_0-0_
  6
CONTINUOUS
 62
    7
 10
100.26810875041718
 20
47.520236543470219
 11
100.92505875041724
 21
47.520236543470219
  0
LINE
  8
_0-0_
  6
CONTINUOUS
 62
    7
 10
101.17503875041729
 20
47.453256543470161
 11
101.80909875041715
 21
47.087226543470479
  0
LINE
  8
_0-0_
  6
CONTINUOUS
 62
    7
 10
102.30908875041695
 20
47.087236543470681
 11
102.94300875041716
 21
47.453246543470414
  0
LINE
  8
_0-0_
  6
CONTINUOUS
 62
    7
 10
103.19300875041716
 20
47.520236543470219
 11
103.85909875041733
 21
47.520236543470219
  0
LINE
  8
_0-0_
  6
CONTINUOUS
 62
    7
 10
103.55909875041715
 20
41.720236543470435
 11
103.55909875041715
 21
39.020236543470162
  0
LINE
  8
_0-0_
  6
CONTINUOUS
 62
    7
 10
103.55909875041715
 20
39.020236543470162
 11
103.05909875041715
 21
38.520236543470162
  0
LINE
  8
_0-0_
  6
CONTINUOUS
 62
    7
 10
103.05909875041715
 20
38.520236543470162
 11
101.05909875041715
 21
38.520236543470162
  0
LINE
  8
_0-0_
  6
CONTINUOUS
 62
    7
 10
101.05909875041715
 20
38.520236543470162
 11
100.55909875041715
 21
39.020236543470162
  0
LINE
  8
_0-0_
  6
CONTINUOUS
 62
    7
 10
100.55909875041715
 20
39.020236543470162
 11
100.55909875041715
 21
41.720236543470435
  0
ARC
  8
_0-0_
  6
CONTINUOUS
 62
    7
 10
117.85909875041688
 20
49.020236543470219
 40
0.5
 50
270
 51
0
  0
ARC
  8
_0-0_
  6
CONTINUOUS
 62
    7
 10
111.85909875041733
 20
41.220236543470435
 40
0.5
 50
270
 51
0
  0
ARC
  8
_0-0_
  6
CONTINUOUS
 62
    7
 10
106.56619875041741
 20
41.220236543470435
 40
0.5
 50
225
 51
270
  0
ARC
  8
_0-0_
  6
CONTINUOUS
 62
    7
 10
104.85909875041688
 20
42.927336543470517
 40
0.5
 50
180
 51
225
  0
ARC
  8
_0-0_
  6
CONTINUOUS
 62
    7
 10
104.85909875041688
 20
50.313126543470389
 40
0.5
 50
135
 51
180
  0
ARC
  8
_0-0_
  6
CONTINUOUS
 62
    7
 10
106.56619875041741
 20
52.020236543470673
 40
0.5
 50
90
 51
135
  0
ARC
  8
_0-0_
  6
CONTINUOUS
 62
    7
 10
112.85909875041688
 20
53.020236543470673
 40
0.5
 50
270
 51
0
  0
ARC
  8
_0-0_
  6
CONTINUOUS
 62
    7
 10
113.85909875041733
 20
64.020236543470219
 40
0.5
 50
90
 51
180
  0
ARC
  8
_0-0_
  6
CONTINUOUS
 62
    7
 10
117.85909875041688
 20
64.020236543470219
 40
0.5
 50
0
 51
90
  0
ARC
  8
_0-0_
  6
CONTINUOUS
 62
    7
 10
109.95909875041724
 20
48.020236543470673
 40
0.5
 50
90
 51
180
  0
ARC
  8
_0-0_
  6
CONTINUOUS
 62
    7
 10
109.95909875041724
 20
45.220236543470435
 40
0.5
 50
180
 51
270
  0
ARC
  8
_0-0_
  6
CONTINUOUS
 62
    7
 10
110.65198875041705
 20
44.220236543470435
 40
0.5
 50
45
 51
90
  0
ARC
  8
_0-0_
  6
CONTINUOUS
 62
    7
 10
111.85909875041733
 20
43.013126543470605
 40
0.5
 50
0
 51
45
  0
ARC
  8
_0-0_
  6
CONTINUOUS
 62
    7
 10
103.85909875041733
 20
42.220236543470435
 40
0.5
 50
270
 51
0
  0
ARC
  8
_0-0_
  6
CONTINUOUS
 62
    7
 10
100.26810875041718
 20
47.020236543470673
 40
0.5
 50
90
 51
153.43494000000001
  0
ARC
  8
_0-0_
  6
CONTINUOUS
 62
    7
 10
100.92505875041724
 20
47.020236543470673
 40
0.5
 50
60.002623
 51
90
  0
ARC
  8
_0-0_
  6
CONTINUOUS
 62
    7
 10
102.0590787504172
 20
47.520246543470421
 40
0.5
 50
240.00262000000001
 51
300.00067999999999
  0
ARC
  8
_0-0_
  6
CONTINUOUS
 62
    7
 10
103.19300875041716
 20
47.020236543470673
 40
0.5
 50
90
 51
120.00068
  0
ARC
  8
_0-0_
  6
CONTINUOUS
 62
    7
 10
103.85909875041733
 20
47.020236543470673
 40
0.5
 50
0
 51
90
  0
ARC
  8
_0-0_
  6
CONTINUOUS
 62
    7
 10
97.868108750417093
 20
42.220236543470435
 40
0.5
 50
153.43494000000001
 51
270
  0
LINE
  8
_0-1_
  6
CONTINUOUS
 62
  152
 10
101.05909875041715
 20
137.09159147787284
 11
101.05909875041715
 21
133.89159147787257
  0
LINE
  8
_0-1_
  6
CONTINUOUS
 62
  152
 10
100.55909875041715
 20
134.39159147787257
 11
103.55909875041715
 21
134.39159147787257
  0
LINE
  8
_0-1_
  6
CONTINUOUS
 62
  152
 10
103.05909875041715
 20
133.89159147787257
 11
103.05909875041715
 21
137.09159147787284
  0
LINE
  8
_0-1_
  6
CENTER2
 62
  152
 10
102.05909875041738
 20
133.89159147787257
 11
102.05909875041738
 21
142.89159147787257
  0
LINE
  8
_0-1_
  6
CENTER2
 62
  152
 10
104.35909875041779
 20
128.89156147787241
 11
104.35909875041779
 21
118.89156147787241
  0
LINE
  8
_0-1_
  6
CENTER2
 62
  152
 10
99.35912875041771
 20
123.89159147787257
 11
109.35907875041784
 21
123.89159147787257
  0
LINE
  8
_0-1_
  6
PHANTOM1
 62
  152
 10
84.359098681643388
 20
118.29159116517735
 11
84.359098681643388
 21
105.39159154664708
  0
LINE
  8
_0-1_
  6
PHANTOM1
 62
  152
 10
84.359098681643388
 20
129.4915919281168
 11
84.359098681643388
 21
142.39159154664708
  0
LINE
  8
_0-1_
  6
PHANTOM1
 62
  152
 10
98.759098300173662
 20
143.89159154664708
 11
85.859098681643388
 21
143.89159154664708
  0
LINE
  8
_0-1_
  6
PHANTOM1
 62
  152
 10
109.95909906311311
 20
143.89159154664708
 11
122.85909868164339
 21
143.89159154664708
  0
LINE
  8
_0-1_
  6
PHANTOM1
 62
  152
 10
124.35909868164339
 20
129.4915919281168
 11
124.35909868164339
 21
142.39159154664708
  0
LINE
  8
_0-1_
  6
PHANTOM1
 62
  152
 10
124.35909868164339
 20
118.29159116517735
 11
124.35909868164339
 21
105.39159154664708
  0
LINE
  8
_0-1_
  6
PHANTOM1
 62
  152
 10
109.95909906311311
 20
103.89159154664708
 11
122.85909868164339
 21
103.89159154664708
  0
LINE
  8
_0-1_
  6
PHANTOM1
 62
  152
 10
98.759098300173662
 20
103.89159154664708
 11
85.859098681643388
 21
103.89159154664708
  0
LINE
  8
_0-1_
  6
PHANTOM1
 62
  152
 10
86.64106465263643
 20
118.79159116517735
 11
84.859098681643388
 21
118.79159116517735
  0
LINE
  8
_0-1_
  6
PHANTOM1
 62
  152
 10
86.864671477511308
 20
118.73880529176427
 11
87.682705411150835
 21
118.32978772889805
  0
LINE
  8
_0-1_
  6
PHANTOM1
 62
  152
 10
86.64106465263643
 20
128.9915919281168
 11
84.859098681643388
 21
128.9915919281168
  0
LINE
  8
_0-1_
  6
PHANTOM1
 62
  152
 10
86.864671477511308
 20
129.04437780152989
 11
87.682705411150835
 21
129.4533953643961
  0
LINE
  8
_0-1_
  6
PHANTOM1
 62
  152
 10
87.959098586275957
 20
131.39159154664708
 11
87.959098586275957
 21
129.9006085373087
  0
LINE
  8
_0-1_
  6
PHANTOM1
 62
  152
 10
87.959098586275957
 20
116.39159154664708
 11
87.959098586275957
 21
117.88257360231114
  0
LINE
  8
_0-1_
  6
PHANTOM1
 62
  152
 10
99.259098300173662
 20
141.60962557565404
 11
99.259098300173662
 21
143.39159154664708
  0
LINE
  8
_0-1_
  6
PHANTOM1
 62
  152
 10
99.206312426760576
 20
141.38601875077916
 11
98.797294863894365
 21
140.56798481713963
  0
LINE
  8
_0-1_
  6
PHANTOM1
 62
  152
 10
96.859098681643388
 20
140.29159164201451
 11
98.350081690981767
 21
140.29159164201451
  0
LINE
  8
_0-1_
  6
PHANTOM1
 62
  152
 10
111.85909868164339
 20
140.29159164201451
 11
110.36811662597933
 21
140.29159164201451
  0
LINE
  8
_0-1_
  6
PHANTOM1
 62
  152
 10
109.5118849365262
 20
141.38601875077916
 11
109.92090249939241
 21
140.56798481713963
  0
LINE
  8
_0-1_
  6
PHANTOM1
 62
  152
 10
109.45909906311311
 20
141.60962557565404
 11
109.45909906311311
 21
143.39159154664708
  0
LINE
  8
_0-1_
  6
PHANTOM1
 62
  152
 10
122.07713151855745
 20
118.79159116517735
 11
123.85909868164339
 21
118.79159116517735
  0
LINE
  8
_0-1_
  6
PHANTOM1
 62
  152
 10
121.85352540893831
 20
118.73880529176427
 11
121.03549028320589
 21
118.32978772889805
  0
LINE
  8
_0-1_
  6
PHANTOM1
 62
  152
 10
120.75910020752229
 20
116.39159154664708
 11
120.75910020752229
 21
117.88257360231114
  0
LINE
  8
_0-1_
  6
PHANTOM1
 62
  152
 10
120.75910020752229
 20
131.39159154664708
 11
120.75910020752229
 21
129.9006085373087
  0
LINE
  8
_0-1_
  6
PHANTOM1
 62
  152
 10
121.85352540893831
 20
129.04437780152989
 11
121.03549028320589
 21
129.4533953643961
  0
LINE
  8
_0-1_
  6
PHANTOM1
 62
  152
 10
122.07713151855745
 20
128.9915919281168
 11
123.85909868164339
 21
128.9915919281168
  0
LINE
  8
_0-1_
  6
PHANTOM1
 62
  152
 10
99.259098300173662
 20
106.17355870973302
 11
99.259098300173662
 21
104.39159154664708
  0
LINE
  8
_0-1_
  6
PHANTOM1
 62
  152
 10
99.206312426760576
 20
106.39716481935216
 11
98.797294863894365
 21
107.21519994508458
  0
LINE
  8
_0-1_
  6
PHANTOM1
 62
  152
 10
96.859098681643388
 20
107.49159002076817
 11
98.350081690981767
 21
107.49159002076817
  0
LINE
  8
_0-1_
  6
PHANTOM1
 62
  152
 10
111.85909868164339
 20
107.49159002076817
 11
110.36811662597933
 21
107.49159002076817
  0
LINE
  8
_0-1_
  6
PHANTOM1
 62
  152
 10
109.5118849365262
 20
106.39716481935216
 11
109.92090249939241
 21
107.21519994508458
  0
LINE
  8
_0-1_
  6
PHANTOM1
 62
  152
 10
109.45909906311311
 20
106.17355870973302
 11
109.45909906311311
 21
104.39159154664708
  0
LINE
  8
_0-1_
  6
PHANTOM1
 62
  152
 10
96.359098681643388
 20
112.18448400270177
 11
96.359098681643388
 21
107.99159002076817
  0
LINE
  8
_0-1_
  6
PHANTOM1
 62
  152
 10
97.712652453616045
 20
113.74514531861973
 11
96.505544909670732
 21
112.53803777467442
  0
LINE
  8
_0-1_
  6
PHANTOM1
 62
  152
 10
110.65199113769808
 20
113.89159154664708
 11
98.066205271914384
 21
113.89159154664708
  0
LINE
  8
_0-1_
  6
PHANTOM1
 62
  152
 10
112.21265245361604
 20
112.53803777467442
 11
111.00554490967073
 21
113.74514531861973
  0
LINE
  8
_0-1_
  6
PHANTOM1
 62
  152
 10
112.35909868164339
 20
112.18448400270177
 11
112.35909868164339
 21
107.99159002076817
  0
LINE
  8
_0-1_
  6
PHANTOM1
 62
  152
 10
116.0662062255887
 20
115.89159154664708
 11
120.25910020752229
 21
115.89159154664708
  0
LINE
  8
_0-1_
  6
PHANTOM1
 62
  152
 10
114.50554490967073
 20
117.24514531861973
 11
115.71265245361604
 21
116.03803777467442
  0
LINE
  8
_0-1_
  6
PHANTOM1
 62
  152
 10
115.71265245361604
 20
131.74514531861973
 11
114.50554490967073
 21
130.53803777467442
  0
LINE
  8
_0-1_
  6
PHANTOM1
 62
  152
 10
116.0662062255887
 20
131.89159154664708
 11
120.25910020752229
 21
131.89159154664708
  0
LINE
  8
_0-1_
  6
PHANTOM1
 62
  152
 10
112.35909868164339
 20
135.59869813691807
 11
112.35909868164339
 21
139.79159164201451
  0
LINE
  8
_0-1_
  6
PHANTOM1
 62
  152
 10
111.00554490967073
 20
134.03803777467442
 11
112.21265245361604
 21
135.24514531861973
  0
LINE
  8
_0-1_
  6
PHANTOM1
 62
  152
 10
98.066205271914384
 20
133.89159154664708
 11
110.65199113769808
 21
133.89159154664708
  0
LINE
  8
_0-1_
  6
PHANTOM1
 62
  152
 10
96.505544909670732
 20
135.24514531861973
 11
97.712652453616045
 21
134.03803777467442
  0
LINE
  8
_0-1_
  6
PHANTOM1
 62
  152
 10
96.359098681643388
 20
135.59869813691807
 11
96.359098681643388
 21
139.79159164201451
  0
LINE
  8
_0-1_
  6
PHANTOM1
 62
  152
 10
92.651992091372392
 20
115.89159154664708
 11
88.459098586275957
 21
115.89159154664708
  0
LINE
  8
_0-1_
  6
PHANTOM1
 62
  152
 10
94.212652453616045
 20
117.24514531861973
 11
93.005544909670732
 21
116.03803777467442
  0
LINE
  8
_0-1_
  6
PHANTOM1
 62
  152
 10
93.005544909670732
 20
131.74514531861973
 11
94.212652453616045
 21
130.53803777467442
  0
LINE
  8
_0-1_
  6
PHANTOM1
 62
  152
 10
92.651992091372392
 20
131.89159154664708
 11
88.459098586275957
 21
131.89159154664708
  0
ARC
  8
_0-1_
  6
PHANTOM1
 62
  152
 10
98.350081690981767
 20
140.79159164201451
 40
0.5
 50
270
 51
333.4349365234375
  0
ARC
  8
_0-1_
  6
PHANTOM1
 62
  152
 10
110.36811662597933
 20
140.79159164201451
 40
0.5
 50
206.56504821777344
 51
270
  0
ARC
  8
_0-1_
  6
PHANTOM1
 62
  152
 10
110.36811662597933
 20
106.99159002076817
 40
0.5
 50
90
 51
153.43493652343753
  0
ARC
  8
_0-1_
  6
PHANTOM1
 62
  152
 10
98.350081690981767
 20
106.99159002076817
 40
0.5
 50
26.56504821777343
 51
90
  0
ARC
  8
_0-1_
  6
PHANTOM1
 62
  152
 10
121.25910020752229
 20
129.9006085373087
 40
0.5
 50
180
 51
243.43493652343753
  0
ARC
  8
_0-1_
  6
PHANTOM1
 62
  152
 10
121.25910020752229
 20
117.88257360231114
 40
0.5
 50
116.56504821777345
 51
180.00000000000003
  0
ARC
  8
_0-1_
  6
PHANTOM1
 62
  152
 10
87.459098586275957
 20
117.88257360231114
 40
0.5
 50
0
 51
63.434936523437493
  0
ARC
  8
_0-1_
  6
PHANTOM1
 62
  152
 10
87.459098586275957
 20
129.9006085373087
 40
0.5
 50
296.56504821777344
 51
0
  0
ARC
  8
_0-1_
  6
PHANTOM1
 62
  152
 10
85.859098681643388
 20
105.39159154664708
 40
1.5
 50
180
 51
270
  0
ARC
  8
_0-1_
  6
PHANTOM1
 62
  152
 10
85.859098681643388
 20
142.39159154664708
 40
1.5
 50
90
 51
180
  0
ARC
  8
_0-1_
  6
PHANTOM1
 62
  152
 10
122.85909868164339
 20
142.39159154664708
 40
1.5
 50
0
 51
90
  0
ARC
  8
_0-1_
  6
PHANTOM1
 62
  152
 10
122.85909868164339
 20
105.39159154664708
 40
1.5
 50
270
 51
0
  0
ARC
  8
_0-1_
  6
PHANTOM1
 62
  152
 10
84.859098681643388
 20
118.29159116517735
 40
0.5
 50
90
 51
180
  0
ARC
  8
_0-1_
  6
PHANTOM1
 62
  152
 10
84.859098681643388
 20
129.4915919281168
 40
0.5
 50
180
 51
270
  0
ARC
  8
_0-1_
  6
PHANTOM1
 62
  152
 10
98.759098300173662
 20
143.39159154664708
 40
0.5
 50
0
 51
90
  0
ARC
  8
_0-1_
  6
PHANTOM1
 62
  152
 10
109.95909906311311
 20
143.39159154664708
 40
0.5
 50
90
 51
180
  0
ARC
  8
_0-1_
  6
PHANTOM1
 62
  152
 10
123.85909868164339
 20
129.4915919281168
 40
0.5
 50
270
 51
0
  0
ARC
  8
_0-1_
  6
PHANTOM1
 62
  152
 10
123.85909868164339
 20
118.29159116517735
 40
0.5
 50
0
 51
90
  0
ARC
  8
_0-1_
  6
PHANTOM1
 62
  152
 10
109.95909906311311
 20
104.39159154664708
 40
0.5
 50
180
 51
270
  0
ARC
  8
_0-1_
  6
PHANTOM1
 62
  152
 10
98.759098300173662
 20
104.39159154664708
 40
0.5
 50
270
 51
359.99998474121094
  0
ARC
  8
_0-1_
  6
PHANTOM1
 62
  152
 10
86.64106465263643
 20
118.29159116517735
 40
0.5
 50
63.434936523437521
 51
90.000000000000028
  0
ARC
  8
_0-1_
  6
PHANTOM1
 62
  152
 10
86.64106465263643
 20
129.4915919281168
 40
0.5
 50
270
 51
296.56504821777344
  0
ARC
  8
_0-1_
  6
PHANTOM1
 62
  152
 10
88.459098586275957
 20
131.39159154664708
 40
0.5
 50
90
 51
180
  0
ARC
  8
_0-1_
  6
PHANTOM1
 62
  152
 10
88.459098586275957
 20
116.39159154664708
 40
0.5
 50
180
 51
270
  0
ARC
  8
_0-1_
  6
PHANTOM1
 62
  152
 10
98.759098300173662
 20
141.60962557565404
 40
0.5
 50
333.4349365234375
 51
0.000000000000019
  0
ARC
  8
_0-1_
  6
PHANTOM1
 62
  152
 10
96.859098681643388
 20
139.79159164201451
 40
0.5
 50
90
 51
180
  0
ARC
  8
_0-1_
  6
PHANTOM1
 62
  152
 10
111.85909868164339
 20
139.79159164201451
 40
0.5
 50
0
 51
90
  0
ARC
  8
_0-1_
  6
PHANTOM1
 62
  152
 10
109.95909906311311
 20
141.60962557565404
 40
0.5
 50
180
 51
206.56504821777344
  0
ARC
  8
_0-1_
  6
PHANTOM1
 62
  152
 10
122.07713151855745
 20
118.29159116517735
 40
0.5
 50
90
 51
116.56504821777344
  0
ARC
  8
_0-1_
  6
PHANTOM1
 62
  152
 10
120.25910020752229
 20
116.39159154664708
 40
0.5
 50
270
 51
0
  0
ARC
  8
_0-1_
  6
PHANTOM1
 62
  152
 10
120.25910020752229
 20
131.39159154664708
 40
0.5
 50
0
 51
90
  0
ARC
  8
_0-1_
  6
PHANTOM1
 62
  152
 10
122.07713151855745
 20
129.4915919281168
 40
0.5
 50
243.43493652343753
 51
270
  0
ARC
  8
_0-1_
  6
PHANTOM1
 62
  152
 10
98.759098300173662
 20
106.17355870973302
 40
0.5
 50
359.99998474121088
 51
26.565048217773398
  0
ARC
  8
_0-1_
  6
PHANTOM1
 62
  152
 10
96.859098681643388
 20
107.99159002076817
 40
0.5
 50
180
 51
270
  0
ARC
  8
_0-1_
  6
PHANTOM1
 62
  152
 10
111.85909868164339
 20
107.99159002076817
 40
0.5
 50
270
 51
0
  0
ARC
  8
_0-1_
  6
PHANTOM1
 62
  152
 10
109.95909906311311
 20
106.17355870973302
 40
0.5
 50
153.43493652343753
 51
180.00000000000003
  0
ARC
  8
_0-1_
  6
PHANTOM1
 62
  152
 10
96.859098681643388
 20
112.18448400270177
 40
0.5
 50
135
 51
180
  0
ARC
  8
_0-1_
  6
PHANTOM1
 62
  152
 10
98.066205271914384
 20
113.39159154664708
 40
0.5
 50
90
 51
135
  0
ARC
  8
_0-1_
  6
PHANTOM1
 62
  152
 10
110.65199113769808
 20
113.39159154664708
 40
0.5
 50
45.00000000000005
 51
90.000000000000057
  0
ARC
  8
_0-1_
  6
PHANTOM1
 62
  152
 10
111.85909868164339
 20
112.18448400270177
 40
0.5
 50
0
 51
45
  0
ARC
  8
_0-1_
  6
PHANTOM1
 62
  152
 10
116.0662062255887
 20
116.39159154664708
 40
0.5
 50
225
 51
270
  0
ARC
  8
_0-1_
  6
PHANTOM1
 62
  152
 10
114.85909868164339
 20
117.59869909059239
 40
0.5
 50
180
 51
224.99998474121097
  0
ARC
  8
_0-1_
  6
PHANTOM1
 62
  152
 10
114.85909868164339
 20
130.18448495637608
 40
0.5
 50
135
 51
180
  0
ARC
  8
_0-1_
  6
PHANTOM1
 62
  152
 10
116.0662062255887
 20
131.39159154664708
 40
0.5
 50
90
 51
135
  0
ARC
  8
_0-1_
  6
PHANTOM1
 62
  152
 10
111.85909868164339
 20
135.59869813691807
 40
0.5
 50
315
 51
0
  0
ARC
  8
_0-1_
  6
PHANTOM1
 62
  152
 10
110.65199113769808
 20
134.39159154664708
 40
0.5
 50
270
 51
315
  0
ARC
  8
_0-1_
  6
PHANTOM1
 62
  152
 10
98.066205271914384
 20
134.39159154664708
 40
0.5
 50
225
 51
270
  0
ARC
  8
_0-1_
  6
PHANTOM1
 62
  152
 10
96.859098681643388
 20
135.59869813691807
 40
0.5
 50
180
 51
225
  0
ARC
  8
_0-1_
  6
PHANTOM1
 62
  152
 10
92.651992091372392
 20
116.39159154664708
 40
0.5
 50
270
 51
315
  0
ARC
  8
_0-1_
  6
PHANTOM1
 62
  152
 10
93.859098681643388
 20
117.59869909059239
 40
0.5
 50
315
 51
0
  0
ARC
  8
_0-1_
  6
PHANTOM1
 62
  152
 10
93.859098681643388
 20
130.18448495637608
 40
0.5
 50
0
 51
45
  0
ARC
  8
_0-1_
  6
PHANTOM1
 62
  152
 10
92.651992091372392
 20
131.39159154664708
 40
0.5
 50
45.00000000000005
 51
90.000000000000057
  0
LINE
  8
_0-1_
  6
PHANTOM1
 62
  152
 10
114.35909868164339
 20
117.59869909059239
 11
114.35909868164339
 21
130.18448495637608
  0
LINE
  8
_0-1_
  6
PHANTOM1
 62
  152
 10
94.359098681643388
 20
117.59869909059239
 11
94.359098681643388
 21
130.18448495637608
  0
LINE
  8
_0-1_
  6
CONTINUOUS
 62
  152
 10
101.05909875041715
 20
41.720236543470435
 11
101.05909875041715
 21
38.520236543470162
  0
LINE
  8
_0-1_
  6
CONTINUOUS
 62
  152
 10
100.55909875041715
 20
39.020236543470162
 11
103.55909875041715
 21
39.020236543470162
  0
LINE
  8
_0-1_
  6
CONTINUOUS
 62
  152
 10
103.05909875041715
 20
38.520236543470162
 11
103.05909875041715
 21
41.720236543470435
  0
LINE
  8
_0-1_
  6
CENTER2
 62
  152
 10
104.35909875041779
 20
33.52020654347001
 11
104.35909875041779
 21
23.52020654347001
  0
LINE
  8
_0-1_
  6
CENTER2
 62
  152
 10
99.35912875041771
 20
28.520236543470162
 11
109.35907875041784
 21
28.520236543470162
  0
LINE
  8
_0-1_
  6
PHANTOM1
 62
  152
 10
84.359098681643388
 20
22.920236230774947
 11
84.359098681643388
 21
10.020236612244673
  0
LINE
  8
_0-1_
  6
PHANTOM1
 62
  152
 10
84.359098681643388
 20
34.1202369937144
 11
84.359098681643388
 21
47.020236612244673
  0
LINE
  8
_0-1_
  6
PHANTOM1
 62
  152
 10
98.759098300173662
 20
48.520236612244673
 11
85.859098681643388
 21
48.520236612244673
  0
LINE
  8
_0-1_
  6
PHANTOM1
 62
  152
 10
109.95909906311311
 20
48.520236612244673
 11
122.85909868164339
 21
48.520236612244673
  0
LINE
  8
_0-1_
  6
PHANTOM1
 62
  152
 10
124.35909868164339
 20
34.1202369937144
 11
124.35909868164339
 21
47.020236612244673
  0
LINE
  8
_0-1_
  6
PHANTOM1
 62
  152
 10
124.35909868164339
 20
22.920236230774947
 11
124.35909868164339
 21
10.020236612244673
  0
LINE
  8
_0-1_
  6
PHANTOM1
 62
  152
 10
109.95909906311311
 20
8.5202366122446733
 11
122.85909868164339
 21
8.5202366122446733
  0
LINE
  8
_0-1_
  6
PHANTOM1
 62
  152
 10
98.759098300173662
 20
8.5202366122446733
 11
85.859098681643388
 21
8.5202366122446733
  0
LINE
  8
_0-1_
  6
PHANTOM1
 62
  152
 10
86.64106465263643
 20
23.420236230774947
 11
84.859098681643388
 21
23.420236230774947
  0
LINE
  8
_0-1_
  6
PHANTOM1
 62
  152
 10
86.864671477511308
 20
23.367450357361861
 11
87.682705411150835
 21
22.95843279449565
  0
LINE
  8
_0-1_
  6
PHANTOM1
 62
  152
 10
86.64106465263643
 20
33.6202369937144
 11
84.859098681643388
 21
33.6202369937144
  0
LINE
  8
_0-1_
  6
PHANTOM1
 62
  152
 10
86.864671477511308
 20
33.673022867127486
 11
87.682705411150835
 21
34.082040429993697
  0
LINE
  8
_0-1_
  6
PHANTOM1
 62
  152
 10
87.959098586275957
 20
36.020236612244673
 11
87.959098586275957
 21
34.529253602906294
  0
LINE
  8
_0-1_
  6
PHANTOM1
 62
  152
 10
87.959098586275957
 20
21.020236612244673
 11
87.959098586275957
 21
22.511218667908736
  0
LINE
  8
_0-1_
  6
PHANTOM1
 62
  152
 10
99.259098300173662
 20
46.238270641251631
 11
99.259098300173662
 21
48.020236612244673
  0
LINE
  8
_0-1_
  6
PHANTOM1
 62
  152
 10
99.206312426760576
 20
46.014663816376753
 11
98.797294863894365
 21
45.196629882737227
  0
LINE
  8
_0-1_
  6
PHANTOM1
 62
  152
 10
96.859098681643388
 20
44.920236707612105
 11
98.350081690981767
 21
44.920236707612105
  0
LINE
  8
_0-1_
  6
PHANTOM1
 62
  152
 10
111.85909868164339
 20
44.920236707612105
 11
110.36811662597933
 21
44.920236707612105
  0
LINE
  8
_0-1_
  6
PHANTOM1
 62
  152
 10
109.5118849365262
 20
46.014663816376753
 11
109.92090249939241
 21
45.196629882737227
  0
LINE
  8
_0-1_
  6
PHANTOM1
 62
  152
 10
109.45909906311311
 20
46.238270641251631
 11
109.45909906311311
 21
48.020236612244673
  0
LINE
  8
_0-1_
  6
PHANTOM1
 62
  152
 10
122.07713151855745
 20
23.420236230774947
 11
123.85909868164339
 21
23.420236230774947
  0
LINE
  8
_0-1_
  6
PHANTOM1
 62
  152
 10
121.85352540893831
 20
23.367450357361861
 11
121.03549028320589
 21
22.95843279449565
  0
LINE
  8
_0-1_
  6
PHANTOM1
 62
  152
 10
120.75910020752229
 20
21.020236612244673
 11
120.75910020752229
 21
22.511218667908736
  0
LINE
  8
_0-1_
  6
PHANTOM1
 62
  152
 10
120.75910020752229
 20
36.020236612244673
 11
120.75910020752229
 21
34.529253602906294
  0
LINE
  8
_0-1_
  6
PHANTOM1
 62
  152
 10
121.85352540893831
 20
33.673022867127486
 11
121.03549028320589
 21
34.082040429993697
  0
LINE
  8
_0-1_
  6
PHANTOM1
 62
  152
 10
122.07713151855745
 20
33.6202369937144
 11
123.85909868164339
 21
33.6202369937144
  0
LINE
  8
_0-1_
  6
PHANTOM1
 62
  152
 10
99.259098300173662
 20
10.802203775330611
 11
99.259098300173662
 21
9.0202366122446733
  0
LINE
  8
_0-1_
  6
PHANTOM1
 62
  152
 10
99.206312426760576
 20
11.025809884949751
 11
98.797294863894365
 21
11.843845010682173
  0
LINE
  8
_0-1_
  6
PHANTOM1
 62
  152
 10
96.859098681643388
 20
12.120235086365767
 11
98.350081690981767
 21
12.120235086365767
  0
LINE
  8
_0-1_
  6
PHANTOM1
 62
  152
 10
111.85909868164339
 20
12.120235086365767
 11
110.36811662597933
 21
12.120235086365767
  0
LINE
  8
_0-1_
  6
PHANTOM1
 62
  152
 10
109.5118849365262
 20
11.025809884949751
 11
109.92090249939241
 21
11.843845010682173
  0
LINE
  8
_0-1_
  6
PHANTOM1
 62
  152
 10
109.45909906311311
 20
10.802203775330611
 11
109.45909906311311
 21
9.0202366122446733
  0
LINE
  8
_0-1_
  6
PHANTOM1
 62
  152
 10
96.359098681643388
 20
16.813129068299361
 11
96.359098681643388
 21
12.620235086365767
  0
LINE
  8
_0-1_
  6
PHANTOM1
 62
  152
 10
97.712652453616045
 20
18.37379038421733
 11
96.505544909670732
 21
17.166682840272017
  0
LINE
  8
_0-1_
  6
PHANTOM1
 62
  152
 10
110.65199113769808
 20
18.520236612244673
 11
98.066205271914384
 21
18.520236612244673
  0
LINE
  8
_0-1_
  6
PHANTOM1
 62
  152
 10
112.21265245361604
 20
17.166682840272017
 11
111.00554490967073
 21
18.37379038421733
  0
LINE
  8
_0-1_
  6
PHANTOM1
 62
  152
 10
112.35909868164339
 20
16.813129068299361
 11
112.35909868164339
 21
12.620235086365767
  0
LINE
  8
_0-1_
  6
PHANTOM1
 62
  152
 10
116.0662062255887
 20
20.520236612244673
 11
120.25910020752229
 21
20.520236612244673
  0
LINE
  8
_0-1_
  6
PHANTOM1
 62
  152
 10
114.50554490967073
 20
21.87379038421733
 11
115.71265245361604
 21
20.666682840272017
  0
LINE
  8
_0-1_
  6
PHANTOM1
 62
  152
 10
115.71265245361604
 20
36.37379038421733
 11
114.50554490967073
 21
35.166682840272017
  0
LINE
  8
_0-1_
  6
PHANTOM1
 62
  152
 10
116.0662062255887
 20
36.520236612244673
 11
120.25910020752229
 21
36.520236612244673
  0
LINE
  8
_0-1_
  6
PHANTOM1
 62
  152
 10
112.35909868164339
 20
40.227343202515669
 11
112.35909868164339
 21
44.420236707612105
  0
LINE
  8
_0-1_
  6
PHANTOM1
 62
  152
 10
111.00554490967073
 20
38.666682840272017
 11
112.21265245361604
 21
39.87379038421733
  0
LINE
  8
_0-1_
  6
PHANTOM1
 62
  152
 10
98.066205271914384
 20
38.520236612244673
 11
110.65199113769808
 21
38.520236612244673
  0
LINE
  8
_0-1_
  6
PHANTOM1
 62
  152
 10
96.505544909670732
 20
39.87379038421733
 11
97.712652453616045
 21
38.666682840272017
  0
LINE
  8
_0-1_
  6
PHANTOM1
 62
  152
 10
96.359098681643388
 20
40.227343202515669
 11
96.359098681643388
 21
44.420236707612105
  0
LINE
  8
_0-1_
  6
PHANTOM1
 62
  152
 10
92.651992091372392
 20
20.520236612244673
 11
88.459098586275957
 21
20.520236612244673
  0
LINE
  8
_0-1_
  6
PHANTOM1
 62
  152
 10
94.212652453616045
 20
21.87379038421733
 11
93.005544909670732
 21
20.666682840272017
  0
LINE
  8
_0-1_
  6
PHANTOM1
 62
  152
 10
93.005544909670732
 20
36.37379038421733
 11
94.212652453616045
 21
35.166682840272017
  0
LINE
  8
_0-1_
  6
PHANTOM1
 62
  152
 10
92.651992091372392
 20
36.520236612244673
 11
88.459098586275957
 21
36.520236612244673
  0
ARC
  8
_0-1_
  6
PHANTOM1
 62
  152
 10
98.350081690981767
 20
45.420236707612105
 40
0.5
 50
270
 51
333.4349365234375
  0
ARC
  8
_0-1_
  6
PHANTOM1
 62
  152
 10
110.36811662597933
 20
45.420236707612105
 40
0.5
 50
206.56504821777344
 51
270
  0
ARC
  8
_0-1_
  6
PHANTOM1
 62
  152
 10
110.36811662597933
 20
11.620235086365767
 40
0.5
 50
90
 51
153.43493652343753
  0
ARC
  8
_0-1_
  6
PHANTOM1
 62
  152
 10
98.350081690981767
 20
11.620235086365767
 40
0.5
 50
26.56504821777343
 51
90
  0
ARC
  8
_0-1_
  6
PHANTOM1
 62
  152
 10
121.25910020752229
 20
34.529253602906294
 40
0.5
 50
180
 51
243.43493652343753
  0
ARC
  8
_0-1_
  6
PHANTOM1
 62
  152
 10
121.25910020752229
 20
22.511218667908736
 40
0.5
 50
116.56504821777345
 51
180.00000000000003
  0
ARC
  8
_0-1_
  6
PHANTOM1
 62
  152
 10
87.459098586275957
 20
22.511218667908736
 40
0.5
 50
0
 51
63.434936523437493
  0
ARC
  8
_0-1_
  6
PHANTOM1
 62
  152
 10
87.459098586275957
 20
34.529253602906294
 40
0.5
 50
296.56504821777344
 51
0
  0
ARC
  8
_0-1_
  6
PHANTOM1
 62
  152
 10
85.859098681643388
 20
10.020236612244673
 40
1.5
 50
180
 51
270
  0
ARC
  8
_0-1_
  6
PHANTOM1
 62
  152
 10
85.859098681643388
 20
47.020236612244673
 40
1.5
 50
90
 51
180
  0
ARC
  8
_0-1_
  6
PHANTOM1
 62
  152
 10
122.85909868164339
 20
47.020236612244673
 40
1.5
 50
0
 51
90
  0
ARC
  8
_0-1_
  6
PHANTOM1
 62
  152
 10
122.85909868164339
 20
10.020236612244673
 40
1.5
 50
270
 51
0
  0
ARC
  8
_0-1_
  6
PHANTOM1
 62
  152
 10
84.859098681643388
 20
22.920236230774947
 40
0.5
 50
90
 51
180
  0
ARC
  8
_0-1_
  6
PHANTOM1
 62
  152
 10
84.859098681643388
 20
34.1202369937144
 40
0.5
 50
180
 51
270
  0
ARC
  8
_0-1_
  6
PHANTOM1
 62
  152
 10
98.759098300173662
 20
48.020236612244673
 40
0.5
 50
0
 51
90
  0
ARC
  8
_0-1_
  6
PHANTOM1
 62
  152
 10
109.95909906311311
 20
48.020236612244673
 40
0.5
 50
90
 51
180
  0
ARC
  8
_0-1_
  6
PHANTOM1
 62
  152
 10
123.85909868164339
 20
34.1202369937144
 40
0.5
 50
270
 51
0
  0
ARC
  8
_0-1_
  6
PHANTOM1
 62
  152
 10
123.85909868164339
 20
22.920236230774947
 40
0.5
 50
0
 51
90
  0
ARC
  8
_0-1_
  6
PHANTOM1
 62
  152
 10
109.95909906311311
 20
9.0202366122446733
 40
0.5
 50
180
 51
270
  0
ARC
  8
_0-1_
  6
PHANTOM1
 62
  152
 10
98.759098300173662
 20
9.0202366122446733
 40
0.5
 50
270
 51
359.99998474121094
  0
ARC
  8
_0-1_
  6
PHANTOM1
 62
  152
 10
86.64106465263643
 20
22.920236230774947
 40
0.5
 50
63.434936523437521
 51
90.000000000000028
  0
ARC
  8
_0-1_
  6
PHANTOM1
 62
  152
 10
86.64106465263643
 20
34.1202369937144
 40
0.5
 50
270
 51
296.56504821777344
  0
ARC
  8
_0-1_
  6
PHANTOM1
 62
  152
 10
88.459098586275957
 20
36.020236612244673
 40
0.5
 50
90
 51
180
  0
ARC
  8
_0-1_
  6
PHANTOM1
 62
  152
 10
88.459098586275957
 20
21.020236612244673
 40
0.5
 50
180
 51
270
  0
ARC
  8
_0-1_
  6
PHANTOM1
 62
  152
 10
98.759098300173662
 20
46.238270641251631
 40
0.5
 50
333.4349365234375
 51
0.000000000000019
  0
ARC
  8
_0-1_
  6
PHANTOM1
 62
  152
 10
96.859098681643388
 20
44.420236707612105
 40
0.5
 50
90
 51
180
  0
ARC
  8
_0-1_
  6
PHANTOM1
 62
  152
 10
111.85909868164339
 20
44.420236707612105
 40
0.5
 50
0
 51
90
  0
ARC
  8
_0-1_
  6
PHANTOM1
 62
  152
 10
109.95909906311311
 20
46.238270641251631
 40
0.5
 50
180
 51
206.56504821777344
  0
ARC
  8
_0-1_
  6
PHANTOM1
 62
  152
 10
122.07713151855745
 20
22.920236230774947
 40
0.5
 50
90
 51
116.56504821777344
  0
ARC
  8
_0-1_
  6
PHANTOM1
 62
  152
 10
120.25910020752229
 20
21.020236612244673
 40
0.5
 50
270
 51
0
  0
ARC
  8
_0-1_
  6
PHANTOM1
 62
  152
 10
120.25910020752229
 20
36.020236612244673
 40
0.5
 50
0
 51
90
  0
ARC
  8
_0-1_
  6
PHANTOM1
 62
  152
 10
122.07713151855745
 20
34.1202369937144
 40
0.5
 50
243.43493652343753
 51
270
  0
ARC
  8
_0-1_
  6
PHANTOM1
 62
  152
 10
98.759098300173662
 20
10.802203775330611
 40
0.5
 50
359.99998474121088
 51
26.565048217773398
  0
ARC
  8
_0-1_
  6
PHANTOM1
 62
  152
 10
96.859098681643388
 20
12.620235086365767
 40
0.5
 50
180
 51
270
  0
ARC
  8
_0-1_
  6
PHANTOM1
 62
  152
 10
111.85909868164339
 20
12.620235086365767
 40
0.5
 50
270
 51
0
  0
ARC
  8
_0-1_
  6
PHANTOM1
 62
  152
 10
109.95909906311311
 20
10.802203775330611
 40
0.5
 50
153.43493652343753
 51
180.00000000000003
  0
ARC
  8
_0-1_
  6
PHANTOM1
 62
  152
 10
96.859098681643388
 20
16.813129068299361
 40
0.5
 50
135
 51
180
  0
ARC
  8
_0-1_
  6
PHANTOM1
 62
  152
 10
98.066205271914384
 20
18.020236612244673
 40
0.5
 50
90
 51
135
  0
ARC
  8
_0-1_
  6
PHANTOM1
 62
  152
 10
110.65199113769808
 20
18.020236612244673
 40
0.5
 50
45.00000000000005
 51
90.000000000000057
  0
ARC
  8
_0-1_
  6
PHANTOM1
 62
  152
 10
111.85909868164339
 20
16.813129068299361
 40
0.5
 50
0
 51
45
  0
ARC
  8
_0-1_
  6
PHANTOM1
 62
  152
 10
116.0662062255887
 20
21.020236612244673
 40
0.5
 50
225
 51
270
  0
ARC
  8
_0-1_
  6
PHANTOM1
 62
  152
 10
114.85909868164339
 20
22.227344156189986
 40
0.5
 50
180
 51
224.99998474121097
  0
ARC
  8
_0-1_
  6
PHANTOM1
 62
  152
 10
114.85909868164339
 20
34.813130021973677
 40
0.5
 50
135
 51
180
  0
ARC
  8
_0-1_
  6
PHANTOM1
 62
  152
 10
116.0662062255887
 20
36.020236612244673
 40
0.5
 50
90
 51
135
  0
ARC
  8
_0-1_
  6
PHANTOM1
 62
  152
 10
111.85909868164339
 20
40.227343202515669
 40
0.5
 50
315
 51
0
  0
ARC
  8
_0-1_
  6
PHANTOM1
 62
  152
 10
110.65199113769808
 20
39.020236612244673
 40
0.5
 50
270
 51
315
  0
ARC
  8
_0-1_
  6
PHANTOM1
 62
  152
 10
98.066205271914384
 20
39.020236612244673
 40
0.5
 50
225
 51
270
  0
ARC
  8
_0-1_
  6
PHANTOM1
 62
  152
 10
96.859098681643388
 20
40.227343202515669
 40
0.5
 50
180
 51
225
  0
ARC
  8
_0-1_
  6
PHANTOM1
 62
  152
 10
92.651992091372392
 20
21.020236612244673
 40
0.5
 50
270
 51
315
  0
ARC
  8
_0-1_
  6
PHANTOM1
 62
  152
 10
93.859098681643388
 20
22.227344156189986
 40
0.5
 50
315
 51
0
  0
ARC
  8
_0-1_
  6
PHANTOM1
 62
  152
 10
93.859098681643388
 20
34.813130021973677
 40
0.5
 50
0
 51
45
  0
ARC
  8
_0-1_
  6
PHANTOM1
 62
  152
 10
92.651992091372392
 20
36.020236612244673
 40
0.5
 50
45.00000000000005
 51
90.000000000000057
  0
LINE
  8
_0-1_
  6
PHANTOM1
 62
  152
 10
114.35909868164339
 20
22.227344156189986
 11
114.35909868164339
 21
34.813130021973677
  0
LINE
  8
_0-1_
  6
PHANTOM1
 62
  152
 10
94.359098681643388
 20
22.227344156189986
 11
94.359098681643388
 21
34.813130021973677
  0
LINE
  8
_0-2_
  6
CONTINUOUS
 62
  152
 10
123.64754318005333
 20
63.220236352735355
 11
123.64754318005333
 21
53.820236734205082
  0
LINE
  8
_0-2_
  6
CONTINUOUS
 62
  152
 10
123.35909875041733
 20
60.220236591153935
 11
113.35909875041733
 21
60.220236591153935
  0
LINE
  8
_0-2_
  6
CONTINUOUS
 62
  152
 10
123.35909875041733
 20
56.820236495786503
 11
113.35909875041733
 21
56.820236495786503
  0
LINE
  8
_0-2_
  6
CONTINUOUS
 62
  152
 10
113.65909894115219
 20
60.520236543470219
 11
113.65909894115219
 21
56.520236543470219
  0
LINE
  8
ADD_LINE
  6
DOT
 62
    9
 10
123.35909875041733
 20
58.520236543470219
 11
122.65199196923066
 21
57.813129762283552
  0
LINE
  8
ADD_LINE
  6
DOT
 62
    9
 10
123.35909875041733
 20
58.520236543470219
 11
122.65199196923066
 21
59.227343324656886
  0
LINE
  8
_0-2_
  6
CONTINUOUS
 62
   56
 10
123.64754318005333
 20
63.220236352735355
 11
123.35909875041733
 21
63.220236352735355
  0
LINE
  8
_0-2_
  6
CONTINUOUS
 62
   56
 10
123.64754318005333
 20
53.820236734205082
 11
123.35909875041733
 21
53.820236734205082
  0
LINE
  8
_0-2_
  6
CONTINUOUS
 62
   56
 10
123.35909875041733
 20
56.520236543470219
 11
113.65909894115219
 21
56.520236543470219
  0
LINE
  8
_0-2_
  6
CONTINUOUS
 62
   56
 10
113.35909875041733
 20
56.820236495786503
 11
113.65909894115219
 21
56.520236543470219
  0
LINE
  8
_0-2_
  6
CONTINUOUS
 62
   56
 10
113.35909875041733
 20
60.220236591153935
 11
113.35909875041733
 21
56.820236495786503
  0
LINE
  8
_0-2_
  6
CONTINUOUS
 62
   56
 10
113.35909875041733
 20
60.220236591153935
 11
113.65909894115219
 21
60.520236543470219
  0
LINE
  8
_0-2_
  6
CONTINUOUS
 62
   56
 10
123.35909875041733
 20
60.520236543470219
 11
113.65909894115219
 21
60.520236543470219
  0
ARC
  8
_0-2_
  6
CONTINUOUS
 62
   56
 10
119.75909884578476
 20
58.520236543470219
 40
6.0999999046325684
 50
309.60191345214844
 51
50.398071289062507
  0
LINE
  8
_0-2_
  6
CONTINUOUS
 62
   56
 10
123.35909875045337
 20
63.220236352735355
 11
123.35909875045337
 21
53.820236734205082
  0
LINE
  8
_0-1_
  6
PHANTOM1
 62
  152
 10
118.35909875041733
 20
49.020236612244673
 11
123.35909875041733
 21
49.020236612244673
  0
LINE
  8
_0-1_
  6
PHANTOM1
 62
  152
 10
118.35909875041733
 20
49.020236612244673
 11
118.35909875041733
 21
77.83803767226442
  0
LINE
  8
_0-1_
  6
PHANTOM1
 62
  152
 10
123.35909875041733
 20
49.020236612244673
 11
123.35909875041733
 21
77.83803767226442
  0
LINE
  8
_0-2_
  6
CONTINUOUS
 62
  152
 10
115.64754318005333
 20
158.5915912871377
 11
115.64754318005333
 21
149.19159166860743
  0
LINE
  8
_0-2_
  6
CONTINUOUS
 62
  152
 10
115.35909875041733
 20
155.59159152555628
 11
105.35909875041733
 21
155.59159152555628
  0
LINE
  8
_0-2_
  6
CONTINUOUS
 62
  152
 10
115.35909875041733
 20
152.19159143018885
 11
105.35909875041733
 21
152.19159143018885
  0
LINE
  8
_0-2_
  6
CONTINUOUS
 62
  152
 10
105.65909894115219
 20
155.89159147787257
 11
105.65909894115219
 21
151.89159147787257
  0
LINE
  8
ADD_LINE
  6
DOT
 62
    9
 10
115.35909875041733
 20
153.89159147787257
 11
114.65199196923066
 21
153.1844846966859
  0
LINE
  8
ADD_LINE
  6
DOT
 62
    9
 10
115.35909875041733
 20
153.89159147787257
 11
114.65199196923066
 21
154.59869825905923
  0
LINE
  8
_0-2_
  6
CONTINUOUS
 62
   56
 10
115.64754318005333
 20
158.5915912871377
 11
115.35909875041733
 21
158.5915912871377
  0
LINE
  8
_0-2_
  6
CONTINUOUS
 62
   56
 10
115.64754318005333
 20
149.19159166860743
 11
115.35909875041733
 21
149.19159166860743
  0
LINE
  8
_0-2_
  6
CONTINUOUS
 62
   56
 10
115.35909875041733
 20
151.89159147787257
 11
105.65909894115219
 21
151.89159147787257
  0
LINE
  8
_0-2_
  6
CONTINUOUS
 62
   56
 10
105.35909875041733
 20
152.19159143018885
 11
105.65909894115219
 21
151.89159147787257
  0
LINE
  8
_0-2_
  6
CONTINUOUS
 62
   56
 10
105.35909875041733
 20
155.59159152555628
 11
105.35909875041733
 21
152.19159143018885
  0
LINE
  8
_0-2_
  6
CONTINUOUS
 62
   56
 10
105.35909875041733
 20
155.59159152555628
 11
105.65909894115219
 21
155.89159147787257
  0
LINE
  8
_0-2_
  6
CONTINUOUS
 62
   56
 10
115.35909875041733
 20
155.89159147787257
 11
105.65909894115219
 21
155.89159147787257
  0
ARC
  8
_0-2_
  6
CONTINUOUS
 62
   56
 10
111.75909884578476
 20
153.89159147787257
 40
6.0999999046325684
 50
309.60191345214844
 51
50.398071289062507
  0
LINE
  8
_0-2_
  6
CONTINUOUS
 62
   56
 10
115.35909875045337
 20
158.5915912871377
 11
115.35909875045337
 21
149.19159166860743
  0
LINE
  8
_0-1_
  6
PHANTOM1
 62
  152
 10
110.35909875041733
 20
144.39159154664702
 11
115.35909875041733
 21
144.39159154664702
  0
LINE
  8
_0-1_
  6
PHANTOM1
 62
  152
 10
110.35909875041733
 20
144.39159154664702
 11
110.35909875041733
 21
173.20939260666677
  0
LINE
  8
_0-1_
  6
PHANTOM1
 62
  152
 10
115.35909875041733
 20
144.39159154664702
 11
115.35909875041733
 21
173.20939260666677
  0
LINE
  8
_0-0_
  6
CONTINUOUS
 62
    7
 10
253.34595263727118
 20
159.89159147787257
 11
248.34595263727118
 21
159.89159147787257
  0
LINE
  8
_0-0_
  6
CONTINUOUS
 62
    7
 10
247.84595263727118
 20
159.39159147787257
 11
247.84595263727118
 21
137.59159147787238
  0
LINE
  8
_0-0_
  6
CONTINUOUS
 62
    7
 10
247.99240263727137
 20
137.94514147787265
 11
249.699502637271
 21
136.23803147787237
  0
LINE
  8
_0-0_
  6
CONTINUOUS
 62
    7
 10
250.05306263727101
 20
136.09159147787284
 11
255.34595263727118
 21
136.09159147787284
  0
LINE
  8
_0-0_
  6
CONTINUOUS
 62
    7
 10
255.84595263727118
 20
136.59159147787238
 11
255.84595263727118
 21
138.38448147787255
  0
LINE
  8
_0-0_
  6
CONTINUOUS
 62
    7
 10
255.69950263727122
 20
138.73803147787237
 11
254.49240263727114
 21
139.94514147787265
  0
LINE
  8
_0-0_
  6
CONTINUOUS
 62
    7
 10
254.13884263727135
 20
140.09159147787238
 11
253.44595263727109
 21
140.09159147787238
  0
LINE
  8
_0-0_
  6
CONTINUOUS
 62
    7
 10
252.94595263727109
 20
140.59159147787238
 11
252.94595263727109
 21
143.59159147787284
  0
LINE
  8
_0-0_
  6
CONTINUOUS
 62
    7
 10
253.24595263727127
 20
143.89159147787257
 11
253.545952637271
 21
143.89159147787257
  0
LINE
  8
_0-0_
  6
CONTINUOUS
 62
    7
 10
253.84595263727118
 20
144.19159147787275
 11
253.84595263727118
 21
149.58707147787288
  0
LINE
  8
_0-0_
  6
CONTINUOUS
 62
    7
 10
253.84595263727118
 20
149.58707147787288
 11
253.545952637271
 21
149.88707147787261
  0
LINE
  8
_0-0_
  6
CONTINUOUS
 62
    7
 10
253.545952637271
 20
149.88707147787261
 11
253.84595263727118
 21
150.18707147787234
  0
LINE
  8
_0-0_
  6
CONTINUOUS
 62
    7
 10
253.84595263727118
 20
150.18707147787234
 11
253.84595263727118
 21
153.59159147787284
  0
LINE
  8
_0-0_
  6
CONTINUOUS
 62
    7
 10
253.84595263727118
 20
153.59159147787284
 11
253.545952637271
 21
153.89159147787257
  0
LINE
  8
_0-0_
  6
CONTINUOUS
 62
    7
 10
253.545952637271
 20
153.89159147787257
 11
253.84595263727118
 21
154.19159147787275
  0
LINE
  8
_0-0_
  6
CONTINUOUS
 62
    7
 10
253.84595263727118
 20
154.19159147787275
 11
253.84595263727118
 21
159.39159147787257
  0
LINE
  8
_0-0_
  6
CONTINUOUS
 62
    7
 10
247.34595263727118
 20
142.89159147787257
 11
246.67987263727122
 21
142.89159147787257
  0
LINE
  8
_0-0_
  6
CONTINUOUS
 62
    7
 10
246.42986263727124
 20
142.82460147787276
 11
245.79594263727125
 21
142.45859147787257
  0
LINE
  8
_0-0_
  6
CONTINUOUS
 62
    7
 10
245.295952637271
 20
142.45858147787283
 11
244.66190263727111
 21
142.82461147787296
  0
LINE
  8
_0-0_
  6
CONTINUOUS
 62
    7
 10
244.41192263727129
 20
142.89159147787257
 11
243.75497263727124
 21
142.89159147787257
  0
LINE
  8
_0-0_
  6
CONTINUOUS
 62
    7
 10
243.30775263727122
 20
142.61519147787237
 11
240.90775263727113
 21
137.81519147787265
  0
LINE
  8
_0-0_
  6
CONTINUOUS
 62
    7
 10
241.35497263727115
 20
137.09159147787284
 11
247.34595263727118
 21
137.09159147787284
  0
LINE
  8
_0-0_
  6
CONTINUOUS
 62
    7
 10
247.045952637271
 20
137.09159147787284
 11
247.045952637271
 21
134.39159147787257
  0
LINE
  8
_0-0_
  6
CONTINUOUS
 62
    7
 10
247.045952637271
 20
134.39159147787257
 11
246.545952637271
 21
133.89159147787257
  0
LINE
  8
_0-0_
  6
CONTINUOUS
 62
    7
 10
246.545952637271
 20
133.89159147787257
 11
244.545952637271
 21
133.89159147787257
  0
LINE
  8
_0-0_
  6
CONTINUOUS
 62
    7
 10
244.545952637271
 20
133.89159147787257
 11
244.045952637271
 21
134.39159147787257
  0
LINE
  8
_0-0_
  6
CONTINUOUS
 62
    7
 10
244.045952637271
 20
134.39159147787257
 11
244.045952637271
 21
137.09159147787284
  0
ARC
  8
_0-0_
  6
CONTINUOUS
 62
    7
 10
241.35497263727115
 20
137.59159147787238
 40
0.5
 50
153.43494000000001
 51
270
  0
ARC
  8
_0-0_
  6
CONTINUOUS
 62
    7
 10
248.34595263727118
 20
159.39159147787257
 40
0.5
 50
90
 51
180
  0
ARC
  8
_0-0_
  6
CONTINUOUS
 62
    7
 10
253.34595263727118
 20
159.39159147787257
 40
0.5
 50
0
 51
90
  0
ARC
  8
_0-0_
  6
CONTINUOUS
 62
    7
 10
253.44595263727109
 20
140.59159147787238
 40
0.5
 50
180
 51
270
  0
ARC
  8
_0-0_
  6
CONTINUOUS
 62
    7
 10
254.13884263727135
 20
139.59159147787284
 40
0.5
 50
45
 51
90
  0
ARC
  8
_0-0_
  6
CONTINUOUS
 62
    7
 10
255.34595263727118
 20
138.38448147787255
 40
0.5
 50
0
 51
45
  0
ARC
  8
_0-0_
  6
CONTINUOUS
 62
    7
 10
255.34595263727118
 20
136.59159147787238
 40
0.5
 50
270
 51
0
  0
ARC
  8
_0-0_
  6
CONTINUOUS
 62
    7
 10
250.05306263727101
 20
136.59159147787238
 40
0.5
 50
225
 51
270
  0
ARC
  8
_0-0_
  6
CONTINUOUS
 62
    7
 10
248.34595263727118
 20
138.29869147787247
 40
0.5
 50
180
 51
225
  0
ARC
  8
_0-0_
  6
CONTINUOUS
 62
    7
 10
247.34595263727118
 20
137.59159147787238
 40
0.5
 50
270
 51
0
  0
ARC
  8
_0-0_
  6
CONTINUOUS
 62
    7
 10
247.34595263727118
 20
142.39159147787257
 40
0.5
 50
0
 51
90
  0
ARC
  8
_0-0_
  6
CONTINUOUS
 62
    7
 10
246.67987263727122
 20
142.39159147787257
 40
0.5
 50
90
 51
120.00068
  0
ARC
  8
_0-0_
  6
CONTINUOUS
 62
    7
 10
245.54593263727105
 20
142.89160147787277
 40
0.5
 50
240.00262000000001
 51
300.00067999999999
  0
ARC
  8
_0-0_
  6
CONTINUOUS
 62
    7
 10
244.41192263727129
 20
142.39159147787257
 40
0.5
 50
60.002623
 51
90
  0
ARC
  8
_0-0_
  6
CONTINUOUS
 62
    7
 10
243.75497263727124
 20
142.39159147787257
 40
0.5
 50
90
 51
153.43494000000001
  0
ARC
  8
_0-0_
  6
CONTINUOUS
 62
    7
 10
253.545952637271
 20
144.19159147787275
 40
0.2999999999999998
 50
270
 51
0
  0
ARC
  8
_0-0_
  6
CONTINUOUS
 62
    7
 10
253.24595263727127
 20
143.59159147787284
 40
0.2999999999999998
 50
90
 51
180
  0
LINE
  8
_0-0_
  6
CONTINUOUS
 62
    7
 10
255.34595263727118
 20
40.720236543470435
 11
250.05305263727126
 21
40.720236543470435
  0
LINE
  8
_0-0_
  6
CONTINUOUS
 62
    7
 10
249.699502637271
 20
40.866676543470419
 11
247.99239263727117
 21
42.573786543470248
  0
LINE
  8
_0-0_
  6
CONTINUOUS
 62
    7
 10
247.84595263727118
 20
42.220236543470435
 11
247.84595263727118
 21
50.313126543470389
  0
LINE
  8
_0-0_
  6
CONTINUOUS
 62
    7
 10
247.99239263727117
 20
50.666676543470658
 11
249.699502637271
 21
52.373786543470487
  0
LINE
  8
_0-0_
  6
CONTINUOUS
 62
    7
 10
250.05305263727126
 20
52.520236543470219
 11
256.34595263727073
 21
52.520236543470219
  0
LINE
  8
_0-0_
  6
CONTINUOUS
 62
    7
 10
256.84595263727118
 20
53.020236543470673
 11
256.84595263727118
 21
64.020236543470219
  0
LINE
  8
_0-0_
  6
CONTINUOUS
 62
    7
 10
257.34595263727118
 20
64.520236543470673
 11
261.34595263727073
 21
64.520236543470673
  0
LINE
  8
_0-0_
  6
CONTINUOUS
 62
    7
 10
261.84595263727118
 20
64.020236543470219
 11
261.84595263727118
 21
58.820236543470401
  0
LINE
  8
_0-0_
  6
CONTINUOUS
 62
    7
 10
261.84595263727118
 20
58.820236543470401
 11
261.545952637271
 21
58.520236543470219
  0
LINE
  8
_0-0_
  6
CONTINUOUS
 62
    7
 10
261.545952637271
 20
58.520236543470219
 11
261.84595263727118
 21
58.220236543470492
  0
LINE
  8
_0-0_
  6
CONTINUOUS
 62
    7
 10
261.84595263727118
 20
58.220236543470492
 11
261.84595263727118
 21
54.815716543470444
  0
LINE
  8
_0-0_
  6
CONTINUOUS
 62
    7
 10
261.84595263727118
 20
54.815716543470444
 11
261.545952637271
 21
54.515716543470717
  0
LINE
  8
_0-0_
  6
CONTINUOUS
 62
    7
 10
261.545952637271
 20
54.515716543470717
 11
261.84595263727118
 21
54.215716543470535
  0
LINE
  8
_0-0_
  6
CONTINUOUS
 62
    7
 10
261.84595263727118
 20
54.215716543470535
 11
261.84595263727118
 21
49.020236543470219
  0
LINE
  8
_0-0_
  6
CONTINUOUS
 62
    7
 10
261.34595263727073
 20
48.520236543470219
 11
253.44595263727109
 21
48.520236543470219
  0
LINE
  8
_0-0_
  6
CONTINUOUS
 62
    7
 10
252.94595263727109
 20
48.020236543470673
 11
252.94595263727109
 21
45.220236543470435
  0
LINE
  8
_0-0_
  6
CONTINUOUS
 62
    7
 10
253.44595263727109
 20
44.720236543470435
 11
254.1388426372709
 21
44.720236543470435
  0
LINE
  8
_0-0_
  6
CONTINUOUS
 62
    7
 10
254.49239263727071
 20
44.573786543470703
 11
255.699502637271
 21
43.366676543470419
  0
LINE
  8
_0-0_
  6
CONTINUOUS
 62
    7
 10
255.84595263727073
 20
43.013126543470605
 11
255.84595263727073
 21
41.220236543470435
  0
LINE
  8
_0-0_
  6
CONTINUOUS
 62
    7
 10
247.34595263727118
 20
41.720236543470435
 11
241.35496263727094
 21
41.720236543470435
  0
LINE
  8
_0-0_
  6
CONTINUOUS
 62
    7
 10
240.90775263727113
 20
42.443846543470443
 11
243.30775263727122
 21
47.243846543470227
  0
LINE
  8
_0-0_
  6
CONTINUOUS
 62
    7
 10
243.75496263727103
 20
47.520236543470219
 11
244.41191263727109
 21
47.520236543470219
  0
LINE
  8
_0-0_
  6
CONTINUOUS
 62
    7
 10
244.66189263727114
 20
47.453256543470161
 11
245.295952637271
 21
47.087226543470479
  0
LINE
  8
_0-0_
  6
CONTINUOUS
 62
    7
 10
245.7959426372708
 20
47.087236543470681
 11
246.42986263727101
 21
47.453246543470414
  0
LINE
  8
_0-0_
  6
CONTINUOUS
 62
    7
 10
246.67986263727101
 20
47.520236543470219
 11
247.34595263727118
 21
47.520236543470219
  0
LINE
  8
_0-0_
  6
CONTINUOUS
 62
    7
 10
247.045952637271
 20
41.720236543470435
 11
247.045952637271
 21
39.020236543470162
  0
LINE
  8
_0-0_
  6
CONTINUOUS
 62
    7
 10
247.045952637271
 20
39.020236543470162
 11
246.545952637271
 21
38.520236543470162
  0
LINE
  8
_0-0_
  6
CONTINUOUS
 62
    7
 10
246.545952637271
 20
38.520236543470162
 11
244.545952637271
 21
38.520236543470162
  0
LINE
  8
_0-0_
  6
CONTINUOUS
 62
    7
 10
244.545952637271
 20
38.520236543470162
 11
244.045952637271
 21
39.020236543470162
  0
LINE
  8
_0-0_
  6
CONTINUOUS
 62
    7
 10
244.045952637271
 20
39.020236543470162
 11
244.045952637271
 21
41.720236543470435
  0
ARC
  8
_0-0_
  6
CONTINUOUS
 62
    7
 10
261.34595263727073
 20
49.020236543470219
 40
0.5
 50
270
 51
0
  0
ARC
  8
_0-0_
  6
CONTINUOUS
 62
    7
 10
255.34595263727118
 20
41.220236543470435
 40
0.5
 50
270
 51
0
  0
ARC
  8
_0-0_
  6
CONTINUOUS
 62
    7
 10
250.05305263727126
 20
41.220236543470435
 40
0.5
 50
225
 51
270
  0
ARC
  8
_0-0_
  6
CONTINUOUS
 62
    7
 10
248.34595263727073
 20
42.927336543470517
 40
0.5
 50
180
 51
225
  0
ARC
  8
_0-0_
  6
CONTINUOUS
 62
    7
 10
248.34595263727073
 20
50.313126543470389
 40
0.5
 50
135
 51
180
  0
ARC
  8
_0-0_
  6
CONTINUOUS
 62
    7
 10
250.05305263727126
 20
52.020236543470673
 40
0.5
 50
90
 51
135
  0
ARC
  8
_0-0_
  6
CONTINUOUS
 62
    7
 10
256.34595263727073
 20
53.020236543470673
 40
0.5
 50
270
 51
0
  0
ARC
  8
_0-0_
  6
CONTINUOUS
 62
    7
 10
257.34595263727118
 20
64.020236543470219
 40
0.5
 50
90
 51
180
  0
ARC
  8
_0-0_
  6
CONTINUOUS
 62
    7
 10
261.34595263727073
 20
64.020236543470219
 40
0.5
 50
0
 51
90
  0
ARC
  8
_0-0_
  6
CONTINUOUS
 62
    7
 10
253.44595263727109
 20
48.020236543470673
 40
0.5
 50
90
 51
180
  0
ARC
  8
_0-0_
  6
CONTINUOUS
 62
    7
 10
253.44595263727109
 20
45.220236543470435
 40
0.5
 50
180
 51
270
  0
ARC
  8
_0-0_
  6
CONTINUOUS
 62
    7
 10
254.1388426372709
 20
44.220236543470435
 40
0.5
 50
45
 51
90
  0
ARC
  8
_0-0_
  6
CONTINUOUS
 62
    7
 10
255.34595263727118
 20
43.013126543470605
 40
0.5
 50
0
 51
45
  0
ARC
  8
_0-0_
  6
CONTINUOUS
 62
    7
 10
247.34595263727118
 20
42.220236543470435
 40
0.5
 50
270
 51
0
  0
ARC
  8
_0-0_
  6
CONTINUOUS
 62
    7
 10
243.75496263727103
 20
47.020236543470673
 40
0.5
 50
90
 51
153.43494000000001
  0
ARC
  8
_0-0_
  6
CONTINUOUS
 62
    7
 10
244.41191263727109
 20
47.020236543470673
 40
0.5
 50
60.002623
 51
90
  0
ARC
  8
_0-0_
  6
CONTINUOUS
 62
    7
 10
245.54593263727105
 20
47.520246543470421
 40
0.5
 50
240.00262000000001
 51
300.00067999999999
  0
ARC
  8
_0-0_
  6
CONTINUOUS
 62
    7
 10
246.67986263727101
 20
47.020236543470673
 40
0.5
 50
90
 51
120.00068
  0
ARC
  8
_0-0_
  6
CONTINUOUS
 62
    7
 10
247.34595263727118
 20
47.020236543470673
 40
0.5
 50
0
 51
90
  0
ARC
  8
_0-0_
  6
CONTINUOUS
 62
    7
 10
241.35496263727094
 20
42.220236543470435
 40
0.5
 50
153.43494000000001
 51
270
  0
LINE
  8
_0-1_
  6
CONTINUOUS
 62
  152
 10
244.545952637271
 20
137.09159147787284
 11
244.545952637271
 21
133.89159147787257
  0
LINE
  8
_0-1_
  6
CONTINUOUS
 62
  152
 10
244.045952637271
 20
134.39159147787257
 11
247.045952637271
 21
134.39159147787257
  0
LINE
  8
_0-1_
  6
CONTINUOUS
 62
  152
 10
246.545952637271
 20
133.89159147787257
 11
246.545952637271
 21
137.09159147787284
  0
LINE
  8
_0-1_
  6
CENTER2
 62
  152
 10
245.54595263727123
 20
133.89159147787257
 11
245.54595263727123
 21
142.89159147787257
  0
LINE
  8
_0-1_
  6
CENTER2
 62
  152
 10
247.84595263727164
 20
128.89156147787241
 11
247.84595263727164
 21
118.89156147787241
  0
LINE
  8
_0-1_
  6
CENTER2
 62
  152
 10
242.84598263727156
 20
123.89159147787257
 11
252.84593263727169
 21
123.89159147787257
  0
LINE
  8
_0-1_
  6
PHANTOM1
 62
  152
 10
227.84595256849724
 20
118.29159116517735
 11
227.84595256849724
 21
105.39159154664708
  0
LINE
  8
_0-1_
  6
PHANTOM1
 62
  152
 10
227.84595256849724
 20
129.4915919281168
 11
227.84595256849724
 21
142.39159154664708
  0
LINE
  8
_0-1_
  6
PHANTOM1
 62
  152
 10
242.24595218702751
 20
143.89159154664708
 11
229.34595256849724
 21
143.89159154664708
  0
LINE
  8
_0-1_
  6
PHANTOM1
 62
  152
 10
253.44595294996697
 20
143.89159154664708
 11
266.34595256849724
 21
143.89159154664708
  0
LINE
  8
_0-1_
  6
PHANTOM1
 62
  152
 10
267.84595256849724
 20
129.4915919281168
 11
267.84595256849724
 21
142.39159154664708
  0
LINE
  8
_0-1_
  6
PHANTOM1
 62
  152
 10
267.84595256849724
 20
118.29159116517735
 11
267.84595256849724
 21
105.39159154664708
  0
LINE
  8
_0-1_
  6
PHANTOM1
 62
  152
 10
253.44595294996697
 20
103.89159154664708
 11
266.34595256849724
 21
103.89159154664708
  0
LINE
  8
_0-1_
  6
PHANTOM1
 62
  152
 10
242.24595218702751
 20
103.89159154664708
 11
229.34595256849724
 21
103.89159154664708
  0
LINE
  8
_0-1_
  6
PHANTOM1
 62
  152
 10
230.12791853949028
 20
118.79159116517735
 11
228.34595256849724
 21
118.79159116517735
  0
LINE
  8
_0-1_
  6
PHANTOM1
 62
  152
 10
230.35152536436516
 20
118.73880529176427
 11
231.16955929800469
 21
118.32978772889805
  0
LINE
  8
_0-1_
  6
PHANTOM1
 62
  152
 10
230.12791853949028
 20
128.9915919281168
 11
228.34595256849724
 21
128.9915919281168
  0
LINE
  8
_0-1_
  6
PHANTOM1
 62
  152
 10
230.35152536436516
 20
129.04437780152989
 11
231.16955929800469
 21
129.4533953643961
  0
LINE
  8
_0-1_
  6
PHANTOM1
 62
  152
 10
231.44595247312981
 20
131.39159154664708
 11
231.44595247312981
 21
129.9006085373087
  0
LINE
  8
_0-1_
  6
PHANTOM1
 62
  152
 10
231.44595247312981
 20
116.39159154664708
 11
231.44595247312981
 21
117.88257360231114
  0
LINE
  8
_0-1_
  6
PHANTOM1
 62
  152
 10
242.74595218702751
 20
141.60962557565404
 11
242.74595218702751
 21
143.39159154664708
  0
LINE
  8
_0-1_
  6
PHANTOM1
 62
  152
 10
242.69316631361443
 20
141.38601875077916
 11
242.28414875074822
 21
140.56798481713963
  0
LINE
  8
_0-1_
  6
PHANTOM1
 62
  152
 10
240.34595256849724
 20
140.29159164201451
 11
241.83693557783562
 21
140.29159164201451
  0
LINE
  8
_0-1_
  6
PHANTOM1
 62
  152
 10
255.34595256849724
 20
140.29159164201451
 11
253.85497051283318
 21
140.29159164201451
  0
LINE
  8
_0-1_
  6
PHANTOM1
 62
  152
 10
252.99873882338005
 20
141.38601875077916
 11
253.40775638624626
 21
140.56798481713963
  0
LINE
  8
_0-1_
  6
PHANTOM1
 62
  152
 10
252.94595294996697
 20
141.60962557565404
 11
252.94595294996697
 21
143.39159154664708
  0
LINE
  8
_0-1_
  6
PHANTOM1
 62
  152
 10
265.5639854054113
 20
118.79159116517735
 11
267.34595256849724
 21
118.79159116517735
  0
LINE
  8
_0-1_
  6
PHANTOM1
 62
  152
 10
265.34037929579216
 20
118.73880529176427
 11
264.52234417005974
 21
118.32978772889805
  0
LINE
  8
_0-1_
  6
PHANTOM1
 62
  152
 10
264.24595409437615
 20
116.39159154664708
 11
264.24595409437615
 21
117.88257360231114
  0
LINE
  8
_0-1_
  6
PHANTOM1
 62
  152
 10
264.24595409437615
 20
131.39159154664708
 11
264.24595409437615
 21
129.9006085373087
  0
LINE
  8
_0-1_
  6
PHANTOM1
 62
  152
 10
265.34037929579216
 20
129.04437780152989
 11
264.52234417005974
 21
129.4533953643961
  0
LINE
  8
_0-1_
  6
PHANTOM1
 62
  152
 10
265.5639854054113
 20
128.9915919281168
 11
267.34595256849724
 21
128.9915919281168
  0
LINE
  8
_0-1_
  6
PHANTOM1
 62
  152
 10
242.74595218702751
 20
106.17355870973302
 11
242.74595218702751
 21
104.39159154664708
  0
LINE
  8
_0-1_
  6
PHANTOM1
 62
  152
 10
242.69316631361443
 20
106.39716481935216
 11
242.28414875074822
 21
107.21519994508458
  0
LINE
  8
_0-1_
  6
PHANTOM1
 62
  152
 10
240.34595256849724
 20
107.49159002076817
 11
241.83693557783562
 21
107.49159002076817
  0
LINE
  8
_0-1_
  6
PHANTOM1
 62
  152
 10
255.34595256849724
 20
107.49159002076817
 11
253.85497051283318
 21
107.49159002076817
  0
LINE
  8
_0-1_
  6
PHANTOM1
 62
  152
 10
252.99873882338005
 20
106.39716481935216
 11
253.40775638624626
 21
107.21519994508458
  0
LINE
  8
_0-1_
  6
PHANTOM1
 62
  152
 10
252.94595294996697
 20
106.17355870973302
 11
252.94595294996697
 21
104.39159154664708
  0
LINE
  8
_0-1_
  6
PHANTOM1
 62
  152
 10
239.84595256849724
 20
112.18448400270177
 11
239.84595256849724
 21
107.99159002076817
  0
LINE
  8
_0-1_
  6
PHANTOM1
 62
  152
 10
241.1995063404699
 20
113.74514531861973
 11
239.99239879652458
 21
112.53803777467442
  0
LINE
  8
_0-1_
  6
PHANTOM1
 62
  152
 10
254.13884502455193
 20
113.89159154664708
 11
241.55305915876824
 21
113.89159154664708
  0
LINE
  8
_0-1_
  6
PHANTOM1
 62
  152
 10
255.6995063404699
 20
112.53803777467442
 11
254.49239879652458
 21
113.74514531861973
  0
LINE
  8
_0-1_
  6
PHANTOM1
 62
  152
 10
255.84595256849724
 20
112.18448400270177
 11
255.84595256849724
 21
107.99159002076817
  0
LINE
  8
_0-1_
  6
PHANTOM1
 62
  152
 10
259.55306011244255
 20
115.89159154664708
 11
263.74595409437615
 21
115.89159154664708
  0
LINE
  8
_0-1_
  6
PHANTOM1
 62
  152
 10
257.99239879652458
 20
117.24514531861973
 11
259.1995063404699
 21
116.03803777467442
  0
LINE
  8
_0-1_
  6
PHANTOM1
 62
  152
 10
259.1995063404699
 20
131.74514531861973
 11
257.99239879652458
 21
130.53803777467442
  0
LINE
  8
_0-1_
  6
PHANTOM1
 62
  152
 10
259.55306011244255
 20
131.89159154664708
 11
263.74595409437615
 21
131.89159154664708
  0
LINE
  8
_0-1_
  6
PHANTOM1
 62
  152
 10
255.84595256849724
 20
135.59869813691807
 11
255.84595256849724
 21
139.79159164201451
  0
LINE
  8
_0-1_
  6
PHANTOM1
 62
  152
 10
254.49239879652458
 20
134.03803777467442
 11
255.6995063404699
 21
135.24514531861973
  0
LINE
  8
_0-1_
  6
PHANTOM1
 62
  152
 10
241.55305915876824
 20
133.89159154664708
 11
254.13884502455193
 21
133.89159154664708
  0
LINE
  8
_0-1_
  6
PHANTOM1
 62
  152
 10
239.99239879652458
 20
135.24514531861973
 11
241.1995063404699
 21
134.03803777467442
  0
LINE
  8
_0-1_
  6
PHANTOM1
 62
  152
 10
239.84595256849724
 20
135.59869813691807
 11
239.84595256849724
 21
139.79159164201451
  0
LINE
  8
_0-1_
  6
PHANTOM1
 62
  152
 10
236.13884597822624
 20
115.89159154664708
 11
231.94595247312981
 21
115.89159154664708
  0
LINE
  8
_0-1_
  6
PHANTOM1
 62
  152
 10
237.6995063404699
 20
117.24514531861973
 11
236.49239879652458
 21
116.03803777467442
  0
LINE
  8
_0-1_
  6
PHANTOM1
 62
  152
 10
236.49239879652458
 20
131.74514531861973
 11
237.6995063404699
 21
130.53803777467442
  0
LINE
  8
_0-1_
  6
PHANTOM1
 62
  152
 10
236.13884597822624
 20
131.89159154664708
 11
231.94595247312981
 21
131.89159154664708
  0
ARC
  8
_0-1_
  6
PHANTOM1
 62
  152
 10
241.83693557783562
 20
140.79159164201451
 40
0.5
 50
270
 51
333.4349365234375
  0
ARC
  8
_0-1_
  6
PHANTOM1
 62
  152
 10
253.85497051283318
 20
140.79159164201451
 40
0.5
 50
206.56504821777344
 51
270
  0
ARC
  8
_0-1_
  6
PHANTOM1
 62
  152
 10
253.85497051283318
 20
106.99159002076817
 40
0.5
 50
90
 51
153.43493652343753
  0
ARC
  8
_0-1_
  6
PHANTOM1
 62
  152
 10
241.83693557783562
 20
106.99159002076817
 40
0.5
 50
26.56504821777343
 51
90
  0
ARC
  8
_0-1_
  6
PHANTOM1
 62
  152
 10
264.74595409437615
 20
129.9006085373087
 40
0.5
 50
180
 51
243.43493652343753
  0
ARC
  8
_0-1_
  6
PHANTOM1
 62
  152
 10
264.74595409437615
 20
117.88257360231114
 40
0.5
 50
116.56504821777345
 51
180.00000000000003
  0
ARC
  8
_0-1_
  6
PHANTOM1
 62
  152
 10
230.94595247312981
 20
117.88257360231114
 40
0.5
 50
0
 51
63.434936523437493
  0
ARC
  8
_0-1_
  6
PHANTOM1
 62
  152
 10
230.94595247312981
 20
129.9006085373087
 40
0.5
 50
296.56504821777344
 51
0
  0
ARC
  8
_0-1_
  6
PHANTOM1
 62
  152
 10
229.34595256849724
 20
105.39159154664708
 40
1.5
 50
180
 51
270
  0
ARC
  8
_0-1_
  6
PHANTOM1
 62
  152
 10
229.34595256849724
 20
142.39159154664708
 40
1.5
 50
90
 51
180
  0
ARC
  8
_0-1_
  6
PHANTOM1
 62
  152
 10
266.34595256849724
 20
142.39159154664708
 40
1.5
 50
0
 51
90
  0
ARC
  8
_0-1_
  6
PHANTOM1
 62
  152
 10
266.34595256849724
 20
105.39159154664708
 40
1.5
 50
270
 51
0
  0
ARC
  8
_0-1_
  6
PHANTOM1
 62
  152
 10
228.34595256849724
 20
118.29159116517735
 40
0.5
 50
90
 51
180
  0
ARC
  8
_0-1_
  6
PHANTOM1
 62
  152
 10
228.34595256849724
 20
129.4915919281168
 40
0.5
 50
180
 51
270
  0
ARC
  8
_0-1_
  6
PHANTOM1
 62
  152
 10
242.24595218702751
 20
143.39159154664708
 40
0.5
 50
0
 51
90
  0
ARC
  8
_0-1_
  6
PHANTOM1
 62
  152
 10
253.44595294996697
 20
143.39159154664708
 40
0.5
 50
90
 51
180
  0
ARC
  8
_0-1_
  6
PHANTOM1
 62
  152
 10
267.34595256849724
 20
129.4915919281168
 40
0.5
 50
270
 51
0
  0
ARC
  8
_0-1_
  6
PHANTOM1
 62
  152
 10
267.34595256849724
 20
118.29159116517735
 40
0.5
 50
0
 51
90
  0
ARC
  8
_0-1_
  6
PHANTOM1
 62
  152
 10
253.44595294996697
 20
104.39159154664708
 40
0.5
 50
180
 51
270
  0
ARC
  8
_0-1_
  6
PHANTOM1
 62
  152
 10
242.24595218702751
 20
104.39159154664708
 40
0.5
 50
270
 51
359.99998474121094
  0
ARC
  8
_0-1_
  6
PHANTOM1
 62
  152
 10
230.12791853949028
 20
118.29159116517735
 40
0.5
 50
63.434936523437521
 51
90.000000000000028
  0
ARC
  8
_0-1_
  6
PHANTOM1
 62
  152
 10
230.12791853949028
 20
129.4915919281168
 40
0.5
 50
270
 51
296.56504821777344
  0
ARC
  8
_0-1_
  6
PHANTOM1
 62
  152
 10
231.94595247312981
 20
131.39159154664708
 40
0.5
 50
90
 51
180
  0
ARC
  8
_0-1_
  6
PHANTOM1
 62
  152
 10
231.94595247312981
 20
116.39159154664708
 40
0.5
 50
180
 51
270
  0
ARC
  8
_0-1_
  6
PHANTOM1
 62
  152
 10
242.24595218702751
 20
141.60962557565404
 40
0.5
 50
333.4349365234375
 51
0.000000000000019
  0
ARC
  8
_0-1_
  6
PHANTOM1
 62
  152
 10
240.34595256849724
 20
139.79159164201451
 40
0.5
 50
90
 51
180
  0
ARC
  8
_0-1_
  6
PHANTOM1
 62
  152
 10
255.34595256849724
 20
139.79159164201451
 40
0.5
 50
0
 51
90
  0
ARC
  8
_0-1_
  6
PHANTOM1
 62
  152
 10
253.44595294996697
 20
141.60962557565404
 40
0.5
 50
180
 51
206.56504821777344
  0
ARC
  8
_0-1_
  6
PHANTOM1
 62
  152
 10
265.5639854054113
 20
118.29159116517735
 40
0.5
 50
90
 51
116.56504821777344
  0
ARC
  8
_0-1_
  6
PHANTOM1
 62
  152
 10
263.74595409437615
 20
116.39159154664708
 40
0.5
 50
270
 51
0
  0
ARC
  8
_0-1_
  6
PHANTOM1
 62
  152
 10
263.74595409437615
 20
131.39159154664708
 40
0.5
 50
0
 51
90
  0
ARC
  8
_0-1_
  6
PHANTOM1
 62
  152
 10
265.5639854054113
 20
129.4915919281168
 40
0.5
 50
243.43493652343753
 51
270
  0
ARC
  8
_0-1_
  6
PHANTOM1
 62
  152
 10
242.24595218702751
 20
106.17355870973302
 40
0.5
 50
359.99998474121088
 51
26.565048217773398
  0
ARC
  8
_0-1_
  6
PHANTOM1
 62
  152
 10
240.34595256849724
 20
107.99159002076817
 40
0.5
 50
180
 51
270
  0
ARC
  8
_0-1_
  6
PHANTOM1
 62
  152
 10
255.34595256849724
 20
107.99159002076817
 40
0.5
 50
270
 51
0
  0
ARC
  8
_0-1_
  6
PHANTOM1
 62
  152
 10
253.44595294996697
 20
106.17355870973302
 40
0.5
 50
153.43493652343753
 51
180.00000000000003
  0
ARC
  8
_0-1_
  6
PHANTOM1
 62
  152
 10
240.34595256849724
 20
112.18448400270177
 40
0.5
 50
135
 51
180
  0
ARC
  8
_0-1_
  6
PHANTOM1
 62
  152
 10
241.55305915876824
 20
113.39159154664708
 40
0.5
 50
90
 51
135
  0
ARC
  8
_0-1_
  6
PHANTOM1
 62
  152
 10
254.13884502455193
 20
113.39159154664708
 40
0.5
 50
45.00000000000005
 51
90.000000000000057
  0
ARC
  8
_0-1_
  6
PHANTOM1
 62
  152
 10
255.34595256849724
 20
112.18448400270177
 40
0.5
 50
0
 51
45
  0
ARC
  8
_0-1_
  6
PHANTOM1
 62
  152
 10
259.55306011244255
 20
116.39159154664708
 40
0.5
 50
225
 51
270
  0
ARC
  8
_0-1_
  6
PHANTOM1
 62
  152
 10
258.34595256849724
 20
117.59869909059239
 40
0.5
 50
180
 51
224.99998474121097
  0
ARC
  8
_0-1_
  6
PHANTOM1
 62
  152
 10
258.34595256849724
 20
130.18448495637608
 40
0.5
 50
135
 51
180
  0
ARC
  8
_0-1_
  6
PHANTOM1
 62
  152
 10
259.55306011244255
 20
131.39159154664708
 40
0.5
 50
90
 51
135
  0
ARC
  8
_0-1_
  6
PHANTOM1
 62
  152
 10
255.34595256849724
 20
135.59869813691807
 40
0.5
 50
315
 51
0
  0
ARC
  8
_0-1_
  6
PHANTOM1
 62
  152
 10
254.13884502455193
 20
134.39159154664708
 40
0.5
 50
270
 51
315
  0
ARC
  8
_0-1_
  6
PHANTOM1
 62
  152
 10
241.55305915876824
 20
134.39159154664708
 40
0.5
 50
225
 51
270
  0
ARC
  8
_0-1_
  6
PHANTOM1
 62
  152
 10
240.34595256849724
 20
135.59869813691807
 40
0.5
 50
180
 51
225
  0
ARC
  8
_0-1_
  6
PHANTOM1
 62
  152
 10
236.13884597822624
 20
116.39159154664708
 40
0.5
 50
270
 51
315
  0
ARC
  8
_0-1_
  6
PHANTOM1
 62
  152
 10
237.34595256849724
 20
117.59869909059239
 40
0.5
 50
315
 51
0
  0
ARC
  8
_0-1_
  6
PHANTOM1
 62
  152
 10
237.34595256849724
 20
130.18448495637608
 40
0.5
 50
0
 51
45
  0
ARC
  8
_0-1_
  6
PHANTOM1
 62
  152
 10
236.13884597822624
 20
131.39159154664708
 40
0.5
 50
45.00000000000005
 51
90.000000000000057
  0
LINE
  8
_0-1_
  6
PHANTOM1
 62
  152
 10
257.84595256849724
 20
117.59869909059239
 11
257.84595256849724
 21
130.18448495637608
  0
LINE
  8
_0-1_
  6
PHANTOM1
 62
  152
 10
237.84595256849724
 20
117.59869909059239
 11
237.84595256849724
 21
130.18448495637608
  0
LINE
  8
_0-1_
  6
CONTINUOUS
 62
  152
 10
244.545952637271
 20
41.720236543470435
 11
244.545952637271
 21
38.520236543470162
  0
LINE
  8
_0-1_
  6
CONTINUOUS
 62
  152
 10
244.045952637271
 20
39.020236543470162
 11
247.045952637271
 21
39.020236543470162
  0
LINE
  8
_0-1_
  6
CONTINUOUS
 62
  152
 10
246.545952637271
 20
38.520236543470162
 11
246.545952637271
 21
41.720236543470435
  0
LINE
  8
_0-1_
  6
CENTER2
 62
  152
 10
247.84595263727164
 20
33.52020654347001
 11
247.84595263727164
 21
23.52020654347001
  0
LINE
  8
_0-1_
  6
CENTER2
 62
  152
 10
242.84598263727156
 20
28.520236543470162
 11
252.84593263727169
 21
28.520236543470162
  0
LINE
  8
_0-1_
  6
PHANTOM1
 62
  152
 10
227.84595256849724
 20
22.920236230774947
 11
227.84595256849724
 21
10.020236612244673
  0
LINE
  8
_0-1_
  6
PHANTOM1
 62
  152
 10
227.84595256849724
 20
34.1202369937144
 11
227.84595256849724
 21
47.020236612244673
  0
LINE
  8
_0-1_
  6
PHANTOM1
 62
  152
 10
242.24595218702751
 20
48.520236612244673
 11
229.34595256849724
 21
48.520236612244673
  0
LINE
  8
_0-1_
  6
PHANTOM1
 62
  152
 10
253.44595294996697
 20
48.520236612244673
 11
266.34595256849724
 21
48.520236612244673
  0
LINE
  8
_0-1_
  6
PHANTOM1
 62
  152
 10
267.84595256849724
 20
34.1202369937144
 11
267.84595256849724
 21
47.020236612244673
  0
LINE
  8
_0-1_
  6
PHANTOM1
 62
  152
 10
267.84595256849724
 20
22.920236230774947
 11
267.84595256849724
 21
10.020236612244673
  0
LINE
  8
_0-1_
  6
PHANTOM1
 62
  152
 10
253.44595294996697
 20
8.5202366122446733
 11
266.34595256849724
 21
8.5202366122446733
  0
LINE
  8
_0-1_
  6
PHANTOM1
 62
  152
 10
242.24595218702751
 20
8.5202366122446733
 11
229.34595256849724
 21
8.5202366122446733
  0
LINE
  8
_0-1_
  6
PHANTOM1
 62
  152
 10
230.12791853949028
 20
23.420236230774947
 11
228.34595256849724
 21
23.420236230774947
  0
LINE
  8
_0-1_
  6
PHANTOM1
 62
  152
 10
230.35152536436516
 20
23.367450357361861
 11
231.16955929800469
 21
22.95843279449565
  0
LINE
  8
_0-1_
  6
PHANTOM1
 62
  152
 10
230.12791853949028
 20
33.6202369937144
 11
228.34595256849724
 21
33.6202369937144
  0
LINE
  8
_0-1_
  6
PHANTOM1
 62
  152
 10
230.35152536436516
 20
33.673022867127486
 11
231.16955929800469
 21
34.082040429993697
  0
LINE
  8
_0-1_
  6
PHANTOM1
 62
  152
 10
231.44595247312981
 20
36.020236612244673
 11
231.44595247312981
 21
34.529253602906294
  0
LINE
  8
_0-1_
  6
PHANTOM1
 62
  152
 10
231.44595247312981
 20
21.020236612244673
 11
231.44595247312981
 21
22.511218667908736
  0
LINE
  8
_0-1_
  6
PHANTOM1
 62
  152
 10
242.74595218702751
 20
46.238270641251631
 11
242.74595218702751
 21
48.020236612244673
  0
LINE
  8
_0-1_
  6
PHANTOM1
 62
  152
 10
242.69316631361443
 20
46.014663816376753
 11
242.28414875074822
 21
45.196629882737227
  0
LINE
  8
_0-1_
  6
PHANTOM1
 62
  152
 10
240.34595256849724
 20
44.920236707612105
 11
241.83693557783562
 21
44.920236707612105
  0
LINE
  8
_0-1_
  6
PHANTOM1
 62
  152
 10
255.34595256849724
 20
44.920236707612105
 11
253.85497051283318
 21
44.920236707612105
  0
LINE
  8
_0-1_
  6
PHANTOM1
 62
  152
 10
252.99873882338005
 20
46.014663816376753
 11
253.40775638624626
 21
45.196629882737227
  0
LINE
  8
_0-1_
  6
PHANTOM1
 62
  152
 10
252.94595294996697
 20
46.238270641251631
 11
252.94595294996697
 21
48.020236612244673
  0
LINE
  8
_0-1_
  6
PHANTOM1
 62
  152
 10
265.5639854054113
 20
23.420236230774947
 11
267.34595256849724
 21
23.420236230774947
  0
LINE
  8
_0-1_
  6
PHANTOM1
 62
  152
 10
265.34037929579216
 20
23.367450357361861
 11
264.52234417005974
 21
22.95843279449565
  0
LINE
  8
_0-1_
  6
PHANTOM1
 62
  152
 10
264.24595409437615
 20
21.020236612244673
 11
264.24595409437615
 21
22.511218667908736
  0
LINE
  8
_0-1_
  6
PHANTOM1
 62
  152
 10
264.24595409437615
 20
36.020236612244673
 11
264.24595409437615
 21
34.529253602906294
  0
LINE
  8
_0-1_
  6
PHANTOM1
 62
  152
 10
265.34037929579216
 20
33.673022867127486
 11
264.52234417005974
 21
34.082040429993697
  0
LINE
  8
_0-1_
  6
PHANTOM1
 62
  152
 10
265.5639854054113
 20
33.6202369937144
 11
267.34595256849724
 21
33.6202369937144
  0
LINE
  8
_0-1_
  6
PHANTOM1
 62
  152
 10
242.74595218702751
 20
10.802203775330611
 11
242.74595218702751
 21
9.0202366122446733
  0
LINE
  8
_0-1_
  6
PHANTOM1
 62
  152
 10
242.69316631361443
 20
11.025809884949751
 11
242.28414875074822
 21
11.843845010682173
  0
LINE
  8
_0-1_
  6
PHANTOM1
 62
  152
 10
240.34595256849724
 20
12.120235086365767
 11
241.83693557783562
 21
12.120235086365767
  0
LINE
  8
_0-1_
  6
PHANTOM1
 62
  152
 10
255.34595256849724
 20
12.120235086365767
 11
253.85497051283318
 21
12.120235086365767
  0
LINE
  8
_0-1_
  6
PHANTOM1
 62
  152
 10
252.99873882338005
 20
11.025809884949751
 11
253.40775638624626
 21
11.843845010682173
  0
LINE
  8
_0-1_
  6
PHANTOM1
 62
  152
 10
252.94595294996697
 20
10.802203775330611
 11
252.94595294996697
 21
9.0202366122446733
  0
LINE
  8
_0-1_
  6
PHANTOM1
 62
  152
 10
239.84595256849724
 20
16.813129068299361
 11
239.84595256849724
 21
12.620235086365767
  0
LINE
  8
_0-1_
  6
PHANTOM1
 62
  152
 10
241.1995063404699
 20
18.37379038421733
 11
239.99239879652458
 21
17.166682840272017
  0
LINE
  8
_0-1_
  6
PHANTOM1
 62
  152
 10
254.13884502455193
 20
18.520236612244673
 11
241.55305915876824
 21
18.520236612244673
  0
LINE
  8
_0-1_
  6
PHANTOM1
 62
  152
 10
255.6995063404699
 20
17.166682840272017
 11
254.49239879652458
 21
18.37379038421733
  0
LINE
  8
_0-1_
  6
PHANTOM1
 62
  152
 10
255.84595256849724
 20
16.813129068299361
 11
255.84595256849724
 21
12.620235086365767
  0
LINE
  8
_0-1_
  6
PHANTOM1
 62
  152
 10
259.55306011244255
 20
20.520236612244673
 11
263.74595409437615
 21
20.520236612244673
  0
LINE
  8
_0-1_
  6
PHANTOM1
 62
  152
 10
257.99239879652458
 20
21.87379038421733
 11
259.1995063404699
 21
20.666682840272017
  0
LINE
  8
_0-1_
  6
PHANTOM1
 62
  152
 10
259.1995063404699
 20
36.37379038421733
 11
257.99239879652458
 21
35.166682840272017
  0
LINE
  8
_0-1_
  6
PHANTOM1
 62
  152
 10
259.55306011244255
 20
36.520236612244673
 11
263.74595409437615
 21
36.520236612244673
  0
LINE
  8
_0-1_
  6
PHANTOM1
 62
  152
 10
255.84595256849724
 20
40.227343202515669
 11
255.84595256849724
 21
44.420236707612105
  0
LINE
  8
_0-1_
  6
PHANTOM1
 62
  152
 10
254.49239879652458
 20
38.666682840272017
 11
255.6995063404699
 21
39.87379038421733
  0
LINE
  8
_0-1_
  6
PHANTOM1
 62
  152
 10
241.55305915876824
 20
38.520236612244673
 11
254.13884502455193
 21
38.520236612244673
  0
LINE
  8
_0-1_
  6
PHANTOM1
 62
  152
 10
239.99239879652458
 20
39.87379038421733
 11
241.1995063404699
 21
38.666682840272017
  0
LINE
  8
_0-1_
  6
PHANTOM1
 62
  152
 10
239.84595256849724
 20
40.227343202515669
 11
239.84595256849724
 21
44.420236707612105
  0
LINE
  8
_0-1_
  6
PHANTOM1
 62
  152
 10
236.13884597822624
 20
20.520236612244673
 11
231.94595247312981
 21
20.520236612244673
  0
LINE
  8
_0-1_
  6
PHANTOM1
 62
  152
 10
237.6995063404699
 20
21.87379038421733
 11
236.49239879652458
 21
20.666682840272017
  0
LINE
  8
_0-1_
  6
PHANTOM1
 62
  152
 10
236.49239879652458
 20
36.37379038421733
 11
237.6995063404699
 21
35.166682840272017
  0
LINE
  8
_0-1_
  6
PHANTOM1
 62
  152
 10
236.13884597822624
 20
36.520236612244673
 11
231.94595247312981
 21
36.520236612244673
  0
ARC
  8
_0-1_
  6
PHANTOM1
 62
  152
 10
241.83693557783562
 20
45.420236707612105
 40
0.5
 50
270
 51
333.4349365234375
  0
ARC
  8
_0-1_
  6
PHANTOM1
 62
  152
 10
253.85497051283318
 20
45.420236707612105
 40
0.5
 50
206.56504821777344
 51
270
  0
ARC
  8
_0-1_
  6
PHANTOM1
 62
  152
 10
253.85497051283318
 20
11.620235086365767
 40
0.5
 50
90
 51
153.43493652343753
  0
ARC
  8
_0-1_
  6
PHANTOM1
 62
  152
 10
241.83693557783562
 20
11.620235086365767
 40
0.5
 50
26.56504821777343
 51
90
  0
ARC
  8
_0-1_
  6
PHANTOM1
 62
  152
 10
264.74595409437615
 20
34.529253602906294
 40
0.5
 50
180
 51
243.43493652343753
  0
ARC
  8
_0-1_
  6
PHANTOM1
 62
  152
 10
264.74595409437615
 20
22.511218667908736
 40
0.5
 50
116.56504821777345
 51
180.00000000000003
  0
ARC
  8
_0-1_
  6
PHANTOM1
 62
  152
 10
230.94595247312981
 20
22.511218667908736
 40
0.5
 50
0
 51
63.434936523437493
  0
ARC
  8
_0-1_
  6
PHANTOM1
 62
  152
 10
230.94595247312981
 20
34.529253602906294
 40
0.5
 50
296.56504821777344
 51
0
  0
ARC
  8
_0-1_
  6
PHANTOM1
 62
  152
 10
229.34595256849724
 20
10.020236612244673
 40
1.5
 50
180
 51
270
  0
ARC
  8
_0-1_
  6
PHANTOM1
 62
  152
 10
229.34595256849724
 20
47.020236612244673
 40
1.5
 50
90
 51
180
  0
ARC
  8
_0-1_
  6
PHANTOM1
 62
  152
 10
266.34595256849724
 20
47.020236612244673
 40
1.5
 50
0
 51
90
  0
ARC
  8
_0-1_
  6
PHANTOM1
 62
  152
 10
266.34595256849724
 20
10.020236612244673
 40
1.5
 50
270
 51
0
  0
ARC
  8
_0-1_
  6
PHANTOM1
 62
  152
 10
228.34595256849724
 20
22.920236230774947
 40
0.5
 50
90
 51
180
  0
ARC
  8
_0-1_
  6
PHANTOM1
 62
  152
 10
228.34595256849724
 20
34.1202369937144
 40
0.5
 50
180
 51
270
  0
ARC
  8
_0-1_
  6
PHANTOM1
 62
  152
 10
242.24595218702751
 20
48.020236612244673
 40
0.5
 50
0
 51
90
  0
ARC
  8
_0-1_
  6
PHANTOM1
 62
  152
 10
253.44595294996697
 20
48.020236612244673
 40
0.5
 50
90
 51
180
  0
ARC
  8
_0-1_
  6
PHANTOM1
 62
  152
 10
267.34595256849724
 20
34.1202369937144
 40
0.5
 50
270
 51
0
  0
ARC
  8
_0-1_
  6
PHANTOM1
 62
  152
 10
267.34595256849724
 20
22.920236230774947
 40
0.5
 50
0
 51
90
  0
ARC
  8
_0-1_
  6
PHANTOM1
 62
  152
 10
253.44595294996697
 20
9.0202366122446733
 40
0.5
 50
180
 51
270
  0
ARC
  8
_0-1_
  6
PHANTOM1
 62
  152
 10
242.24595218702751
 20
9.0202366122446733
 40
0.5
 50
270
 51
359.99998474121094
  0
ARC
  8
_0-1_
  6
PHANTOM1
 62
  152
 10
230.12791853949028
 20
22.920236230774947
 40
0.5
 50
63.434936523437521
 51
90.000000000000028
  0
ARC
  8
_0-1_
  6
PHANTOM1
 62
  152
 10
230.12791853949028
 20
34.1202369937144
 40
0.5
 50
270
 51
296.56504821777344
  0
ARC
  8
_0-1_
  6
PHANTOM1
 62
  152
 10
231.94595247312981
 20
36.020236612244673
 40
0.5
 50
90
 51
180
  0
ARC
  8
_0-1_
  6
PHANTOM1
 62
  152
 10
231.94595247312981
 20
21.020236612244673
 40
0.5
 50
180
 51
270
  0
ARC
  8
_0-1_
  6
PHANTOM1
 62
  152
 10
242.24595218702751
 20
46.238270641251631
 40
0.5
 50
333.4349365234375
 51
0.000000000000019
  0
ARC
  8
_0-1_
  6
PHANTOM1
 62
  152
 10
240.34595256849724
 20
44.420236707612105
 40
0.5
 50
90
 51
180
  0
ARC
  8
_0-1_
  6
PHANTOM1
 62
  152
 10
255.34595256849724
 20
44.420236707612105
 40
0.5
 50
0
 51
90
  0
ARC
  8
_0-1_
  6
PHANTOM1
 62
  152
 10
253.44595294996697
 20
46.238270641251631
 40
0.5
 50
180
 51
206.56504821777344
  0
ARC
  8
_0-1_
  6
PHANTOM1
 62
  152
 10
265.5639854054113
 20
22.920236230774947
 40
0.5
 50
90
 51
116.56504821777344
  0
ARC
  8
_0-1_
  6
PHANTOM1
 62
  152
 10
263.74595409437615
 20
21.020236612244673
 40
0.5
 50
270
 51
0
  0
ARC
  8
_0-1_
  6
PHANTOM1
 62
  152
 10
263.74595409437615
 20
36.020236612244673
 40
0.5
 50
0
 51
90
  0
ARC
  8
_0-1_
  6
PHANTOM1
 62
  152
 10
265.5639854054113
 20
34.1202369937144
 40
0.5
 50
243.43493652343753
 51
270
  0
ARC
  8
_0-1_
  6
PHANTOM1
 62
  152
 10
242.24595218702751
 20
10.802203775330611
 40
0.5
 50
359.99998474121088
 51
26.565048217773398
  0
ARC
  8
_0-1_
  6
PHANTOM1
 62
  152
 10
240.34595256849724
 20
12.620235086365767
 40
0.5
 50
180
 51
270
  0
ARC
  8
_0-1_
  6
PHANTOM1
 62
  152
 10
255.34595256849724
 20
12.620235086365767
 40
0.5
 50
270
 51
0
  0
ARC
  8
_0-1_
  6
PHANTOM1
 62
  152
 10
253.44595294996697
 20
10.802203775330611
 40
0.5
 50
153.43493652343753
 51
180.00000000000003
  0
ARC
  8
_0-1_
  6
PHANTOM1
 62
  152
 10
240.34595256849724
 20
16.813129068299361
 40
0.5
 50
135
 51
180
  0
ARC
  8
_0-1_
  6
PHANTOM1
 62
  152
 10
241.55305915876824
 20
18.020236612244673
 40
0.5
 50
90
 51
135
  0
ARC
  8
_0-1_
  6
PHANTOM1
 62
  152
 10
254.13884502455193
 20
18.020236612244673
 40
0.5
 50
45.00000000000005
 51
90.000000000000057
  0
ARC
  8
_0-1_
  6
PHANTOM1
 62
  152
 10
255.34595256849724
 20
16.813129068299361
 40
0.5
 50
0
 51
45
  0
ARC
  8
_0-1_
  6
PHANTOM1
 62
  152
 10
259.55306011244255
 20
21.020236612244673
 40
0.5
 50
225
 51
270
  0
ARC
  8
_0-1_
  6
PHANTOM1
 62
  152
 10
258.34595256849724
 20
22.227344156189986
 40
0.5
 50
180
 51
224.99998474121097
  0
ARC
  8
_0-1_
  6
PHANTOM1
 62
  152
 10
258.34595256849724
 20
34.813130021973677
 40
0.5
 50
135
 51
180
  0
ARC
  8
_0-1_
  6
PHANTOM1
 62
  152
 10
259.55306011244255
 20
36.020236612244673
 40
0.5
 50
90
 51
135
  0
ARC
  8
_0-1_
  6
PHANTOM1
 62
  152
 10
255.34595256849724
 20
40.227343202515669
 40
0.5
 50
315
 51
0
  0
ARC
  8
_0-1_
  6
PHANTOM1
 62
  152
 10
254.13884502455193
 20
39.020236612244673
 40
0.5
 50
270
 51
315
  0
ARC
  8
_0-1_
  6
PHANTOM1
 62
  152
 10
241.55305915876824
 20
39.020236612244673
 40
0.5
 50
225
 51
270
  0
ARC
  8
_0-1_
  6
PHANTOM1
 62
  152
 10
240.34595256849724
 20
40.227343202515669
 40
0.5
 50
180
 51
225
  0
ARC
  8
_0-1_
  6
PHANTOM1
 62
  152
 10
236.13884597822624
 20
21.020236612244673
 40
0.5
 50
270
 51
315
  0
ARC
  8
_0-1_
  6
PHANTOM1
 62
  152
 10
237.34595256849724
 20
22.227344156189986
 40
0.5
 50
315
 51
0
  0
ARC
  8
_0-1_
  6
PHANTOM1
 62
  152
 10
237.34595256849724
 20
34.813130021973677
 40
0.5
 50
0
 51
45
  0
ARC
  8
_0-1_
  6
PHANTOM1
 62
  152
 10
236.13884597822624
 20
36.020236612244673
 40
0.5
 50
45.00000000000005
 51
90.000000000000057
  0
LINE
  8
_0-1_
  6
PHANTOM1
 62
  152
 10
257.84595256849724
 20
22.227344156189986
 11
257.84595256849724
 21
34.813130021973677
  0
LINE
  8
_0-1_
  6
PHANTOM1
 62
  152
 10
237.84595256849724
 20
22.227344156189986
 11
237.84595256849724
 21
34.813130021973677
  0
LINE
  8
_0-1_
  6
PHANTOM1
 62
  152
 10
261.84595263727118
 20
49.020236612244673
 11
266.84595263727118
 21
49.020236612244673
  0
LINE
  8
_0-1_
  6
PHANTOM1
 62
  152
 10
261.84595263727118
 20
49.020236612244673
 11
261.84595263727118
 21
77.83803767226442
  0
LINE
  8
_0-1_
  6
PHANTOM1
 62
  152
 10
266.84595263727118
 20
49.020236612244673
 11
266.84595263727118
 21
77.83803767226442
  0
LINE
  8
_0-1_
  6
PHANTOM1
 62
  152
 10
253.84595263727118
 20
144.39159154664702
 11
258.84595263727118
 21
144.39159154664702
  0
LINE
  8
_0-1_
  6
PHANTOM1
 62
  152
 10
253.84595263727118
 20
144.39159154664702
 11
253.84595263727118
 21
173.20939260666677
  0
LINE
  8
_0-1_
  6
PHANTOM1
 62
  152
 10
258.84595263727118
 20
144.39159154664702
 11
258.84595263727118
 21
173.20939260666677
  0
LINE
  8
_0-0_
  6
CONTINUOUS
 62
    7
 10
38.068012059330613
 20
149.58707147787288
 11
37.768012059330431
 21
149.88707147787261
  0
LINE
  8
_0-0_
  6
CONTINUOUS
 62
    7
 10
37.768012059330431
 20
149.88707147787261
 11
38.068012059330613
 21
150.18707147787234
  0
LINE
  8
_0-0_
  6
CONTINUOUS
 62
    7
 10
38.068012059330613
 20
150.18707147787234
 11
38.068012059330613
 21
153.59159147787284
  0
LINE
  8
_0-0_
  6
CONTINUOUS
 62
    7
 10
38.068012059330613
 20
153.59159147787284
 11
37.768012059330431
 21
153.89159147787257
  0
LINE
  8
_0-0_
  6
CONTINUOUS
 62
    7
 10
37.768012059330431
 20
153.89159147787257
 11
38.068012059330613
 21
154.19159147787275
  0
LINE
  8
_0-1_
  6
CENTER2
 62
  152
 10
38.068012059330613
 20
153.89159147787257
 11
32.068012059330613
 21
153.89159147787257
  0
LINE
  8
_0-0_
  6
CONTINUOUS
 62
    7
 10
185.81122097092214
 20
159.89159147787257
 11
165.81122097092214
 21
159.89159147787257
  0
LINE
  8
_0-0_
  6
CONTINUOUS
 62
    7
 10
165.81122097092214
 20
136.09159147787261
 11
185.81122097092214
 21
136.09159147787261
  0
LINE
  8
_0-0_
  6
CONTINUOUS
 62
    7
 10
165.81122097092214
 20
149.89159147787257
 11
185.81122097092214
 21
149.89159147787257
  0
LINE
  8
_0-0_
  6
CONTINUOUS
 62
    7
 10
185.81122097092214
 20
143.89159147787257
 11
165.81122097092214
 21
143.89159147787257
  0
LINE
  8
_0-0_
  6
CONTINUOUS
 62
    7
 10
165.81122097092214
 20
140.09159147787261
 11
185.81122097092214
 21
140.09159147787261
  0
CIRCLE
  8
_0-0_
  6
CONTINUOUS
 62
    7
 10
175.81122097092214
 20
153.89159147787257
 40
1.7000000476837158
  0
LINE
  8
_0-0_
  6
CONTINUOUS
 62
    7
 10
165.81122097092214
 20
145.33283803666461
 11
165.81122097092214
 21
136.09159147787261
  0
LINE
  8
_0-0_
  6
CONTINUOUS
 62
    7
 10
165.81122097092214
 20
159.89159147787257
 11
165.81122097092214
 21
147.44070153158208
  0
LINE
  8
_0-0_
  6
CONTINUOUS
 62
    7
 10
185.81122097092214
 20
147.44070153158208
 11
185.81122097092214
 21
159.89159147787257
  0
LINE
  8
_0-0_
  6
CONTINUOUS
 62
    7
 10
185.81122097092214
 20
136.09159147787261
 11
185.81122097092214
 21
145.33283803666461
  0
LINE
  8
_0-0_
  6
CONTINUOUS
 62
    7
 10
185.81122097092214
 20
40.720236543470207
 11
185.81122097092214
 21
64.520236543470219
  0
LINE
  8
_0-0_
  6
CONTINUOUS
 62
    7
 10
185.81122097092214
 20
64.520236543470219
 11
165.81122097092214
 21
64.520236543470219
  0
LINE
  8
_0-0_
  6
CONTINUOUS
 62
    7
 10
165.81122097092214
 20
64.520236543470219
 11
165.81122097092214
 21
40.720236543470207
  0
LINE
  8
_0-0_
  6
CONTINUOUS
 62
    7
 10
165.81122097092214
 20
40.720236543470207
 11
185.81122097092214
 21
40.720236543470207
  0
LINE
  8
_0-0_
  6
CONTINUOUS
 62
    7
 10
185.81122097092214
 20
44.720236543470207
 11
165.81122097092214
 21
44.720236543470207
  0
LINE
  8
_0-0_
  6
CONTINUOUS
 62
    7
 10
165.81122097092214
 20
48.520236543470219
 11
185.81122097092214
 21
48.520236543470219
  0
LINE
  8
_0-0_
  6
CONTINUOUS
 62
    7
 10
185.81122097092214
 20
54.520236543470219
 11
165.81122097092214
 21
54.520236543470219
  0
CIRCLE
  8
_0-0_
  6
CONTINUOUS
 62
    7
 10
175.81122097092214
 20
58.520236543470219
 40
1.7000000476837158
  0
LINE
  8
_0-1_
  6
CENTER2
 62
  152
 10
185.81122097092214
 20
153.89159147787257
 11
165.81122097092214
 21
153.89159147787257
  0
LINE
  8
_0-1_
  6
CENTER2
 62
  152
 10
175.81122097092214
 20
147.44070153158208
 11
175.81122097092214
 21
159.89159147787257
  0
LINE
  8
_0-1_
  6
CENTER2
 62
  152
 10
175.81122097092214
 20
136.09159147787261
 11
175.81122097092214
 21
145.33283803666461
  0
LINE
  8
_0-1_
  6
PHANTOM1
 62
  152
 10
191.13669519398775
 20
145.33283803666461
 11
202.644501738808
 21
102.38511932772167
  0
LINE
  8
_0-1_
  6
PHANTOM1
 62
  152
 10
156.33135138487091
 20
143.89159154664708
 11
191.52287602708213
 21
143.89159154664708
  0
LINE
  8
_0-1_
  6
PHANTOM1
 62
  152
 10
155.94517055177653
 20
145.33283803666461
 11
167.45297709659684
 21
102.38511932772167
  0
LINE
  8
_0-1_
  6
PHANTOM1
 62
  152
 10
167.04931908211586
 20
103.89159154664708
 11
202.24084372432702
 21
103.89159154664708
  0
LINE
  8
_0-1_
  6
CENTER2
 62
  152
 10
165.81122097092214
 20
58.520236543470219
 11
185.81122097092214
 21
58.520236543470219
  0
LINE
  8
_0-1_
  6
CENTER2
 62
  152
 10
175.81122097092214
 20
64.520236543470219
 11
175.81122097092214
 21
40.720236543470207
  0
LINE
  8
_0-1_
  6
PHANTOM1
 62
  152
 10
167.04931908211586
 20
8.5202366122446733
 11
202.24084372432702
 21
8.5202366122446733
  0
LINE
  8
_0-1_
  6
PHANTOM1
 62
  152
 10
155.94517055177653
 20
49.961483102262207
 11
167.45297709659684
 21
7.0137643933192635
  0
LINE
  8
_0-1_
  6
PHANTOM1
 62
  152
 10
191.13669519398775
 20
49.961483102262207
 11
202.644501738808
 21
7.0137643933192635
  0
LINE
  8
_0-1_
  6
PHANTOM1
 62
  152
 10
156.33135138487091
 20
48.520236612244673
 11
191.52287602708213
 21
48.520236612244673
  0
CIRCLE
  8
_0-1_
  6
CONTINUOUS
 62
  152
 10
175.81122097092214
 20
153.89159147787257
 40
2
  0
CIRCLE
  8
_0-1_
  6
CONTINUOUS
 62
  152
 10
175.81122097092214
 20
58.520236543470219
 40
2
  0
LINE
  8
_0-0_
  6
CONTINUOUS
 62
    7
 10
328.97485627296777
 20
159.89159147787257
 11
308.97485627296777
 21
159.89159147787257
  0
LINE
  8
_0-0_
  6
CONTINUOUS
 62
    7
 10
308.97485627296777
 20
136.09159147787261
 11
328.97485627296777
 21
136.09159147787261
  0
LINE
  8
_0-0_
  6
CONTINUOUS
 62
    7
 10
308.97485627296777
 20
149.89159147787257
 11
328.97485627296777
 21
149.89159147787257
  0
LINE
  8
_0-0_
  6
CONTINUOUS
 62
    7
 10
328.97485627296777
 20
143.89159147787257
 11
308.97485627296777
 21
143.89159147787257
  0
LINE
  8
_0-0_
  6
CONTINUOUS
 62
    7
 10
308.97485627296777
 20
140.09159147787261
 11
328.97485627296777
 21
140.09159147787261
  0
LINE
  8
_0-0_
  6
CONTINUOUS
 62
    7
 10
308.97485627296777
 20
145.33283803666461
 11
308.97485627296777
 21
136.09159147787261
  0
LINE
  8
_0-0_
  6
CONTINUOUS
 62
    7
 10
308.97485627296777
 20
159.89159147787257
 11
308.97485627296777
 21
147.44070153158208
  0
LINE
  8
_0-0_
  6
CONTINUOUS
 62
    7
 10
328.97485627296777
 20
147.44070153158208
 11
328.97485627296777
 21
159.89159147787257
  0
LINE
  8
_0-0_
  6
CONTINUOUS
 62
    7
 10
328.97485627296777
 20
136.09159147787261
 11
328.97485627296777
 21
145.33283803666461
  0
LINE
  8
_0-0_
  6
CONTINUOUS
 62
    7
 10
328.97485627296777
 20
40.720236543470207
 11
328.97485627296777
 21
64.520236543470219
  0
LINE
  8
_0-0_
  6
CONTINUOUS
 62
    7
 10
308.97485627296777
 20
64.520236543470219
 11
308.97485627296777
 21
40.720236543470207
  0
LINE
  8
_0-0_
  6
CONTINUOUS
 62
    7
 10
308.97485627296777
 20
40.720236543470207
 11
328.97485627296777
 21
40.720236543470207
  0
LINE
  8
_0-0_
  6
CONTINUOUS
 62
    7
 10
328.97485627296777
 20
44.720236543470207
 11
308.97485627296777
 21
44.720236543470207
  0
LINE
  8
_0-1_
  6
CENTER2
 62
  152
 10
328.97485627296777
 20
153.89159147787257
 11
308.97485627296777
 21
153.89159147787257
  0
LINE
  8
_0-1_
  6
CENTER2
 62
  152
 10
318.97485627296777
 20
147.44070153158208
 11
318.97485627296777
 21
159.89159147787257
  0
LINE
  8
_0-1_
  6
CENTER2
 62
  152
 10
318.97485627296777
 20
136.09159147787261
 11
318.97485627296777
 21
145.33283803666461
  0
LINE
  8
_0-1_
  6
PHANTOM1
 62
  152
 10
334.30033049603338
 20
145.33283803666461
 11
345.80813704085364
 21
102.38511932772167
  0
LINE
  8
_0-1_
  6
PHANTOM1
 62
  152
 10
299.49498668691655
 20
143.89159154664708
 11
334.68651132912777
 21
143.89159154664708
  0
LINE
  8
_0-1_
  6
PHANTOM1
 62
  152
 10
299.10880585382216
 20
145.33283803666461
 11
310.61661239864247
 21
102.38511932772167
  0
LINE
  8
_0-1_
  6
PHANTOM1
 62
  152
 10
310.21295438416149
 20
103.89159154664708
 11
345.40447902637266
 21
103.89159154664708
  0
LINE
  8
_0-1_
  6
CENTER2
 62
  152
 10
308.97485627296777
 20
58.520236543470219
 11
328.97485627296777
 21
58.520236543470219
  0
LINE
  8
_0-1_
  6
CENTER2
 62
  152
 10
318.97485627296777
 20
64.520236543470219
 11
318.97485627296777
 21
40.720236543470207
  0
LINE
  8
_0-1_
  6
PHANTOM1
 62
  152
 10
310.21295438416149
 20
8.5202366122446733
 11
345.40447902637266
 21
8.5202366122446733
  0
LINE
  8
_0-1_
  6
PHANTOM1
 62
  152
 10
299.10880585382216
 20
49.961483102262207
 11
310.61661239864247
 21
7.0137643933192635
  0
LINE
  8
_0-1_
  6
PHANTOM1
 62
  152
 10
334.30033049603338
 20
49.961483102262207
 11
345.80813704085364
 21
7.0137643933192635
  0
LINE
  8
_0-1_
  6
PHANTOM1
 62
  152
 10
299.49498668691655
 20
48.520236612244673
 11
334.68651132912777
 21
48.520236612244673
  0
CIRCLE
  8
_0-1_
  6
CONTINUOUS
 62
  152
 10
318.97485627296777
 20
153.89159147787302
 40
2.5
  0
CIRCLE
  8
_0-1_
  6
CONTINUOUS
 62
  152
 10
318.97485627296777
 20
58.520236543470673
 40
2.5
  0
LINE
  8
_0-0_
  6
CONTINUOUS
 62
    7
 10
328.97485627296777
 20
64.520236543470219
 11
308.97485627296777
 21
64.520236543470219
  0
LINE
  8
_0-0_
  6
CONTINUOUS
 62
    7
 10
308.97485627296777
 20
48.520236543470219
 11
328.97485627296777
 21
48.520236543470219
  0
LINE
  8
_0-0_
  6
CONTINUOUS
 62
    7
 10
328.97485627296777
 20
54.520236543470219
 11
308.97485627296777
 21
54.520236543470219
  0
CIRCLE
  8
_0-0_
  6
CONTINUOUS
 62
    7
 10
318.97485627296777
 20
58.520236543470673
 40
2.1500000953674316
  0
LINE
  8
_0-0_
  6
CONTINUOUS
 62
    7
 10
37.568012059330613
 20
159.89159147787257
 11
32.568012059330613
 21
159.89159147787257
  0
LINE
  8
_0-0_
  6
CONTINUOUS
 62
    7
 10
32.068012059330613
 20
159.39159147787257
 11
32.068012059330613
 21
137.59159147787238
  0
LINE
  8
_0-0_
  6
CONTINUOUS
 62
    7
 10
32.214462059330799
 20
137.94514147787265
 11
33.921562059330427
 21
136.23803147787237
  0
LINE
  8
_0-0_
  6
CONTINUOUS
 62
    7
 10
34.275122059330442
 20
136.09159147787284
 11
39.568012059330613
 21
136.09159147787284
  0
LINE
  8
_0-0_
  6
CONTINUOUS
 62
    7
 10
40.068012059330613
 20
136.59159147787238
 11
40.068012059330613
 21
138.38448147787255
  0
LINE
  8
_0-0_
  6
CONTINUOUS
 62
    7
 10
39.921562059330654
 20
138.73803147787237
 11
38.714462059330572
 21
139.94514147787265
  0
LINE
  8
_0-0_
  6
CONTINUOUS
 62
    7
 10
38.360902059330783
 20
140.09159147787238
 11
37.668012059330522
 21
140.09159147787238
  0
LINE
  8
_0-0_
  6
CONTINUOUS
 62
    7
 10
37.168012059330522
 20
140.59159147787238
 11
37.168012059330522
 21
143.59159147787284
  0
LINE
  8
_0-0_
  6
CONTINUOUS
 62
    7
 10
37.468012059330704
 20
143.89159147787257
 11
37.768012059330431
 21
143.89159147787257
  0
LINE
  8
_0-0_
  6
CONTINUOUS
 62
    7
 10
38.068012059330613
 20
144.19159147787275
 11
38.068012059330613
 21
149.58707147787288
  0
LINE
  8
_0-0_
  6
CONTINUOUS
 62
    7
 10
38.068012059330613
 20
154.19159147787275
 11
38.068012059330613
 21
159.39159147787257
  0
LINE
  8
_0-0_
  6
CONTINUOUS
 62
    7
 10
31.568012059330613
 20
142.89159147787257
 11
30.901932059330647
 21
142.89159147787257
  0
LINE
  8
_0-0_
  6
CONTINUOUS
 62
    7
 10
30.651922059330673
 20
142.82460147787276
 11
30.018002059330684
 21
142.45859147787257
  0
LINE
  8
_0-0_
  6
CONTINUOUS
 62
    7
 10
29.518012059330431
 20
142.45858147787283
 11
28.883962059330543
 21
142.82461147787296
  0
LINE
  8
_0-0_
  6
CONTINUOUS
 62
    7
 10
28.633982059330719
 20
142.89159147787257
 11
27.977032059330668
 21
142.89159147787257
  0
LINE
  8
_0-0_
  6
CONTINUOUS
 62
    7
 10
27.529812059330652
 20
142.61519147787237
 11
25.129812059330561
 21
137.81519147787265
  0
LINE
  8
_0-0_
  6
CONTINUOUS
 62
    7
 10
25.577032059330577
 20
137.09159147787284
 11
31.568012059330613
 21
137.09159147787284
  0
LINE
  8
_0-0_
  6
CONTINUOUS
 62
    7
 10
31.268012059330431
 20
137.09159147787284
 11
31.268012059330431
 21
134.39159147787257
  0
LINE
  8
_0-0_
  6
CONTINUOUS
 62
    7
 10
31.268012059330431
 20
134.39159147787257
 11
30.768012059330431
 21
133.89159147787257
  0
LINE
  8
_0-0_
  6
CONTINUOUS
 62
    7
 10
30.768012059330431
 20
133.89159147787257
 11
28.768012059330431
 21
133.89159147787257
  0
LINE
  8
_0-0_
  6
CONTINUOUS
 62
    7
 10
28.768012059330431
 20
133.89159147787257
 11
28.268012059330431
 21
134.39159147787257
  0
LINE
  8
_0-0_
  6
CONTINUOUS
 62
    7
 10
28.268012059330431
 20
134.39159147787257
 11
28.268012059330431
 21
137.09159147787284
  0
ARC
  8
_0-0_
  6
CONTINUOUS
 62
    7
 10
25.577032059330577
 20
137.59159147787238
 40
0.5
 50
153.43494000000001
 51
270
  0
ARC
  8
_0-0_
  6
CONTINUOUS
 62
    7
 10
32.568012059330613
 20
159.39159147787257
 40
0.5
 50
90
 51
180
  0
ARC
  8
_0-0_
  6
CONTINUOUS
 62
    7
 10
37.568012059330613
 20
159.39159147787257
 40
0.5
 50
0
 51
90
  0
ARC
  8
_0-0_
  6
CONTINUOUS
 62
    7
 10
37.668012059330522
 20
140.59159147787238
 40
0.5
 50
180
 51
270
  0
ARC
  8
_0-0_
  6
CONTINUOUS
 62
    7
 10
38.360902059330783
 20
139.59159147787284
 40
0.5
 50
45
 51
90
  0
ARC
  8
_0-0_
  6
CONTINUOUS
 62
    7
 10
39.568012059330613
 20
138.38448147787255
 40
0.5
 50
0
 51
45
  0
ARC
  8
_0-0_
  6
CONTINUOUS
 62
    7
 10
39.568012059330613
 20
136.59159147787238
 40
0.5
 50
270
 51
0
  0
ARC
  8
_0-0_
  6
CONTINUOUS
 62
    7
 10
34.275122059330442
 20
136.59159147787238
 40
0.5
 50
225
 51
270
  0
ARC
  8
_0-0_
  6
CONTINUOUS
 62
    7
 10
32.568012059330613
 20
138.29869147787247
 40
0.5
 50
180
 51
225
  0
ARC
  8
_0-0_
  6
CONTINUOUS
 62
    7
 10
31.568012059330613
 20
137.59159147787238
 40
0.5
 50
270
 51
0
  0
ARC
  8
_0-0_
  6
CONTINUOUS
 62
    7
 10
31.568012059330613
 20
142.39159147787257
 40
0.5
 50
0
 51
90
  0
ARC
  8
_0-0_
  6
CONTINUOUS
 62
    7
 10
30.901932059330647
 20
142.39159147787257
 40
0.5
 50
90
 51
120.00068
  0
ARC
  8
_0-0_
  6
CONTINUOUS
 62
    7
 10
29.767992059330481
 20
142.89160147787277
 40
0.5
 50
240.00262000000001
 51
300.00067999999999
  0
ARC
  8
_0-0_
  6
CONTINUOUS
 62
    7
 10
28.633982059330719
 20
142.39159147787257
 40
0.5
 50
60.002623
 51
90
  0
ARC
  8
_0-0_
  6
CONTINUOUS
 62
    7
 10
27.977032059330668
 20
142.39159147787257
 40
0.5
 50
90
 51
153.43494000000001
  0
ARC
  8
_0-0_
  6
CONTINUOUS
 62
    7
 10
37.768012059330431
 20
144.19159147787275
 40
0.2999999999999998
 50
270
 51
0
  0
ARC
  8
_0-0_
  6
CONTINUOUS
 62
    7
 10
37.468012059330704
 20
143.59159147787284
 40
0.2999999999999998
 50
90
 51
180
  0
LINE
  8
_0-0_
  6
CONTINUOUS
 62
    7
 10
39.568012059330613
 20
40.720236543470435
 11
34.275112059330695
 21
40.720236543470435
  0
LINE
  8
_0-0_
  6
CONTINUOUS
 62
    7
 10
33.921562059330427
 20
40.866676543470419
 11
32.214452059330597
 21
42.573786543470248
  0
LINE
  8
_0-0_
  6
CONTINUOUS
 62
    7
 10
32.068012059330613
 20
42.220236543470435
 11
32.068012059330613
 21
50.313126543470389
  0
LINE
  8
_0-0_
  6
CONTINUOUS
 62
    7
 10
32.214452059330597
 20
50.666676543470658
 11
33.921562059330427
 21
52.373786543470487
  0
LINE
  8
_0-0_
  6
CONTINUOUS
 62
    7
 10
34.275112059330695
 20
52.520236543470219
 11
40.568012059330158
 21
52.520236543470219
  0
LINE
  8
_0-0_
  6
CONTINUOUS
 62
    7
 10
41.068012059330613
 20
53.020236543470673
 11
41.068012059330613
 21
64.020236543470219
  0
LINE
  8
_0-0_
  6
CONTINUOUS
 62
    7
 10
41.568012059330613
 20
64.520236543470673
 11
45.568012059330158
 21
64.520236543470673
  0
LINE
  8
_0-0_
  6
CONTINUOUS
 62
    7
 10
46.068012059330613
 20
64.020236543470219
 11
46.068012059330613
 21
58.820236543470401
  0
LINE
  8
_0-0_
  6
CONTINUOUS
 62
    7
 10
46.068012059330613
 20
58.820236543470401
 11
45.768012059330431
 21
58.520236543470219
  0
LINE
  8
_0-0_
  6
CONTINUOUS
 62
    7
 10
45.768012059330431
 20
58.520236543470219
 11
46.068012059330613
 21
58.220236543470492
  0
LINE
  8
_0-0_
  6
CONTINUOUS
 62
    7
 10
46.068012059330613
 20
58.220236543470492
 11
46.068012059330613
 21
54.815716543470444
  0
LINE
  8
_0-0_
  6
CONTINUOUS
 62
    7
 10
46.068012059330613
 20
54.815716543470444
 11
45.768012059330431
 21
54.515716543470717
  0
LINE
  8
_0-0_
  6
CONTINUOUS
 62
    7
 10
45.768012059330431
 20
54.515716543470717
 11
46.068012059330613
 21
54.215716543470535
  0
LINE
  8
_0-0_
  6
CONTINUOUS
 62
    7
 10
46.068012059330613
 20
54.215716543470535
 11
46.068012059330613
 21
49.020236543470219
  0
LINE
  8
_0-0_
  6
CONTINUOUS
 62
    7
 10
45.568012059330158
 20
48.520236543470219
 11
37.668012059330522
 21
48.520236543470219
  0
LINE
  8
_0-0_
  6
CONTINUOUS
 62
    7
 10
37.168012059330522
 20
48.020236543470673
 11
37.168012059330522
 21
45.220236543470435
  0
LINE
  8
_0-0_
  6
CONTINUOUS
 62
    7
 10
37.668012059330522
 20
44.720236543470435
 11
38.360902059330328
 21
44.720236543470435
  0
LINE
  8
_0-0_
  6
CONTINUOUS
 62
    7
 10
38.714452059330142
 20
44.573786543470703
 11
39.921562059330427
 21
43.366676543470419
  0
LINE
  8
_0-0_
  6
CONTINUOUS
 62
    7
 10
40.068012059330158
 20
43.013126543470605
 11
40.068012059330158
 21
41.220236543470435
  0
LINE
  8
_0-0_
  6
CONTINUOUS
 62
    7
 10
31.568012059330613
 20
41.720236543470435
 11
25.577022059330375
 21
41.720236543470435
  0
LINE
  8
_0-0_
  6
CONTINUOUS
 62
    7
 10
25.129812059330561
 20
42.443846543470443
 11
27.529812059330652
 21
47.243846543470227
  0
LINE
  8
_0-0_
  6
CONTINUOUS
 62
    7
 10
27.977022059330466
 20
47.520236543470219
 11
28.633972059330517
 21
47.520236543470219
  0
LINE
  8
_0-0_
  6
CONTINUOUS
 62
    7
 10
28.883952059330568
 20
47.453256543470161
 11
29.518012059330431
 21
47.087226543470479
  0
LINE
  8
_0-0_
  6
CONTINUOUS
 62
    7
 10
30.018002059330229
 20
47.087236543470681
 11
30.651922059330445
 21
47.453246543470414
  0
LINE
  8
_0-0_
  6
CONTINUOUS
 62
    7
 10
30.901922059330445
 20
47.520236543470219
 11
31.568012059330613
 21
47.520236543470219
  0
LINE
  8
_0-0_
  6
CONTINUOUS
 62
    7
 10
31.268012059330431
 20
41.720236543470435
 11
31.268012059330431
 21
39.020236543470162
  0
LINE
  8
_0-0_
  6
CONTINUOUS
 62
    7
 10
31.268012059330431
 20
39.020236543470162
 11
30.768012059330431
 21
38.520236543470162
  0
LINE
  8
_0-0_
  6
CONTINUOUS
 62
    7
 10
30.768012059330431
 20
38.520236543470162
 11
28.768012059330431
 21
38.520236543470162
  0
LINE
  8
_0-0_
  6
CONTINUOUS
 62
    7
 10
28.768012059330431
 20
38.520236543470162
 11
28.268012059330431
 21
39.020236543470162
  0
LINE
  8
_0-0_
  6
CONTINUOUS
 62
    7
 10
28.268012059330431
 20
39.020236543470162
 11
28.268012059330431
 21
41.720236543470435
  0
ARC
  8
_0-0_
  6
CONTINUOUS
 62
    7
 10
45.568012059330158
 20
49.020236543470219
 40
0.5
 50
270
 51
0
  0
ARC
  8
_0-0_
  6
CONTINUOUS
 62
    7
 10
39.568012059330613
 20
41.220236543470435
 40
0.5
 50
270
 51
0
  0
ARC
  8
_0-0_
  6
CONTINUOUS
 62
    7
 10
34.275112059330695
 20
41.220236543470435
 40
0.5
 50
225
 51
270
  0
ARC
  8
_0-0_
  6
CONTINUOUS
 62
    7
 10
32.568012059330158
 20
42.927336543470517
 40
0.5
 50
180
 51
225
  0
ARC
  8
_0-0_
  6
CONTINUOUS
 62
    7
 10
32.568012059330158
 20
50.313126543470389
 40
0.5
 50
135
 51
180
  0
ARC
  8
_0-0_
  6
CONTINUOUS
 62
    7
 10
34.275112059330695
 20
52.020236543470673
 40
0.5
 50
90
 51
135
  0
ARC
  8
_0-0_
  6
CONTINUOUS
 62
    7
 10
40.568012059330158
 20
53.020236543470673
 40
0.5
 50
270
 51
0
  0
ARC
  8
_0-0_
  6
CONTINUOUS
 62
    7
 10
41.568012059330613
 20
64.020236543470219
 40
0.5
 50
90
 51
180
  0
ARC
  8
_0-0_
  6
CONTINUOUS
 62
    7
 10
45.568012059330158
 20
64.020236543470219
 40
0.5
 50
0
 51
90
  0
ARC
  8
_0-0_
  6
CONTINUOUS
 62
    7
 10
37.668012059330522
 20
48.020236543470673
 40
0.5
 50
90
 51
180
  0
ARC
  8
_0-0_
  6
CONTINUOUS
 62
    7
 10
37.668012059330522
 20
45.220236543470435
 40
0.5
 50
180
 51
270
  0
ARC
  8
_0-0_
  6
CONTINUOUS
 62
    7
 10
38.360902059330328
 20
44.220236543470435
 40
0.5
 50
45
 51
90
  0
ARC
  8
_0-0_
  6
CONTINUOUS
 62
    7
 10
39.568012059330613
 20
43.013126543470605
 40
0.5
 50
0
 51
45
  0
ARC
  8
_0-0_
  6
CONTINUOUS
 62
    7
 10
31.568012059330613
 20
42.220236543470435
 40
0.5
 50
270
 51
0
  0
ARC
  8
_0-0_
  6
CONTINUOUS
 62
    7
 10
27.977022059330466
 20
47.020236543470673
 40
0.5
 50
90
 51
153.43494000000001
  0
ARC
  8
_0-0_
  6
CONTINUOUS
 62
    7
 10
28.633972059330517
 20
47.020236543470673
 40
0.5
 50
60.002623
 51
90
  0
ARC
  8
_0-0_
  6
CONTINUOUS
 62
    7
 10
29.767992059330481
 20
47.520246543470421
 40
0.5
 50
240.00262000000001
 51
300.00067999999999
  0
ARC
  8
_0-0_
  6
CONTINUOUS
 62
    7
 10
30.901922059330445
 20
47.020236543470673
 40
0.5
 50
90
 51
120.00068
  0
ARC
  8
_0-0_
  6
CONTINUOUS
 62
    7
 10
31.568012059330613
 20
47.020236543470673
 40
0.5
 50
0
 51
90
  0
ARC
  8
_0-0_
  6
CONTINUOUS
 62
    7
 10
25.577022059330375
 20
42.220236543470435
 40
0.5
 50
153.43494000000001
 51
270
  0
LINE
  8
_0-1_
  6
CONTINUOUS
 62
  152
 10
28.768012059330431
 20
137.09159147787284
 11
28.768012059330431
 21
133.89159147787257
  0
LINE
  8
_0-1_
  6
CONTINUOUS
 62
  152
 10
28.268012059330431
 20
134.39159147787257
 11
31.268012059330431
 21
134.39159147787257
  0
LINE
  8
_0-1_
  6
CONTINUOUS
 62
  152
 10
30.768012059330431
 20
133.89159147787257
 11
30.768012059330431
 21
137.09159147787284
  0
LINE
  8
_0-1_
  6
CENTER2
 62
  152
 10
29.768012059330658
 20
133.89159147787257
 11
29.768012059330658
 21
142.89159147787257
  0
LINE
  8
_0-1_
  6
CENTER2
 62
  152
 10
32.068012059331068
 20
128.89156147787241
 11
32.068012059331068
 21
118.89156147787241
  0
LINE
  8
_0-1_
  6
CENTER2
 62
  152
 10
27.068042059330992
 20
123.89159147787257
 11
37.067992059331118
 21
123.89159147787257
  0
LINE
  8
_0-1_
  6
PHANTOM1
 62
  152
 10
12.06801199055667
 20
118.29159116517735
 11
12.06801199055667
 21
105.39159154664708
  0
LINE
  8
_0-1_
  6
PHANTOM1
 62
  152
 10
12.06801199055667
 20
129.4915919281168
 11
12.06801199055667
 21
142.39159154664708
  0
LINE
  8
_0-1_
  6
PHANTOM1
 62
  152
 10
26.468011609086943
 20
143.89159154664708
 11
13.56801199055667
 21
143.89159154664708
  0
LINE
  8
_0-1_
  6
PHANTOM1
 62
  152
 10
37.668012372026396
 20
143.89159154664708
 11
50.56801199055667
 21
143.89159154664708
  0
LINE
  8
_0-1_
  6
PHANTOM1
 62
  152
 10
52.06801199055667
 20
129.4915919281168
 11
52.06801199055667
 21
142.39159154664708
  0
LINE
  8
_0-1_
  6
PHANTOM1
 62
  152
 10
52.06801199055667
 20
118.29159116517735
 11
52.06801199055667
 21
105.39159154664708
  0
LINE
  8
_0-1_
  6
PHANTOM1
 62
  152
 10
37.668012372026396
 20
103.89159154664708
 11
50.56801199055667
 21
103.89159154664708
  0
LINE
  8
_0-1_
  6
PHANTOM1
 62
  152
 10
26.468011609086943
 20
103.89159154664708
 11
13.56801199055667
 21
103.89159154664708
  0
LINE
  8
_0-1_
  6
PHANTOM1
 62
  152
 10
14.349977961549712
 20
118.79159116517735
 11
12.56801199055667
 21
118.79159116517735
  0
LINE
  8
_0-1_
  6
PHANTOM1
 62
  152
 10
14.57358478642459
 20
118.73880529176427
 11
15.391618720064116
 21
118.32978772889805
  0
LINE
  8
_0-1_
  6
PHANTOM1
 62
  152
 10
14.349977961549712
 20
128.9915919281168
 11
12.56801199055667
 21
128.9915919281168
  0
LINE
  8
_0-1_
  6
PHANTOM1
 62
  152
 10
14.57358478642459
 20
129.04437780152989
 11
15.391618720064116
 21
129.4533953643961
  0
LINE
  8
_0-1_
  6
PHANTOM1
 62
  152
 10
15.668011895189238
 20
131.39159154664708
 11
15.668011895189238
 21
129.9006085373087
  0
LINE
  8
_0-1_
  6
PHANTOM1
 62
  152
 10
15.668011895189238
 20
116.39159154664708
 11
15.668011895189238
 21
117.88257360231114
  0
LINE
  8
_0-1_
  6
PHANTOM1
 62
  152
 10
26.968011609086943
 20
141.60962557565404
 11
26.968011609086943
 21
143.39159154664708
  0
LINE
  8
_0-1_
  6
PHANTOM1
 62
  152
 10
26.915225735673857
 20
141.38601875077916
 11
26.506208172807646
 21
140.56798481713963
  0
LINE
  8
_0-1_
  6
PHANTOM1
 62
  152
 10
24.56801199055667
 20
140.29159164201451
 11
26.058994999895049
 21
140.29159164201451
  0
LINE
  8
_0-1_
  6
PHANTOM1
 62
  152
 10
39.56801199055667
 20
140.29159164201451
 11
38.077029934892607
 21
140.29159164201451
  0
LINE
  8
_0-1_
  6
PHANTOM1
 62
  152
 10
37.220798245439482
 20
141.38601875077916
 11
37.629815808305693
 21
140.56798481713963
  0
LINE
  8
_0-1_
  6
PHANTOM1
 62
  152
 10
37.168012372026396
 20
141.60962557565404
 11
37.168012372026396
 21
143.39159154664708
  0
LINE
  8
_0-1_
  6
PHANTOM1
 62
  152
 10
49.786044827470732
 20
118.79159116517735
 11
51.56801199055667
 21
118.79159116517735
  0
LINE
  8
_0-1_
  6
PHANTOM1
 62
  152
 10
49.562438717851592
 20
118.73880529176427
 11
48.74440359211917
 21
118.32978772889805
  0
LINE
  8
_0-1_
  6
PHANTOM1
 62
  152
 10
48.468013516435576
 20
116.39159154664708
 11
48.468013516435576
 21
117.88257360231114
  0
LINE
  8
_0-1_
  6
PHANTOM1
 62
  152
 10
48.468013516435576
 20
131.39159154664708
 11
48.468013516435576
 21
129.9006085373087
  0
LINE
  8
_0-1_
  6
PHANTOM1
 62
  152
 10
49.562438717851592
 20
129.04437780152989
 11
48.74440359211917
 21
129.4533953643961
  0
LINE
  8
_0-1_
  6
PHANTOM1
 62
  152
 10
49.786044827470732
 20
128.9915919281168
 11
51.56801199055667
 21
128.9915919281168
  0
LINE
  8
_0-1_
  6
PHANTOM1
 62
  152
 10
26.968011609086943
 20
106.17355870973302
 11
26.968011609086943
 21
104.39159154664708
  0
LINE
  8
_0-1_
  6
PHANTOM1
 62
  152
 10
26.915225735673857
 20
106.39716481935216
 11
26.506208172807646
 21
107.21519994508458
  0
LINE
  8
_0-1_
  6
PHANTOM1
 62
  152
 10
24.56801199055667
 20
107.49159002076817
 11
26.058994999895049
 21
107.49159002076817
  0
LINE
  8
_0-1_
  6
PHANTOM1
 62
  152
 10
39.56801199055667
 20
107.49159002076817
 11
38.077029934892607
 21
107.49159002076817
  0
LINE
  8
_0-1_
  6
PHANTOM1
 62
  152
 10
37.220798245439482
 20
106.39716481935216
 11
37.629815808305693
 21
107.21519994508458
  0
LINE
  8
_0-1_
  6
PHANTOM1
 62
  152
 10
37.168012372026396
 20
106.17355870973302
 11
37.168012372026396
 21
104.39159154664708
  0
LINE
  8
_0-1_
  6
PHANTOM1
 62
  152
 10
24.06801199055667
 20
112.18448400270177
 11
24.06801199055667
 21
107.99159002076817
  0
LINE
  8
_0-1_
  6
PHANTOM1
 62
  152
 10
25.421565762529326
 20
113.74514531861973
 11
24.214458218584014
 21
112.53803777467442
  0
LINE
  8
_0-1_
  6
PHANTOM1
 62
  152
 10
38.360904446611357
 20
113.89159154664708
 11
25.775118580827666
 21
113.89159154664708
  0
LINE
  8
_0-1_
  6
PHANTOM1
 62
  152
 10
39.921565762529326
 20
112.53803777467442
 11
38.714458218584014
 21
113.74514531861973
  0
LINE
  8
_0-1_
  6
PHANTOM1
 62
  152
 10
40.06801199055667
 20
112.18448400270177
 11
40.06801199055667
 21
107.99159002076817
  0
LINE
  8
_0-1_
  6
PHANTOM1
 62
  152
 10
43.775119534501982
 20
115.89159154664708
 11
47.968013516435576
 21
115.89159154664708
  0
LINE
  8
_0-1_
  6
PHANTOM1
 62
  152
 10
42.214458218584014
 20
117.24514531861973
 11
43.421565762529326
 21
116.03803777467442
  0
LINE
  8
_0-1_
  6
PHANTOM1
 62
  152
 10
43.421565762529326
 20
131.74514531861973
 11
42.214458218584014
 21
130.53803777467442
  0
LINE
  8
_0-1_
  6
PHANTOM1
 62
  152
 10
43.775119534501982
 20
131.89159154664708
 11
47.968013516435576
 21
131.89159154664708
  0
LINE
  8
_0-1_
  6
PHANTOM1
 62
  152
 10
40.06801199055667
 20
135.59869813691807
 11
40.06801199055667
 21
139.79159164201451
  0
LINE
  8
_0-1_
  6
PHANTOM1
 62
  152
 10
38.714458218584014
 20
134.03803777467442
 11
39.921565762529326
 21
135.24514531861973
  0
LINE
  8
_0-1_
  6
PHANTOM1
 62
  152
 10
25.775118580827666
 20
133.89159154664708
 11
38.360904446611357
 21
133.89159154664708
  0
LINE
  8
_0-1_
  6
PHANTOM1
 62
  152
 10
24.214458218584014
 20
135.24514531861973
 11
25.421565762529326
 21
134.03803777467442
  0
LINE
  8
_0-1_
  6
PHANTOM1
 62
  152
 10
24.06801199055667
 20
135.59869813691807
 11
24.06801199055667
 21
139.79159164201451
  0
LINE
  8
_0-1_
  6
PHANTOM1
 62
  152
 10
20.360905400285674
 20
115.89159154664708
 11
16.168011895189238
 21
115.89159154664708
  0
LINE
  8
_0-1_
  6
PHANTOM1
 62
  152
 10
21.921565762529326
 20
117.24514531861973
 11
20.714458218584014
 21
116.03803777467442
  0
LINE
  8
_0-1_
  6
PHANTOM1
 62
  152
 10
20.714458218584014
 20
131.74514531861973
 11
21.921565762529326
 21
130.53803777467442
  0
LINE
  8
_0-1_
  6
PHANTOM1
 62
  152
 10
20.360905400285674
 20
131.89159154664708
 11
16.168011895189238
 21
131.89159154664708
  0
ARC
  8
_0-1_
  6
PHANTOM1
 62
  152
 10
26.058994999895049
 20
140.79159164201451
 40
0.5
 50
270
 51
333.4349365234375
  0
ARC
  8
_0-1_
  6
PHANTOM1
 62
  152
 10
38.077029934892607
 20
140.79159164201451
 40
0.5
 50
206.56504821777344
 51
270
  0
ARC
  8
_0-1_
  6
PHANTOM1
 62
  152
 10
38.077029934892607
 20
106.99159002076817
 40
0.5
 50
90
 51
153.43493652343753
  0
ARC
  8
_0-1_
  6
PHANTOM1
 62
  152
 10
26.058994999895049
 20
106.99159002076817
 40
0.5
 50
26.56504821777343
 51
90
  0
ARC
  8
_0-1_
  6
PHANTOM1
 62
  152
 10
48.968013516435576
 20
129.9006085373087
 40
0.5
 50
180
 51
243.43493652343753
  0
ARC
  8
_0-1_
  6
PHANTOM1
 62
  152
 10
48.968013516435576
 20
117.88257360231114
 40
0.5
 50
116.56504821777345
 51
180.00000000000003
  0
ARC
  8
_0-1_
  6
PHANTOM1
 62
  152
 10
15.168011895189238
 20
117.88257360231114
 40
0.5
 50
0
 51
63.434936523437493
  0
ARC
  8
_0-1_
  6
PHANTOM1
 62
  152
 10
15.168011895189238
 20
129.9006085373087
 40
0.5
 50
296.56504821777344
 51
0
  0
ARC
  8
_0-1_
  6
PHANTOM1
 62
  152
 10
13.56801199055667
 20
105.39159154664708
 40
1.5
 50
180
 51
270
  0
ARC
  8
_0-1_
  6
PHANTOM1
 62
  152
 10
13.56801199055667
 20
142.39159154664708
 40
1.5
 50
90
 51
180
  0
ARC
  8
_0-1_
  6
PHANTOM1
 62
  152
 10
50.56801199055667
 20
142.39159154664708
 40
1.5
 50
0
 51
90
  0
ARC
  8
_0-1_
  6
PHANTOM1
 62
  152
 10
50.56801199055667
 20
105.39159154664708
 40
1.5
 50
270
 51
0
  0
ARC
  8
_0-1_
  6
PHANTOM1
 62
  152
 10
12.56801199055667
 20
118.29159116517735
 40
0.5
 50
90
 51
180
  0
ARC
  8
_0-1_
  6
PHANTOM1
 62
  152
 10
12.56801199055667
 20
129.4915919281168
 40
0.5
 50
180
 51
270
  0
ARC
  8
_0-1_
  6
PHANTOM1
 62
  152
 10
26.468011609086943
 20
143.39159154664708
 40
0.5
 50
0
 51
90
  0
ARC
  8
_0-1_
  6
PHANTOM1
 62
  152
 10
37.668012372026396
 20
143.39159154664708
 40
0.5
 50
90
 51
180
  0
ARC
  8
_0-1_
  6
PHANTOM1
 62
  152
 10
51.56801199055667
 20
129.4915919281168
 40
0.5
 50
270
 51
0
  0
ARC
  8
_0-1_
  6
PHANTOM1
 62
  152
 10
51.56801199055667
 20
118.29159116517735
 40
0.5
 50
0
 51
90
  0
ARC
  8
_0-1_
  6
PHANTOM1
 62
  152
 10
37.668012372026396
 20
104.39159154664708
 40
0.5
 50
180
 51
270
  0
ARC
  8
_0-1_
  6
PHANTOM1
 62
  152
 10
26.468011609086943
 20
104.39159154664708
 40
0.5
 50
270
 51
359.99998474121094
  0
ARC
  8
_0-1_
  6
PHANTOM1
 62
  152
 10
14.349977961549712
 20
118.29159116517735
 40
0.5
 50
63.434936523437521
 51
90.000000000000028
  0
ARC
  8
_0-1_
  6
PHANTOM1
 62
  152
 10
14.349977961549712
 20
129.4915919281168
 40
0.5
 50
270
 51
296.56504821777344
  0
ARC
  8
_0-1_
  6
PHANTOM1
 62
  152
 10
16.168011895189238
 20
131.39159154664708
 40
0.5
 50
90
 51
180
  0
ARC
  8
_0-1_
  6
PHANTOM1
 62
  152
 10
16.168011895189238
 20
116.39159154664708
 40
0.5
 50
180
 51
270
  0
ARC
  8
_0-1_
  6
PHANTOM1
 62
  152
 10
26.468011609086943
 20
141.60962557565404
 40
0.5
 50
333.4349365234375
 51
0.000000000000019
  0
ARC
  8
_0-1_
  6
PHANTOM1
 62
  152
 10
24.56801199055667
 20
139.79159164201451
 40
0.5
 50
90
 51
180
  0
ARC
  8
_0-1_
  6
PHANTOM1
 62
  152
 10
39.56801199055667
 20
139.79159164201451
 40
0.5
 50
0
 51
90
  0
ARC
  8
_0-1_
  6
PHANTOM1
 62
  152
 10
37.668012372026396
 20
141.60962557565404
 40
0.5
 50
180
 51
206.56504821777344
  0
ARC
  8
_0-1_
  6
PHANTOM1
 62
  152
 10
49.786044827470732
 20
118.29159116517735
 40
0.5
 50
90
 51
116.56504821777344
  0
ARC
  8
_0-1_
  6
PHANTOM1
 62
  152
 10
47.968013516435576
 20
116.39159154664708
 40
0.5
 50
270
 51
0
  0
ARC
  8
_0-1_
  6
PHANTOM1
 62
  152
 10
47.968013516435576
 20
131.39159154664708
 40
0.5
 50
0
 51
90
  0
ARC
  8
_0-1_
  6
PHANTOM1
 62
  152
 10
49.786044827470732
 20
129.4915919281168
 40
0.5
 50
243.43493652343753
 51
270
  0
ARC
  8
_0-1_
  6
PHANTOM1
 62
  152
 10
26.468011609086943
 20
106.17355870973302
 40
0.5
 50
359.99998474121088
 51
26.565048217773398
  0
ARC
  8
_0-1_
  6
PHANTOM1
 62
  152
 10
24.56801199055667
 20
107.99159002076817
 40
0.5
 50
180
 51
270
  0
ARC
  8
_0-1_
  6
PHANTOM1
 62
  152
 10
39.56801199055667
 20
107.99159002076817
 40
0.5
 50
270
 51
0
  0
ARC
  8
_0-1_
  6
PHANTOM1
 62
  152
 10
37.668012372026396
 20
106.17355870973302
 40
0.5
 50
153.43493652343753
 51
180.00000000000003
  0
ARC
  8
_0-1_
  6
PHANTOM1
 62
  152
 10
24.56801199055667
 20
112.18448400270177
 40
0.5
 50
135
 51
180
  0
ARC
  8
_0-1_
  6
PHANTOM1
 62
  152
 10
25.775118580827666
 20
113.39159154664708
 40
0.5
 50
90
 51
135
  0
ARC
  8
_0-1_
  6
PHANTOM1
 62
  152
 10
38.360904446611357
 20
113.39159154664708
 40
0.5
 50
45.00000000000005
 51
90.000000000000057
  0
ARC
  8
_0-1_
  6
PHANTOM1
 62
  152
 10
39.56801199055667
 20
112.18448400270177
 40
0.5
 50
0
 51
45
  0
ARC
  8
_0-1_
  6
PHANTOM1
 62
  152
 10
43.775119534501982
 20
116.39159154664708
 40
0.5
 50
225
 51
270
  0
ARC
  8
_0-1_
  6
PHANTOM1
 62
  152
 10
42.56801199055667
 20
117.59869909059239
 40
0.5
 50
180
 51
224.99998474121097
  0
ARC
  8
_0-1_
  6
PHANTOM1
 62
  152
 10
42.56801199055667
 20
130.18448495637608
 40
0.5
 50
135
 51
180
  0
ARC
  8
_0-1_
  6
PHANTOM1
 62
  152
 10
43.775119534501982
 20
131.39159154664708
 40
0.5
 50
90
 51
135
  0
ARC
  8
_0-1_
  6
PHANTOM1
 62
  152
 10
39.56801199055667
 20
135.59869813691807
 40
0.5
 50
315
 51
0
  0
ARC
  8
_0-1_
  6
PHANTOM1
 62
  152
 10
38.360904446611357
 20
134.39159154664708
 40
0.5
 50
270
 51
315
  0
ARC
  8
_0-1_
  6
PHANTOM1
 62
  152
 10
25.775118580827666
 20
134.39159154664708
 40
0.5
 50
225
 51
270
  0
ARC
  8
_0-1_
  6
PHANTOM1
 62
  152
 10
24.56801199055667
 20
135.59869813691807
 40
0.5
 50
180
 51
225
  0
ARC
  8
_0-1_
  6
PHANTOM1
 62
  152
 10
20.360905400285674
 20
116.39159154664708
 40
0.5
 50
270
 51
315
  0
ARC
  8
_0-1_
  6
PHANTOM1
 62
  152
 10
21.56801199055667
 20
117.59869909059239
 40
0.5
 50
315
 51
0
  0
ARC
  8
_0-1_
  6
PHANTOM1
 62
  152
 10
21.56801199055667
 20
130.18448495637608
 40
0.5
 50
0
 51
45
  0
ARC
  8
_0-1_
  6
PHANTOM1
 62
  152
 10
20.360905400285674
 20
131.39159154664708
 40
0.5
 50
45.00000000000005
 51
90.000000000000057
  0
LINE
  8
_0-1_
  6
PHANTOM1
 62
  152
 10
42.06801199055667
 20
117.59869909059239
 11
42.06801199055667
 21
130.18448495637608
  0
LINE
  8
_0-1_
  6
PHANTOM1
 62
  152
 10
22.06801199055667
 20
117.59869909059239
 11
22.06801199055667
 21
130.18448495637608
  0
LINE
  8
_0-1_
  6
CONTINUOUS
 62
  152
 10
28.768012059330431
 20
41.720236543470435
 11
28.768012059330431
 21
38.520236543470162
  0
LINE
  8
_0-1_
  6
CONTINUOUS
 62
  152
 10
28.268012059330431
 20
39.020236543470162
 11
31.268012059330431
 21
39.020236543470162
  0
LINE
  8
_0-1_
  6
CONTINUOUS
 62
  152
 10
30.768012059330431
 20
38.520236543470162
 11
30.768012059330431
 21
41.720236543470435
  0
LINE
  8
_0-1_
  6
CENTER2
 62
  152
 10
32.068012059331068
 20
33.52020654347001
 11
32.068012059331068
 21
23.52020654347001
  0
LINE
  8
_0-1_
  6
CENTER2
 62
  152
 10
27.068042059330992
 20
28.520236543470162
 11
37.067992059331118
 21
28.520236543470162
  0
LINE
  8
_0-1_
  6
CENTER2
 62
  152
 10
46.068012059330613
 20
58.520236543470219
 11
41.068012059330613
 21
58.520236543470219
  0
LINE
  8
_0-1_
  6
PHANTOM1
 62
  152
 10
12.06801199055667
 20
22.920236230774947
 11
12.06801199055667
 21
10.020236612244673
  0
LINE
  8
_0-1_
  6
PHANTOM1
 62
  152
 10
12.06801199055667
 20
34.1202369937144
 11
12.06801199055667
 21
47.020236612244673
  0
LINE
  8
_0-1_
  6
PHANTOM1
 62
  152
 10
26.468011609086943
 20
48.520236612244673
 11
13.56801199055667
 21
48.520236612244673
  0
LINE
  8
_0-1_
  6
PHANTOM1
 62
  152
 10
37.668012372026396
 20
48.520236612244673
 11
50.56801199055667
 21
48.520236612244673
  0
LINE
  8
_0-1_
  6
PHANTOM1
 62
  152
 10
52.06801199055667
 20
34.1202369937144
 11
52.06801199055667
 21
47.020236612244673
  0
LINE
  8
_0-1_
  6
PHANTOM1
 62
  152
 10
52.06801199055667
 20
22.920236230774947
 11
52.06801199055667
 21
10.020236612244673
  0
LINE
  8
_0-1_
  6
PHANTOM1
 62
  152
 10
37.668012372026396
 20
8.5202366122446733
 11
50.56801199055667
 21
8.5202366122446733
  0
LINE
  8
_0-1_
  6
PHANTOM1
 62
  152
 10
26.468011609086943
 20
8.5202366122446733
 11
13.56801199055667
 21
8.5202366122446733
  0
LINE
  8
_0-1_
  6
PHANTOM1
 62
  152
 10
14.349977961549712
 20
23.420236230774947
 11
12.56801199055667
 21
23.420236230774947
  0
LINE
  8
_0-1_
  6
PHANTOM1
 62
  152
 10
14.57358478642459
 20
23.367450357361861
 11
15.391618720064116
 21
22.95843279449565
  0
LINE
  8
_0-1_
  6
PHANTOM1
 62
  152
 10
14.349977961549712
 20
33.6202369937144
 11
12.56801199055667
 21
33.6202369937144
  0
LINE
  8
_0-1_
  6
PHANTOM1
 62
  152
 10
14.57358478642459
 20
33.673022867127486
 11
15.391618720064116
 21
34.082040429993697
  0
LINE
  8
_0-1_
  6
PHANTOM1
 62
  152
 10
15.668011895189238
 20
36.020236612244673
 11
15.668011895189238
 21
34.529253602906294
  0
LINE
  8
_0-1_
  6
PHANTOM1
 62
  152
 10
15.668011895189238
 20
21.020236612244673
 11
15.668011895189238
 21
22.511218667908736
  0
LINE
  8
_0-1_
  6
PHANTOM1
 62
  152
 10
26.968011609086943
 20
46.238270641251631
 11
26.968011609086943
 21
48.020236612244673
  0
LINE
  8
_0-1_
  6
PHANTOM1
 62
  152
 10
26.915225735673857
 20
46.014663816376753
 11
26.506208172807646
 21
45.196629882737227
  0
LINE
  8
_0-1_
  6
PHANTOM1
 62
  152
 10
24.56801199055667
 20
44.920236707612105
 11
26.058994999895049
 21
44.920236707612105
  0
LINE
  8
_0-1_
  6
PHANTOM1
 62
  152
 10
39.56801199055667
 20
44.920236707612105
 11
38.077029934892607
 21
44.920236707612105
  0
LINE
  8
_0-1_
  6
PHANTOM1
 62
  152
 10
37.220798245439482
 20
46.014663816376753
 11
37.629815808305693
 21
45.196629882737227
  0
LINE
  8
_0-1_
  6
PHANTOM1
 62
  152
 10
37.168012372026396
 20
46.238270641251631
 11
37.168012372026396
 21
48.020236612244673
  0
LINE
  8
_0-1_
  6
PHANTOM1
 62
  152
 10
49.786044827470732
 20
23.420236230774947
 11
51.56801199055667
 21
23.420236230774947
  0
LINE
  8
_0-1_
  6
PHANTOM1
 62
  152
 10
49.562438717851592
 20
23.367450357361861
 11
48.74440359211917
 21
22.95843279449565
  0
LINE
  8
_0-1_
  6
PHANTOM1
 62
  152
 10
48.468013516435576
 20
21.020236612244673
 11
48.468013516435576
 21
22.511218667908736
  0
LINE
  8
_0-1_
  6
PHANTOM1
 62
  152
 10
48.468013516435576
 20
36.020236612244673
 11
48.468013516435576
 21
34.529253602906294
  0
LINE
  8
_0-1_
  6
PHANTOM1
 62
  152
 10
49.562438717851592
 20
33.673022867127486
 11
48.74440359211917
 21
34.082040429993697
  0
LINE
  8
_0-1_
  6
PHANTOM1
 62
  152
 10
49.786044827470732
 20
33.6202369937144
 11
51.56801199055667
 21
33.6202369937144
  0
LINE
  8
_0-1_
  6
PHANTOM1
 62
  152
 10
26.968011609086943
 20
10.802203775330611
 11
26.968011609086943
 21
9.0202366122446733
  0
LINE
  8
_0-1_
  6
PHANTOM1
 62
  152
 10
26.915225735673857
 20
11.025809884949751
 11
26.506208172807646
 21
11.843845010682173
  0
LINE
  8
_0-1_
  6
PHANTOM1
 62
  152
 10
24.56801199055667
 20
12.120235086365767
 11
26.058994999895049
 21
12.120235086365767
  0
LINE
  8
_0-1_
  6
PHANTOM1
 62
  152
 10
39.56801199055667
 20
12.120235086365767
 11
38.077029934892607
 21
12.120235086365767
  0
LINE
  8
_0-1_
  6
PHANTOM1
 62
  152
 10
37.220798245439482
 20
11.025809884949751
 11
37.629815808305693
 21
11.843845010682173
  0
LINE
  8
_0-1_
  6
PHANTOM1
 62
  152
 10
37.168012372026396
 20
10.802203775330611
 11
37.168012372026396
 21
9.0202366122446733
  0
LINE
  8
_0-1_
  6
PHANTOM1
 62
  152
 10
24.06801199055667
 20
16.813129068299361
 11
24.06801199055667
 21
12.620235086365767
  0
LINE
  8
_0-1_
  6
PHANTOM1
 62
  152
 10
25.421565762529326
 20
18.37379038421733
 11
24.214458218584014
 21
17.166682840272017
  0
LINE
  8
_0-1_
  6
PHANTOM1
 62
  152
 10
38.360904446611357
 20
18.520236612244673
 11
25.775118580827666
 21
18.520236612244673
  0
LINE
  8
_0-1_
  6
PHANTOM1
 62
  152
 10
39.921565762529326
 20
17.166682840272017
 11
38.714458218584014
 21
18.37379038421733
  0
LINE
  8
_0-1_
  6
PHANTOM1
 62
  152
 10
40.06801199055667
 20
16.813129068299361
 11
40.06801199055667
 21
12.620235086365767
  0
LINE
  8
_0-1_
  6
PHANTOM1
 62
  152
 10
43.775119534501982
 20
20.520236612244673
 11
47.968013516435576
 21
20.520236612244673
  0
LINE
  8
_0-1_
  6
PHANTOM1
 62
  152
 10
42.214458218584014
 20
21.87379038421733
 11
43.421565762529326
 21
20.666682840272017
  0
LINE
  8
_0-1_
  6
PHANTOM1
 62
  152
 10
43.421565762529326
 20
36.37379038421733
 11
42.214458218584014
 21
35.166682840272017
  0
LINE
  8
_0-1_
  6
PHANTOM1
 62
  152
 10
43.775119534501982
 20
36.520236612244673
 11
47.968013516435576
 21
36.520236612244673
  0
LINE
  8
_0-1_
  6
PHANTOM1
 62
  152
 10
40.06801199055667
 20
40.227343202515669
 11
40.06801199055667
 21
44.420236707612105
  0
LINE
  8
_0-1_
  6
PHANTOM1
 62
  152
 10
38.714458218584014
 20
38.666682840272017
 11
39.921565762529326
 21
39.87379038421733
  0
LINE
  8
_0-1_
  6
PHANTOM1
 62
  152
 10
25.775118580827666
 20
38.520236612244673
 11
38.360904446611357
 21
38.520236612244673
  0
LINE
  8
_0-1_
  6
PHANTOM1
 62
  152
 10
24.214458218584014
 20
39.87379038421733
 11
25.421565762529326
 21
38.666682840272017
  0
LINE
  8
_0-1_
  6
PHANTOM1
 62
  152
 10
24.06801199055667
 20
40.227343202515669
 11
24.06801199055667
 21
44.420236707612105
  0
LINE
  8
_0-1_
  6
PHANTOM1
 62
  152
 10
20.360905400285674
 20
20.520236612244673
 11
16.168011895189238
 21
20.520236612244673
  0
LINE
  8
_0-1_
  6
PHANTOM1
 62
  152
 10
21.921565762529326
 20
21.87379038421733
 11
20.714458218584014
 21
20.666682840272017
  0
LINE
  8
_0-1_
  6
PHANTOM1
 62
  152
 10
20.714458218584014
 20
36.37379038421733
 11
21.921565762529326
 21
35.166682840272017
  0
LINE
  8
_0-1_
  6
PHANTOM1
 62
  152
 10
20.360905400285674
 20
36.520236612244673
 11
16.168011895189238
 21
36.520236612244673
  0
ARC
  8
_0-1_
  6
PHANTOM1
 62
  152
 10
26.058994999895049
 20
45.420236707612105
 40
0.5
 50
270
 51
333.4349365234375
  0
ARC
  8
_0-1_
  6
PHANTOM1
 62
  152
 10
38.077029934892607
 20
45.420236707612105
 40
0.5
 50
206.56504821777344
 51
270
  0
ARC
  8
_0-1_
  6
PHANTOM1
 62
  152
 10
38.077029934892607
 20
11.620235086365767
 40
0.5
 50
90
 51
153.43493652343753
  0
ARC
  8
_0-1_
  6
PHANTOM1
 62
  152
 10
26.058994999895049
 20
11.620235086365767
 40
0.5
 50
26.56504821777343
 51
90
  0
ARC
  8
_0-1_
  6
PHANTOM1
 62
  152
 10
48.968013516435576
 20
34.529253602906294
 40
0.5
 50
180
 51
243.43493652343753
  0
ARC
  8
_0-1_
  6
PHANTOM1
 62
  152
 10
48.968013516435576
 20
22.511218667908736
 40
0.5
 50
116.56504821777345
 51
180.00000000000003
  0
ARC
  8
_0-1_
  6
PHANTOM1
 62
  152
 10
15.168011895189238
 20
22.511218667908736
 40
0.5
 50
0
 51
63.434936523437493
  0
ARC
  8
_0-1_
  6
PHANTOM1
 62
  152
 10
15.168011895189238
 20
34.529253602906294
 40
0.5
 50
296.56504821777344
 51
0
  0
ARC
  8
_0-1_
  6
PHANTOM1
 62
  152
 10
13.56801199055667
 20
10.020236612244673
 40
1.5
 50
180
 51
270
  0
ARC
  8
_0-1_
  6
PHANTOM1
 62
  152
 10
13.56801199055667
 20
47.020236612244673
 40
1.5
 50
90
 51
180
  0
ARC
  8
_0-1_
  6
PHANTOM1
 62
  152
 10
50.56801199055667
 20
47.020236612244673
 40
1.5
 50
0
 51
90
  0
ARC
  8
_0-1_
  6
PHANTOM1
 62
  152
 10
50.56801199055667
 20
10.020236612244673
 40
1.5
 50
270
 51
0
  0
ARC
  8
_0-1_
  6
PHANTOM1
 62
  152
 10
12.56801199055667
 20
22.920236230774947
 40
0.5
 50
90
 51
180
  0
ARC
  8
_0-1_
  6
PHANTOM1
 62
  152
 10
12.56801199055667
 20
34.1202369937144
 40
0.5
 50
180
 51
270
  0
ARC
  8
_0-1_
  6
PHANTOM1
 62
  152
 10
26.468011609086943
 20
48.020236612244673
 40
0.5
 50
0
 51
90
  0
ARC
  8
_0-1_
  6
PHANTOM1
 62
  152
 10
37.668012372026396
 20
48.020236612244673
 40
0.5
 50
90
 51
180
  0
ARC
  8
_0-1_
  6
PHANTOM1
 62
  152
 10
51.56801199055667
 20
34.1202369937144
 40
0.5
 50
270
 51
0
  0
ARC
  8
_0-1_
  6
PHANTOM1
 62
  152
 10
51.56801199055667
 20
22.920236230774947
 40
0.5
 50
0
 51
90
  0
ARC
  8
_0-1_
  6
PHANTOM1
 62
  152
 10
37.668012372026396
 20
9.0202366122446733
 40
0.5
 50
180
 51
270
  0
ARC
  8
_0-1_
  6
PHANTOM1
 62
  152
 10
26.468011609086943
 20
9.0202366122446733
 40
0.5
 50
270
 51
359.99998474121094
  0
ARC
  8
_0-1_
  6
PHANTOM1
 62
  152
 10
14.349977961549712
 20
22.920236230774947
 40
0.5
 50
63.434936523437521
 51
90.000000000000028
  0
ARC
  8
_0-1_
  6
PHANTOM1
 62
  152
 10
14.349977961549712
 20
34.1202369937144
 40
0.5
 50
270
 51
296.56504821777344
  0
ARC
  8
_0-1_
  6
PHANTOM1
 62
  152
 10
16.168011895189238
 20
36.020236612244673
 40
0.5
 50
90
 51
180
  0
ARC
  8
_0-1_
  6
PHANTOM1
 62
  152
 10
16.168011895189238
 20
21.020236612244673
 40
0.5
 50
180
 51
270
  0
ARC
  8
_0-1_
  6
PHANTOM1
 62
  152
 10
26.468011609086943
 20
46.238270641251631
 40
0.5
 50
333.4349365234375
 51
0.000000000000019
  0
ARC
  8
_0-1_
  6
PHANTOM1
 62
  152
 10
24.56801199055667
 20
44.420236707612105
 40
0.5
 50
90
 51
180
  0
ARC
  8
_0-1_
  6
PHANTOM1
 62
  152
 10
39.56801199055667
 20
44.420236707612105
 40
0.5
 50
0
 51
90
  0
ARC
  8
_0-1_
  6
PHANTOM1
 62
  152
 10
37.668012372026396
 20
46.238270641251631
 40
0.5
 50
180
 51
206.56504821777344
  0
ARC
  8
_0-1_
  6
PHANTOM1
 62
  152
 10
49.786044827470732
 20
22.920236230774947
 40
0.5
 50
90
 51
116.56504821777344
  0
ARC
  8
_0-1_
  6
PHANTOM1
 62
  152
 10
47.968013516435576
 20
21.020236612244673
 40
0.5
 50
270
 51
0
  0
ARC
  8
_0-1_
  6
PHANTOM1
 62
  152
 10
47.968013516435576
 20
36.020236612244673
 40
0.5
 50
0
 51
90
  0
ARC
  8
_0-1_
  6
PHANTOM1
 62
  152
 10
49.786044827470732
 20
34.1202369937144
 40
0.5
 50
243.43493652343753
 51
270
  0
ARC
  8
_0-1_
  6
PHANTOM1
 62
  152
 10
26.468011609086943
 20
10.802203775330611
 40
0.5
 50
359.99998474121088
 51
26.565048217773398
  0
ARC
  8
_0-1_
  6
PHANTOM1
 62
  152
 10
24.56801199055667
 20
12.620235086365767
 40
0.5
 50
180
 51
270
  0
ARC
  8
_0-1_
  6
PHANTOM1
 62
  152
 10
39.56801199055667
 20
12.620235086365767
 40
0.5
 50
270
 51
0
  0
ARC
  8
_0-1_
  6
PHANTOM1
 62
  152
 10
37.668012372026396
 20
10.802203775330611
 40
0.5
 50
153.43493652343753
 51
180.00000000000003
  0
ARC
  8
_0-1_
  6
PHANTOM1
 62
  152
 10
24.56801199055667
 20
16.813129068299361
 40
0.5
 50
135
 51
180
  0
ARC
  8
_0-1_
  6
PHANTOM1
 62
  152
 10
25.775118580827666
 20
18.020236612244673
 40
0.5
 50
90
 51
135
  0
ARC
  8
_0-1_
  6
PHANTOM1
 62
  152
 10
38.360904446611357
 20
18.020236612244673
 40
0.5
 50
45.00000000000005
 51
90.000000000000057
  0
ARC
  8
_0-1_
  6
PHANTOM1
 62
  152
 10
39.56801199055667
 20
16.813129068299361
 40
0.5
 50
0
 51
45
  0
ARC
  8
_0-1_
  6
PHANTOM1
 62
  152
 10
43.775119534501982
 20
21.020236612244673
 40
0.5
 50
225
 51
270
  0
ARC
  8
_0-1_
  6
PHANTOM1
 62
  152
 10
42.56801199055667
 20
22.227344156189986
 40
0.5
 50
180
 51
224.99998474121097
  0
ARC
  8
_0-1_
  6
PHANTOM1
 62
  152
 10
42.56801199055667
 20
34.813130021973677
 40
0.5
 50
135
 51
180
  0
ARC
  8
_0-1_
  6
PHANTOM1
 62
  152
 10
43.775119534501982
 20
36.020236612244673
 40
0.5
 50
90
 51
135
  0
ARC
  8
_0-1_
  6
PHANTOM1
 62
  152
 10
39.56801199055667
 20
40.227343202515669
 40
0.5
 50
315
 51
0
  0
ARC
  8
_0-1_
  6
PHANTOM1
 62
  152
 10
38.360904446611357
 20
39.020236612244673
 40
0.5
 50
270
 51
315
  0
ARC
  8
_0-1_
  6
PHANTOM1
 62
  152
 10
25.775118580827666
 20
39.020236612244673
 40
0.5
 50
225
 51
270
  0
ARC
  8
_0-1_
  6
PHANTOM1
 62
  152
 10
24.56801199055667
 20
40.227343202515669
 40
0.5
 50
180
 51
225
  0
ARC
  8
_0-1_
  6
PHANTOM1
 62
  152
 10
20.360905400285674
 20
21.020236612244673
 40
0.5
 50
270
 51
315
  0
ARC
  8
_0-1_
  6
PHANTOM1
 62
  152
 10
21.56801199055667
 20
22.227344156189986
 40
0.5
 50
315
 51
0
  0
ARC
  8
_0-1_
  6
PHANTOM1
 62
  152
 10
21.56801199055667
 20
34.813130021973677
 40
0.5
 50
0
 51
45
  0
ARC
  8
_0-1_
  6
PHANTOM1
 62
  152
 10
20.360905400285674
 20
36.020236612244673
 40
0.5
 50
45.00000000000005
 51
90.000000000000057
  0
LINE
  8
_0-1_
  6
PHANTOM1
 62
  152
 10
42.06801199055667
 20
22.227344156189986
 11
42.06801199055667
 21
34.813130021973677
  0
LINE
  8
_0-1_
  6
PHANTOM1
 62
  152
 10
22.06801199055667
 20
22.227344156189986
 11
22.06801199055667
 21
34.813130021973677
  0
TEXT
  8
_0-1_
 62
    7
 10
6.6708637156920076
 20
162.78208111566062
 40
5
 41
1
 50
0
  1
PS30
  0
TEXT
  8
_0-1_
 62
    7
 10
9.7336837156918818
 20
67.415256181258428
 40
5
 41
1
 50
0
  1
PS40
  0
TEXT
  8
_0-1_
 62
    7
 10
133.79669251006754
 20
162.78208111566062
 40
5
 41
1
 50
0
  1
PS3T
  0
TEXT
  8
_0-1_
 62
    7
 10
143.79669251006754
 20
162.78208111566062
 40
5
 41
1
 50
0
  1
-M4
  0
TEXT
  8
_0-1_
 62
    7
 10
136.85951251006742
 20
67.415256181258428
 40
5
 41
1
 50
0
  1
PS4T
  0
TEXT
  8
_0-1_
 62
    7
 10
280.02314781211305
 20
67.415256181258428
 40
5
 41
1
 50
0
  1
PS4T
  0
TEXT
  8
_0-1_
 62
    7
 10
276.96032781211318
 20
162.78208111566062
 40
5
 41
1
 50
0
  1
PS3T
  0
TEXT
  8
_0-1_
 62
    7
 10
286.96032781211318
 20
162.78208111566062
 40
5
 41
1
 50
0
  1
-M5
  0
TEXT
  8
_0-1_
 62
    7
 10
290.02314781211305
 20
67.415256181258428
 40
5
 41
1
 50
0
  1
-M5
  0
TEXT
  8
_0-1_
 62
    7
 10
146.85951251006742
 20
67.415256181258428
 40
5
 41
1
 50
0
  1
-M4
  0
LINE
  8
_0-1_
  6
CONTINUOUS
 62
   56
 10
133.61544660412551
 20
153.47159149098559
 11
133.61544660412551
 21
154.31159146475954
  0
LINE
  8
_0-1_
  6
CONTINUOUS
 62
   56
 10
131.09544671260596
 20
155.99159138250513
 11
131.93544668637992
 21
155.99159138250513
  0
LINE
  8
_0-1_
  6
CONTINUOUS
 62
   56
 10
129.41544679486037
 20
153.47159149098559
 11
129.41544679486037
 21
154.31159146475954
  0
LINE
  8
_0-1_
  6
CONTINUOUS
 62
   56
 10
131.09544671260596
 20
151.79159157324
 11
131.93544668637992
 21
151.79159157324
  0
LINE
  8
_0-1_
  6
CONTINUOUS
 62
   56
 10
131.93544668637992
 20
155.15159146833582
 11
131.93544668637992
 21
155.99159138250513
  0
LINE
  8
_0-1_
  6
CONTINUOUS
 62
   56
 10
132.7754466899562
 20
154.31159146475954
 11
133.61544660412551
 21
154.31159146475954
  0
LINE
  8
_0-1_
  6
CONTINUOUS
 62
   56
 10
132.7754466899562
 20
153.47159149098559
 11
133.61544660412551
 21
153.47159149098559
  0
LINE
  8
_0-1_
  6
CONTINUOUS
 62
   56
 10
131.93544668637992
 20
152.63159148740931
 11
131.93544668637992
 21
151.79159157324
  0
LINE
  8
_0-1_
  6
CONTINUOUS
 62
   56
 10
131.09544671260596
 20
152.63159148740931
 11
131.09544671260596
 21
151.79159157324
  0
LINE
  8
_0-1_
  6
CONTINUOUS
 62
   56
 10
130.25544670902968
 20
153.47159149098559
 11
129.41544679486037
 21
153.47159149098559
  0
LINE
  8
_0-1_
  6
CONTINUOUS
 62
   56
 10
130.25544670902968
 20
154.31159146475954
 11
129.41544679486037
 21
154.31159146475954
  0
LINE
  8
_0-1_
  6
CONTINUOUS
 62
   56
 10
131.09544671260596
 20
155.15159146833582
 11
131.09544671260596
 21
155.99159138250513
  0
CIRCLE
  8
_0-1_
  6
CONTINUOUS
 62
   56
 10
131.51544669949294
 20
153.89159147787257
 40
4.6999998092651367
  0
ARC
  8
_0-1_
  6
CONTINUOUS
 62
   56
 10
132.7754466899562
 20
155.15159146833582
 40
0.8399999737739563
 50
180
 51
270
  0
ARC
  8
_0-1_
  6
CONTINUOUS
 62
   56
 10
132.7754466899562
 20
152.63159148740931
 40
0.8399999737739563
 50
90
 51
180
  0
ARC
  8
_0-1_
  6
CONTINUOUS
 62
   56
 10
130.25544670902968
 20
152.63159148740931
 40
0.8399999737739563
 50
0
 51
90
  0
ARC
  8
_0-1_
  6
CONTINUOUS
 62
   56
 10
130.25544670902968
 20
155.15159146833582
 40
0.8399999737739563
 50
270
 51
0
  0
LINE
  8
_0-1_
  6
CENTER2
 62
  152
 10
131.51544669949294
 20
159.17804664972192
 11
131.51544669949294
 21
148.46825602882018
  0
LINE
  8
_0-1_
  6
CENTER2
 62
  152
 10
136.87034200994378
 20
153.89159147787257
 11
104.35909875041733
 21
153.89159147787257
  0
LINE
  8
_0-1_
  6
CONTINUOUS
 62
   56
 10
141.61544660412551
 20
58.100236556583241
 11
141.61544660412551
 21
58.940236530357197
  0
LINE
  8
_0-1_
  6
CONTINUOUS
 62
   56
 10
139.09544671260596
 20
60.620236448102787
 11
139.93544668637992
 21
60.620236448102787
  0
LINE
  8
_0-1_
  6
CONTINUOUS
 62
   56
 10
137.41544679486037
 20
58.100236556583241
 11
137.41544679486037
 21
58.940236530357197
  0
LINE
  8
_0-1_
  6
CONTINUOUS
 62
   56
 10
139.09544671260596
 20
56.42023663883765
 11
139.93544668637992
 21
56.42023663883765
  0
LINE
  8
_0-1_
  6
CONTINUOUS
 62
   56
 10
139.93544668637992
 20
59.780236533933476
 11
139.93544668637992
 21
60.620236448102787
  0
LINE
  8
_0-1_
  6
CONTINUOUS
 62
   56
 10
140.7754466899562
 20
58.940236530357197
 11
141.61544660412551
 21
58.940236530357197
  0
LINE
  8
_0-1_
  6
CONTINUOUS
 62
   56
 10
140.7754466899562
 20
58.100236556583241
 11
141.61544660412551
 21
58.100236556583241
  0
LINE
  8
_0-1_
  6
CONTINUOUS
 62
   56
 10
139.93544668637992
 20
57.260236553006962
 11
139.93544668637992
 21
56.42023663883765
  0
LINE
  8
_0-1_
  6
CONTINUOUS
 62
   56
 10
139.09544671260596
 20
57.260236553006962
 11
139.09544671260596
 21
56.42023663883765
  0
LINE
  8
_0-1_
  6
CONTINUOUS
 62
   56
 10
138.25544670902968
 20
58.100236556583241
 11
137.41544679486037
 21
58.100236556583241
  0
LINE
  8
_0-1_
  6
CONTINUOUS
 62
   56
 10
138.25544670902968
 20
58.940236530357197
 11
137.41544679486037
 21
58.940236530357197
  0
LINE
  8
_0-1_
  6
CONTINUOUS
 62
   56
 10
139.09544671260596
 20
59.780236533933476
 11
139.09544671260596
 21
60.620236448102787
  0
CIRCLE
  8
_0-1_
  6
CONTINUOUS
 62
   56
 10
139.51544669949294
 20
58.520236543470219
 40
4.6999998092651367
  0
ARC
  8
_0-1_
  6
CONTINUOUS
 62
   56
 10
140.7754466899562
 20
59.780236533933476
 40
0.8399999737739563
 50
180
 51
270
  0
ARC
  8
_0-1_
  6
CONTINUOUS
 62
   56
 10
140.7754466899562
 20
57.260236553006962
 40
0.8399999737739563
 50
90
 51
180
  0
ARC
  8
_0-1_
  6
CONTINUOUS
 62
   56
 10
138.25544670902968
 20
57.260236553006962
 40
0.8399999737739563
 50
0
 51
90
  0
ARC
  8
_0-1_
  6
CONTINUOUS
 62
   56
 10
138.25544670902968
 20
59.780236533933476
 40
0.8399999737739563
 50
270
 51
0
  0
LINE
  8
_0-1_
  6
CENTER2
 62
  152
 10
139.51544669949294
 20
63.806691715319573
 11
139.51544669949294
 21
53.096901094417831
  0
LINE
  8
_0-1_
  6
CENTER2
 62
  152
 10
144.87034200994378
 20
58.520236543470219
 11
112.35909875041733
 21
58.520236543470219
  0
LINE
  8
_0-2_
  6
CONTINUOUS
 62
  152
 10
259.19367939956595
 20
159.79159157324
 11
259.19367939956595
 21
147.99159138250513
  0
LINE
  8
_0-2_
  6
CONTINUOUS
 62
  152
 10
258.84595263727118
 20
156.04159157324
 11
248.84595263727118
 21
156.04159157324
  0
LINE
  8
_0-2_
  6
CONTINUOUS
 62
  152
 10
258.84595263727118
 20
151.74159138250513
 11
248.84595263727118
 21
151.74159138250513
  0
LINE
  8
_0-2_
  6
CONTINUOUS
 62
  152
 10
249.19595301874091
 20
151.39159147787257
 11
249.19595301874091
 21
156.39159147787257
  0
LINE
  8
ADD_LINE
  6
DOT
 62
    9
 10
258.84595263727118
 20
153.89159147787257
 11
258.13884585608452
 21
153.1844846966859
  0
LINE
  8
ADD_LINE
  6
DOT
 62
    9
 10
258.84595263727118
 20
153.89159147787257
 11
258.13884585608452
 21
154.59869825905923
  0
LINE
  8
_0-2_
  6
CONTINUOUS
 62
   56
 10
259.19367939956595
 20
159.79159157324
 11
258.84595263727118
 21
159.79159157324
  0
LINE
  8
_0-2_
  6
CONTINUOUS
 62
   56
 10
259.19367939956595
 20
147.99159138250513
 11
258.84595263727118
 21
147.99159138250513
  0
LINE
  8
_0-2_
  6
CONTINUOUS
 62
   56
 10
258.84595263727118
 20
156.39159147787257
 11
249.19595301874091
 21
156.39159147787257
  0
LINE
  8
_0-2_
  6
CONTINUOUS
 62
   56
 10
248.84595263727118
 20
156.04159157324
 11
249.19595301874091
 21
156.39159147787257
  0
LINE
  8
_0-2_
  6
CONTINUOUS
 62
   56
 10
258.84595263727118
 20
151.39159147787257
 11
249.19595301874091
 21
151.39159147787257
  0
LINE
  8
_0-2_
  6
CONTINUOUS
 62
   56
 10
248.84595263727118
 20
151.74159138250513
 11
249.19595301874091
 21
151.39159147787257
  0
LINE
  8
_0-2_
  6
CONTINUOUS
 62
   56
 10
248.84595263727118
 20
156.04159157324
 11
248.84595263727118
 21
151.74159138250513
  0
ARC
  8
_0-2_
  6
CONTINUOUS
 62
   56
 10
254.24595273263861
 20
153.89159147787257
 40
7.6999998092651367
 50
309.98310852050781
 51
50.016876220703125
  0
CIRCLE
  8
_0-0_
  6
CONTINUOUS
 62
    7
 10
318.97485627296777
 20
153.89159147787302
 40
2.1500000953674316
  0
LINE
  8
_0-1_
  6
CENTER2
 62
  152
 10
289.34061875347197
 20
153.89159147787257
 11
247.84595263727118
 21
153.89159147787257
  0
LINE
  8
_0-1_
  6
CENTER2
 62
  152
 10
280.64567510544191
 20
160.96488987305361
 11
280.64567510544191
 21
146.19836038059816
  0
LINE
  8
_0-1_
  6
CONTINUOUS
 62
   56
 10
283.09567515312563
 20
153.40159146833582
 11
283.09567515312563
 21
154.38159148740931
  0
LINE
  8
_0-1_
  6
CONTINUOUS
 62
   56
 10
280.15567509590517
 20
156.34159152555628
 11
281.13567511497865
 21
156.34159152555628
  0
LINE
  8
_0-1_
  6
CONTINUOUS
 62
   56
 10
278.19567505775819
 20
153.40159146833582
 11
278.19567505775819
 21
154.38159148740931
  0
LINE
  8
_0-1_
  6
CONTINUOUS
 62
   56
 10
280.15567509590517
 20
151.44159143018885
 11
281.13567511497865
 21
151.44159143018885
  0
LINE
  8
_0-1_
  6
CONTINUOUS
 62
   56
 10
281.13567511497865
 20
155.3615915064828
 11
281.13567511497865
 21
156.34159152555628
  0
LINE
  8
_0-1_
  6
CONTINUOUS
 62
   56
 10
282.11567513405214
 20
154.38159148740931
 11
283.09567515312563
 21
154.38159148740931
  0
LINE
  8
_0-1_
  6
CONTINUOUS
 62
   56
 10
282.11567513405214
 20
153.40159146833582
 11
283.09567515312563
 21
153.40159146833582
  0
LINE
  8
_0-1_
  6
CONTINUOUS
 62
   56
 10
281.13567511497865
 20
152.42159144926234
 11
281.13567511497865
 21
151.44159143018885
  0
LINE
  8
_0-1_
  6
CONTINUOUS
 62
   56
 10
280.15567509590517
 20
152.42159144926234
 11
280.15567509590517
 21
151.44159143018885
  0
LINE
  8
_0-1_
  6
CONTINUOUS
 62
   56
 10
279.17567507683168
 20
153.40159146833582
 11
278.19567505775819
 21
153.40159146833582
  0
LINE
  8
_0-1_
  6
CONTINUOUS
 62
   56
 10
279.17567507683168
 20
154.38159148740931
 11
278.19567505775819
 21
154.38159148740931
  0
LINE
  8
_0-1_
  6
CONTINUOUS
 62
   56
 10
280.15567509590517
 20
155.3615915064828
 11
280.15567509590517
 21
156.34159152555628
  0
CIRCLE
  8
_0-1_
  6
CONTINUOUS
 62
   56
 10
280.64567510544191
 20
153.89159147787257
 40
5.9000000953674316
  0
ARC
  8
_0-1_
  6
CONTINUOUS
 62
   56
 10
282.11567513405214
 20
155.3615915064828
 40
0.9800000190734863
 50
180
 51
270
  0
ARC
  8
_0-1_
  6
CONTINUOUS
 62
   56
 10
282.11567513405214
 20
152.42159144926234
 40
0.9800000190734863
 50
90
 51
180
  0
ARC
  8
_0-1_
  6
CONTINUOUS
 62
   56
 10
279.17567507683168
 20
152.42159144926234
 40
0.9800000190734863
 50
0
 51
90
  0
ARC
  8
_0-1_
  6
CONTINUOUS
 62
   56
 10
279.17567507683168
 20
155.3615915064828
 40
0.9800000190734863
 50
270
 51
0
  0
LINE
  8
_0-1_
  6
CENTER2
 62
  152
 10
283.64567510544191
 20
65.59353493865126
 11
283.64567510544191
 21
50.827005446195813
  0
LINE
  8
_0-1_
  6
CONTINUOUS
 62
   56
 10
286.09567515312563
 20
58.030236533933476
 11
286.09567515312563
 21
59.010236553006962
  0
LINE
  8
_0-1_
  6
CONTINUOUS
 62
   56
 10
283.15567509590517
 20
60.970236591153935
 11
284.13567511497865
 21
60.970236591153935
  0
LINE
  8
_0-1_
  6
CONTINUOUS
 62
   56
 10
281.19567505775819
 20
58.030236533933476
 11
281.19567505775819
 21
59.010236553006962
  0
LINE
  8
_0-1_
  6
CONTINUOUS
 62
   56
 10
283.15567509590517
 20
56.070236495786503
 11
284.13567511497865
 21
56.070236495786503
  0
LINE
  8
_0-1_
  6
CONTINUOUS
 62
   56
 10
284.13567511497865
 20
59.990236572080448
 11
284.13567511497865
 21
60.970236591153935
  0
LINE
  8
_0-1_
  6
CONTINUOUS
 62
   56
 10
285.11567513405214
 20
59.010236553006962
 11
286.09567515312563
 21
59.010236553006962
  0
LINE
  8
_0-1_
  6
CONTINUOUS
 62
   56
 10
285.11567513405214
 20
58.030236533933476
 11
286.09567515312563
 21
58.030236533933476
  0
LINE
  8
_0-1_
  6
CONTINUOUS
 62
   56
 10
284.13567511497865
 20
57.050236514859989
 11
284.13567511497865
 21
56.070236495786503
  0
LINE
  8
_0-1_
  6
CONTINUOUS
 62
   56
 10
283.15567509590517
 20
57.050236514859989
 11
283.15567509590517
 21
56.070236495786503
  0
LINE
  8
_0-1_
  6
CONTINUOUS
 62
   56
 10
282.17567507683168
 20
58.030236533933476
 11
281.19567505775819
 21
58.030236533933476
  0
LINE
  8
_0-1_
  6
CONTINUOUS
 62
   56
 10
282.17567507683168
 20
59.010236553006962
 11
281.19567505775819
 21
59.010236553006962
  0
LINE
  8
_0-1_
  6
CONTINUOUS
 62
   56
 10
283.15567509590517
 20
59.990236572080448
 11
283.15567509590517
 21
60.970236591153935
  0
CIRCLE
  8
_0-1_
  6
CONTINUOUS
 62
   56
 10
283.64567510544191
 20
58.520236543470219
 40
5.9000000953674316
  0
ARC
  8
_0-1_
  6
CONTINUOUS
 62
   56
 10
285.11567513405214
 20
59.990236572080448
 40
0.9800000190734863
 50
180
 51
270
  0
ARC
  8
_0-1_
  6
CONTINUOUS
 62
   56
 10
285.11567513405214
 20
57.050236514859989
 40
0.9800000190734863
 50
90
 51
180
  0
ARC
  8
_0-1_
  6
CONTINUOUS
 62
   56
 10
282.17567507683168
 20
57.050236514859989
 40
0.9800000190734863
 50
0
 51
90
  0
ARC
  8
_0-1_
  6
CONTINUOUS
 62
   56
 10
282.17567507683168
 20
59.990236572080448
 40
0.9800000190734863
 50
270
 51
0
  0
LINE
  8
_0-1_
  6
CENTER2
 62
  152
 10
292.34061875347197
 20
58.520236543470219
 11
250.84595263727118
 21
58.520236543470219
  0
ENDSEC
  0
EOF
