  0
SECTION
  2
HEADER
  9
$ACADVER
  1
AC1009
  9
$INSBASE
 10
0
 20
0
 30
0
  9
$EXTMIN
 10
0
 20
0
  9
$EXTMAX
 10
1189
 20
841
  9
$LIMMIN
 10
0
 20
0
  9
$LIMMAX
 10
1189
 20
841
  9
$LTSCALE
 40
1
  0
ENDSEC
  0
SECTION
  2
TABLES
  0
TABLE
  2
LTYPE
 70
     9
  0
LTYPE
  2
CONTINUOUS
 70
    64
  3
実線
 72
    65
 73
     0
 40
0.0
  0
LTYPE
  2
DASHED1
 70
    64
  3
--  --  --  --  --  --  --  --  
 72
    65
 73
     2
 40
2.5
 49
1.25
 49
-1.25
  0
LTYPE
  2
DASHED2
 70
    64
  3
----    ----    ----    ----    
 72
    65
 73
     2
 40
5.0
 49
2.5
 49
-2.5
  0
LTYPE
  2
DASHED3
 70
    64
  3
------  ------  ------  ------  
 72
    65
 73
     2
 40
5.0
 49
3.75
 49
-1.25
  0
LTYPE
  2
CENTER1
 70
    64
  3
----- - ----- - ----- - ----- - 
 72
    65
 73
     4
 40
10.0
 49
6.25
 49
-1.25
 49
1.25
 49
-1.25
  0
LTYPE
  2
CENTER2
 70
    64
  3
----------  --  ----------  --  
 72
    65
 73
     4
 40
20.0
 49
12.5
 49
-2.5
 49
2.5
 49
-2.5
  0
LTYPE
  2
PHANTOM1
 70
    64
  3
--- - - --- - - --- - - --- - - 
 72
    65
 73
     6
 40
10.0
 49
3.25
 49
-1.25
 49
1.25
 49
-1.25
 49
1.25
 49
-1.25
  0
LTYPE
  2
PHANTOM2
 70
    64
  3
--------  -  -  --------  -  -  
 72
    65
 73
     6
 40
20.0
 49
10.0
 49
-2.5
 49
1.25
 49
-2.5
 49
1.25
 49
-2.5
  0
LTYPE
  2
DOT
 70
    64
  3
-   -   -   -   -   -   -   -   
 72
    65
 73
     2
 40
2.5
 49
0.625
 49
-1.875
  0
LTYPE
  2
DUMMY
 70
    64
  3
ダミー
 72
    65
 73
     0
 40
0.0
  0
LTYPE
  2
RAND1
 70
    64
  3
ランダム線1
 72
    65
 73
     4
 40
10.0
 49
1.0
 49
-2.0
 49
3.0
 49
-4.0
  0
LTYPE
  2
RAND2
 70
    64
  3
ランダム線2
 72
    65
 73
     4
 40
14.0
 49
2.0
 49
-3.0
 49
4.0
 49
-5.0
  0
LTYPE
  2
RAND3
 70
    64
  3
ランダム線3
 72
    65
 73
     4
 40
18.0
 49
3.0
 49
-4.0
 49
5.0
 49
-6.0
  0
LTYPE
  2
RAND4
 70
    64
  3
ランダム線4
 72
    65
 73
     4
 40
22.0
 49
4.0
 49
-5.0
 49
6.0
 49
-7.0
  0
LTYPE
  2
RAND5
 70
    64
  3
ランダム線5
 72
    65
 73
     4
 40
26.0
 49
5.0
 49
-6.0
 49
7.0
 49
-8.0
  0
LTYPE
  2
LONG1
 70
    64
  3
----------  --  ----------  --  
 72
    65
 73
     4
 40
40.0
 49
32.5
 49
-2.5
 49
2.5
 49
-2.5
  0
LTYPE
  2
LONG2
 70
    64
  3
--------  -  -  --------  -  -  
 72
    65
 73
     6
 40
40.0
 49
30.0
 49
-2.5
 49
1.25
 49
-2.5
 49
1.25
 49
-2.5
  0
LTYPE
  2
LONG3
 70
    64
  3
+++++++++++++++..+++++++++++++++
 72
    65
 73
     2
 40
40.0
 49
37.5
 49
-2.5
  0
LTYPE
  2
LONG4
 70
    64
  3
+++++++++++++++..+++++++++++++++
 72
    65
 73
     2
 40
80.0
 49
75.0
 49
-5.0
  0
LTYPE
  2
LONG5
 70
    64
  3
----------  --  ----------  --  
 72
    65
 73
     4
 40
60.0
 49
37.5
 49
-7.5
 49
7.5
 49
-7.5
  0
LTYPE
  2
dashed
 70
   64
  3
-------   -------------   ------
 72
   65
 73
    2
 40
7.5
 49
6
 49
-1.5
  0
LTYPE
  2
dashed_spaced
 70
   64
  3
----        --------        ----
 72
   65
 73
    2
 40
12
 49
6
 49
-6
  0
LTYPE
  2
long_dashed_dotted
 70
   64
  3
------------- --- --------------
 72
   65
 73
    4
 40
15.25
 49
12
 49
-1.5
 49
0.25
 49
-1.5
  0
LTYPE
  2
long_dashed_double-dotted
 70
   64
  3
----------- --- --- ------------
 72
   65
 73
    6
 40
17
 49
12
 49
-1.5
 49
0.25
 49
-1.5
 49
0.25
 49
-1.5
  0
LTYPE
  2
long_dashed_triplicate-dotted
 70
   64
  3
--------- --- --- --- ----------
 72
   65
 73
    8
 40
18.75
 49
12
 49
-1.5
 49
0.25
 49
-1.5
 49
0.25
 49
-1.5
 49
0.25
 49
-1.5
  0
LTYPE
  2
dotted
 70
   64
  3
   -       -       -       -    
 72
   65
 73
    2
 40
1.75
 49
0.25
 49
-1.5
  0
LTYPE
  2
chain
 70
   64
  3
-------------- -- --------------
 72
   65
 73
    4
 40
18.5
 49
12
 49
-1.5
 49
3.5
 49
-1.5
  0
LTYPE
  2
chain_double_dash
 70
   64
  3
------------ -- -- -------------
 72
   65
 73
    6
 40
23.5
 49
12
 49
-1.5
 49
3.5
 49
-1.5
 49
3.5
 49
-1.5
  0
LTYPE
  2
dashed_dotted
 70
   64
  3
-----------     -     ----------
 72
   65
 73
    4
 40
9.25
 49
6
 49
-1.5
 49
0.25
 49
-1.5
  0
LTYPE
  2
double-dashed_dotted
 70
   64
  3
------   -----------   -   -----
 72
   65
 73
    6
 40
16.75
 49
6
 49
-1.5
 49
6
 49
-1.5
 49
0.25
 49
-1.5
  0
LTYPE
  2
dashed_double-dotted
 70
   64
  3
---------    -    -    ---------
 72
   65
 73
    6
 40
11
 49
6
 49
-1.5
 49
0.25
 49
-1.5
 49
0.25
 49
-1.5
  0
LTYPE
  2
double-dashed_double-dotted
 70
   64
  3
-----   ---------   -   -   ----
 72
   65
 73
    8
 40
18.5
 49
6
 49
-1.5
 49
6
 49
-1.5
 49
0.25
 49
-1.5
 49
0.25
 49
-1.5
  0
LTYPE
  2
dashed_triplicate-dotted
 70
   64
  3
-------    -    -    -    ------
 72
   65
 73
    8
 40
12.75
 49
6
 49
-1.5
 49
0.25
 49
-1.5
 49
0.25
 49
-1.5
 49
0.25
 49
-1.5
  0
LTYPE
  2
double-dashed_triplicate-dotted
 70
   64
  3
-----  ---------  -  -  -  -----
 72
   65
 73
   10
 40
20.25
 49
6
 49
-1.5
 49
6
 49
-1.5
 49
0.25
 49
-1.5
 49
0.25
 49
-1.5
 49
0.25
 49
-1.5
  0
LTYPE
  2
undefined
 70
   64
  3
--------------------------------
 72
   65
 73
    0
 40
0
  0
LTYPE
  2
_
 70
   64
  3
                                
 72
   65
 73
    0
 40
0
  0
LTYPE
  2
__18
 70
   64
  3
                                
 72
   65
 73
    0
 40
0
  0
LTYPE
  2
__19
 70
   64
  3
                                
 72
   65
 73
    0
 40
0
  0
LTYPE
  2
__20
 70
   64
  3
                                
 72
   65
 73
    0
 40
0
  0
LTYPE
  2
__21
 70
   64
  3
                                
 72
   65
 73
    0
 40
0
  0
LTYPE
  2
__22
 70
   64
  3
                                
 72
   65
 73
    0
 40
0
  0
LTYPE
  2
__23
 70
   64
  3
                                
 72
   65
 73
    0
 40
0
  0
LTYPE
  2
__24
 70
   64
  3
                                
 72
   65
 73
    0
 40
0
  0
LTYPE
  2
__25
 70
   64
  3
                                
 72
   65
 73
    0
 40
0
  0
LTYPE
  2
__26
 70
   64
  3
                                
 72
   65
 73
    0
 40
0
  0
LTYPE
  2
__27
 70
   64
  3
                                
 72
   65
 73
    0
 40
0
  0
LTYPE
  2
__28
 70
   64
  3
                                
 72
   65
 73
    0
 40
0
  0
LTYPE
  2
__29
 70
   64
  3
                                
 72
   65
 73
    0
 40
0
  0
LTYPE
  2
__30
 70
   64
  3
                                
 72
   65
 73
    0
 40
0
  0
LTYPE
  2
__31
 70
   64
  3
                                
 72
   65
 73
    0
 40
0
  0
LTYPE
  2
__32
 70
   64
  3
                                
 72
   65
 73
    0
 40
0
  0
ENDTAB
  0
TABLE
  2
STYLE
  5
3
100
AcDbSymbolTable
 70
     1
  0
STYLE
  5
10
100
AcDbSymbolTableRecord
100
AcDbTextStyleTableRecord
  2
STANDARD
 70
     0
 40
0.0
 41
1.0
 50
0.0
 71
     0
 42
0.2
  3
txt
  4
bigfont.shx
  0
STYLE
  5
26
100
AcDbSymbolTableRecord
100
AcDbTextStyleTableRecord
  2
TATEGAKI
 70
    68
 40
0.0
 41
1.0
 50
0.0
 71
     0
 42
1.0
  3
txt
  4
bigfont.shx
  0
ENDTAB
  0
TABLE
  2
LAYER
 70
    6
  0
LAYER
  2
_0-0_
 70
   64
 62
    7
  6
CONTINUOUS
  0
LAYER
  2
_0-1_
 70
   64
 62
    7
  6
CONTINUOUS
  0
LAYER
  2
_0-2_
 70
   64
 62
    7
  6
CONTINUOUS
  0
LAYER
  2
_0-3_
 70
   64
 62
    7
  6
CONTINUOUS
  0
LAYER
  2
_0-f_
 70
   64
 62
    7
  6
CONTINUOUS
  0
LAYER
  2
ADD_LINE
 70
   64
 62
    7
  6
CONTINUOUS
  0
ENDTAB
  0
ENDSEC
  0
SECTION
  2
BLOCKS
  0
ENDSEC
  0
SECTION
  2
ENTITIES
  0
TEXT
  8
_0-f_
 62
    7
 10
2.6067323181055144
 20
2.2659812701354554
 40
4.2999999999999998
 41
0.744186046511628
 50
0
  1
PS2TA
  0
LINE
  8
_0-0_
  6
CONTINUOUS
 62
    7
 10
45.888236645383813
 20
32.625460961914939
 11
25.888236645383813
 21
32.625460961914939
  0
LINE
  8
_0-0_
  6
CONTINUOUS
 62
    7
 10
25.888236645383813
 20
31.425460961915007
 11
45.888236645383813
 21
31.425460961915007
  0
LINE
  8
_0-0_
  6
CONTINUOUS
 62
    7
 10
45.888236645383813
 20
29.425460961915007
 11
45.888236645383813
 21
50.425460961915007
  0
LINE
  8
_0-0_
  6
CONTINUOUS
 62
    7
 10
45.888236645383813
 20
50.425460961915007
 11
25.888236645383813
 21
50.425460961915007
  0
LINE
  8
_0-0_
  6
CONTINUOUS
 62
    7
 10
25.888236645383813
 20
50.425460961915007
 11
25.888236645383813
 21
29.425460961915007
  0
LINE
  8
_0-0_
  6
CONTINUOUS
 62
    7
 10
25.888236645383813
 20
29.425460961915007
 11
45.888236645383813
 21
29.425460961915007
  0
LINE
  8
_0-0_
  6
CONTINUOUS
 62
    7
 10
45.888236645383813
 20
34.52546096191503
 11
25.888236645383813
 21
34.52546096191503
  0
LINE
  8
_0-0_
  6
CONTINUOUS
 62
    7
 10
25.888236645383813
 20
35.168539023715027
 11
45.888236645383813
 21
35.168539023715027
  0
CIRCLE
  8
_0-0_
  6
CONTINUOUS
 62
    7
 10
35.888236645383813
 20
44.425460961915007
 40
1.7000000476837158
  0
LINE
  8
_0-0_
  6
CONTINUOUS
 62
    7
 10
117.58609342465087
 20
32.325460961914985
 11
117.58609342465087
 21
31.549725030626917
  0
LINE
  8
_0-0_
  6
CONTINUOUS
 62
    7
 10
117.49822545900696
 20
31.337592996270985
 11
115.67396139029478
 21
29.51332892755903
  0
LINE
  8
_0-0_
  6
CONTINUOUS
 62
    7
 10
115.46182935593896
 20
29.425460961915007
 11
114.03609342465114
 21
29.425460961915007
  0
LINE
  8
_0-0_
  6
CONTINUOUS
 62
    7
 10
114.03609342465114
 20
29.425460961915007
 11
113.78609342465114
 21
29.675460961915007
  0
LINE
  8
_0-0_
  6
CONTINUOUS
 62
    7
 10
113.78609342465114
 20
29.675460961915007
 11
113.53609342465114
 21
29.425460961915007
  0
LINE
  8
_0-0_
  6
CONTINUOUS
 62
    7
 10
113.53609342465114
 20
29.425460961915007
 11
110.11035749336287
 21
29.425460961915007
  0
LINE
  8
_0-0_
  6
CONTINUOUS
 62
    7
 10
109.89822545900705
 20
29.51332892755903
 11
107.98609342465096
 21
31.425460961915007
  0
LINE
  8
_0-0_
  6
CONTINUOUS
 62
    7
 10
107.98609342465096
 20
31.549725030626917
 11
107.98609342465096
 21
32.325460961914985
  0
LINE
  8
_0-0_
  6
CONTINUOUS
 62
    7
 10
108.28609342465114
 20
32.625460961914939
 11
108.88609342465105
 21
32.625460961914939
  0
LINE
  8
_0-0_
  6
CONTINUOUS
 62
    7
 10
109.18609342465078
 20
32.925460961915007
 11
109.18609342465078
 21
34.295262865521238
  0
LINE
  8
_0-0_
  6
CONTINUOUS
 62
    7
 10
109.18609342465078
 20
34.52546096191503
 11
107.00844771112014
 21
35.108959372256606
  0
LINE
  8
_0-0_
  6
CONTINUOUS
 62
    7
 10
106.78609342465114
 20
35.39873712014338
 11
106.78609342465114
 21
44.175460961915007
  0
LINE
  8
_0-0_
  6
CONTINUOUS
 62
    7
 10
106.78609342465114
 20
44.175460961915007
 11
107.03609342465114
 21
44.425460961915007
  0
LINE
  8
_0-0_
  6
CONTINUOUS
 62
    7
 10
107.03609342465114
 20
44.425460961915007
 11
106.78609342465114
 21
44.675460961915007
  0
LINE
  8
_0-0_
  6
CONTINUOUS
 62
    7
 10
106.78609342465114
 20
44.675460961915007
 11
106.78609342465114
 21
50.125460961914939
  0
LINE
  8
_0-0_
  6
CONTINUOUS
 62
    7
 10
107.08609342465087
 20
50.425460961915007
 11
111.48609342465096
 21
50.425460961915007
  0
LINE
  8
_0-0_
  6
CONTINUOUS
 62
    7
 10
111.78609342465114
 20
50.125460961914939
 11
111.78609342465114
 21
33.52546096191503
  0
LINE
  8
_0-0_
  6
CONTINUOUS
 62
    7
 10
112.08609342465087
 20
33.225460961914962
 11
115.86647818238015
 21
33.225460961914962
  0
LINE
  8
_0-0_
  6
CONTINUOUS
 62
    7
 10
116.12628580351583
 20
33.075460961914985
 11
116.38609342465105
 21
32.625460961914939
  0
LINE
  8
_0-0_
  6
CONTINUOUS
 62
    7
 10
116.55929850540787
 20
32.625460961914939
 11
117.28609342465114
 21
32.625460961914939
  0
ARC
  8
_0-0_
  6
CONTINUOUS
 62
    7
 10
107.08609342465087
 20
50.125460961914939
 40
0.2999999999999999
 50
90
 51
180
  0
ARC
  8
_0-0_
  6
CONTINUOUS
 62
    7
 10
111.48609342465096
 20
50.125460961914939
 40
0.2999999999999999
 50
0
 51
90
  0
ARC
  8
_0-0_
  6
CONTINUOUS
 62
    7
 10
107.08609342465087
 20
35.39873712014338
 40
0.2999999999999999
 50
180
 51
254.99999999999986
  0
ARC
  8
_0-0_
  6
CONTINUOUS
 62
    7
 10
108.88609342465105
 20
34.295262865521238
 40
0.2999999999999999
 50
0
 51
75.000000000000043
  0
ARC
  8
_0-0_
  6
CONTINUOUS
 62
    7
 10
108.88609342465105
 20
32.925460961915007
 40
0.2999999999999999
 50
270
 51
0
  0
ARC
  8
_0-0_
  6
CONTINUOUS
 62
    7
 10
108.28609342465114
 20
32.325460961914985
 40
0.2999999999999999
 50
90
 51
180
  0
ARC
  8
_0-0_
  6
CONTINUOUS
 62
    7
 10
108.28609342465114
 20
31.549725030626917
 40
0.2999999999999999
 50
180
 51
225
  0
ARC
  8
_0-0_
  6
CONTINUOUS
 62
    7
 10
110.11035749336287
 20
29.725460961914962
 40
0.2999999999999999
 50
225
 51
270
  0
ARC
  8
_0-0_
  6
CONTINUOUS
 62
    7
 10
115.46182935593896
 20
29.725460961914962
 40
0.2999999999999999
 50
270
 51
315
  0
ARC
  8
_0-0_
  6
CONTINUOUS
 62
    7
 10
117.28609342465114
 20
31.549725030626917
 40
0.2999999999999999
 50
314.99999999999994
 51
359.99999999999994
  0
ARC
  8
_0-0_
  6
CONTINUOUS
 62
    7
 10
117.28609342465114
 20
32.325460961914985
 40
0.2999999999999999
 50
0
 51
90.000000000000028
  0
ARC
  8
_0-0_
  6
CONTINUOUS
 62
    7
 10
116.55929850540787
 20
32.925460961915007
 40
0.2999999999999999
 50
210.00000000000006
 51
270
  0
ARC
  8
_0-0_
  6
CONTINUOUS
 62
    7
 10
115.86647818238015
 20
32.925460961915007
 40
0.2999999999999999
 50
30.000000000000476
 51
90
  0
ARC
  8
_0-0_
  6
CONTINUOUS
 62
    7
 10
112.08609342465087
 20
33.52546096191503
 40
0.2999999999999999
 50
180
 51
270
  0
ARC
  8
_0-2_
  6
PHANTOM1
 62
  152
 10
101.22269596502969
 20
33.425460961914951
 40
1
 50
90
 51
180
  0
LINE
  8
_0-1_
  6
CONTINUOUS
 62
  152
 10
25.888236645383813
 20
44.675460961915007
 11
33.903923162085221
 21
44.675460961915007
  0
LINE
  8
_0-1_
  6
CONTINUOUS
 62
  152
 10
33.903923162085221
 20
44.175460961915007
 11
25.888236645383813
 21
44.175460961915007
  0
LINE
  8
_0-1_
  6
CENTER1
 62
  152
 10
25.888236645383813
 20
44.425460961915007
 11
45.888236645383813
 21
44.425460961915007
  0
LINE
  8
_0-1_
  6
CONTINUOUS
 62
  152
 10
45.888236645383813
 20
44.175460961915007
 11
37.872550128682406
 21
44.175460961915007
  0
LINE
  8
_0-1_
  6
CONTINUOUS
 62
  152
 10
37.872550128682406
 20
44.675460961915007
 11
45.888236645383813
 21
44.675460961915007
  0
LINE
  8
_0-1_
  6
CENTER1
 62
  152
 10
35.888236645383813
 20
29.425460961915007
 11
35.888236645383813
 21
50.425460961915007
  0
CIRCLE
  8
_0-1_
  6
CONTINUOUS
 62
  152
 10
35.888236645383813
 20
44.425460961915007
 40
2
  0
LINE
  8
_0-1_
  6
CENTER1
 62
  152
 10
113.78609342465114
 20
34.705881215315287
 11
113.78609342465114
 21
28.243531029912276
  0
LINE
  8
_0-2_
  6
PHANTOM1
 62
  152
 10
102.02269596502941
 20
15.925460961914951
 11
105.22269596502946
 21
15.925460961914951
  0
LINE
  8
_0-2_
  6
PHANTOM1
 62
  152
 10
109.12269596502932
 20
11.225460961914678
 11
109.12269596502932
 21
9.4254609619149505
  0
LINE
  8
_0-2_
  6
PHANTOM1
 62
  152
 10
109.12269596502932
 20
11.225460961914678
 11
106.72269596502969
 21
11.225460961914678
  0
LINE
  8
_0-2_
  6
PHANTOM1
 62
  152
 10
100.22269596502969
 20
18.325460961915041
 11
102.02269596502941
 21
18.325460961915041
  0
LINE
  8
_0-2_
  6
PHANTOM1
 62
  152
 10
102.02269596502941
 20
18.325460961915041
 11
102.02269596502941
 21
15.925460961914951
  0
LINE
  8
_0-2_
  6
PHANTOM1
 62
  152
 10
105.22269596502946
 20
15.925460961914951
 11
106.4226959650295
 21
17.125460961914996
  0
LINE
  8
_0-2_
  6
PHANTOM1
 62
  152
 10
106.72269596502969
 20
11.225460961914678
 11
106.72269596502969
 21
14.425460961914951
  0
LINE
  8
_0-2_
  6
PHANTOM1
 62
  152
 10
107.9226959650295
 20
15.625460961914769
 11
106.72269596502969
 21
14.425460961914951
  0
LINE
  8
_0-2_
  6
PHANTOM1
 62
  152
 10
107.9226959650295
 20
15.625460961914769
 11
117.52269596502941
 21
15.625460961914769
  0
LINE
  8
_0-2_
  6
PHANTOM1
 62
  152
 10
117.52269596502941
 20
15.625460961914769
 11
118.72269596502969
 21
14.425460961914496
  0
LINE
  8
_0-2_
  6
PHANTOM1
 62
  152
 10
118.72269596502969
 20
14.425460961914496
 11
118.72269596502969
 21
11.225460961914678
  0
LINE
  8
_0-2_
  6
PHANTOM1
 62
  152
 10
116.3226959650296
 20
11.225460961914678
 11
118.72269596502969
 21
11.225460961914678
  0
LINE
  8
_0-2_
  6
PHANTOM1
 62
  152
 10
116.3226959650296
 20
11.225460961914678
 11
116.3226959650296
 21
9.4254609619149505
  0
LINE
  8
_0-2_
  6
PHANTOM1
 62
  152
 10
123.42269596502996
 20
18.325460961915041
 11
125.22269596502969
 21
18.325460961915041
  0
LINE
  8
_0-2_
  6
PHANTOM1
 62
  152
 10
123.42269596502996
 20
18.325460961915041
 11
123.42269596502996
 21
15.925460961914951
  0
LINE
  8
_0-2_
  6
PHANTOM1
 62
  152
 10
123.42269596502996
 20
15.925460961914951
 11
120.22269596502991
 21
15.925460961914951
  0
LINE
  8
_0-2_
  6
PHANTOM1
 62
  152
 10
119.02269596502987
 20
17.125460961914769
 11
120.22269596502991
 21
15.925460961914951
  0
LINE
  8
_0-2_
  6
PHANTOM1
 62
  152
 10
119.02269596502987
 20
17.125460961914769
 11
119.02269596502987
 21
26.725460961914905
  0
LINE
  8
_0-2_
  6
PHANTOM1
 62
  152
 10
119.02269596502987
 20
26.725460961914905
 11
120.22269596502991
 21
27.925460961914951
  0
LINE
  8
_0-2_
  6
PHANTOM1
 62
  152
 10
120.22269596502991
 20
27.925460961914951
 11
123.42269596502996
 21
27.925460961914951
  0
LINE
  8
_0-2_
  6
PHANTOM1
 62
  152
 10
123.42269596502996
 20
27.925460961914951
 11
123.42269596502996
 21
25.52546096191486
  0
LINE
  8
_0-2_
  6
PHANTOM1
 62
  152
 10
125.22269596502969
 20
25.52546096191486
 11
123.42269596502996
 21
25.52546096191486
  0
LINE
  8
_0-2_
  6
PHANTOM1
 62
  152
 10
116.3226959650296
 20
32.625460961915223
 11
116.3226959650296
 21
34.425460961914951
  0
LINE
  8
_0-2_
  6
PHANTOM1
 62
  152
 10
116.3226959650296
 20
32.625460961915223
 11
118.72269596502969
 21
32.625460961915223
  0
LINE
  8
_0-2_
  6
PHANTOM1
 62
  152
 10
118.72269596502969
 20
32.625460961915223
 11
118.72269596502969
 21
29.425460961915462
  0
LINE
  8
_0-2_
  6
PHANTOM1
 62
  152
 10
118.72269596502969
 20
29.425460961915462
 11
117.52269596502998
 21
28.225460961915132
  0
LINE
  8
_0-2_
  6
PHANTOM1
 62
  152
 10
117.52269596502998
 20
28.225460961915132
 11
107.9226959650295
 21
28.225460961915132
  0
LINE
  8
_0-2_
  6
PHANTOM1
 62
  152
 10
107.9226959650295
 20
28.225460961915132
 11
106.72269596502969
 21
29.425460961914951
  0
LINE
  8
_0-2_
  6
PHANTOM1
 62
  152
 10
106.72269596502969
 20
29.425460961914951
 11
106.72269596502969
 21
32.625460961915223
  0
LINE
  8
_0-2_
  6
PHANTOM1
 62
  152
 10
106.72269596502969
 20
32.625460961915223
 11
109.12269596502932
 21
32.625460961915223
  0
LINE
  8
_0-2_
  6
PHANTOM1
 62
  152
 10
109.12269596502932
 20
32.625460961915223
 11
109.12269596502932
 21
34.425460961914951
  0
LINE
  8
_0-2_
  6
PHANTOM1
 62
  152
 10
102.02269596502941
 20
25.52546096191486
 11
100.22269596502969
 21
25.52546096191486
  0
LINE
  8
_0-2_
  6
PHANTOM1
 62
  152
 10
102.02269596502941
 20
25.52546096191486
 11
102.02269596502941
 21
27.925460961914951
  0
LINE
  8
_0-2_
  6
PHANTOM1
 62
  152
 10
105.22269596502946
 20
27.925460961914951
 11
102.02269596502941
 21
27.925460961914951
  0
LINE
  8
_0-2_
  6
PHANTOM1
 62
  152
 10
105.22269596502946
 20
27.925460961914951
 11
106.4226959650295
 21
26.725460961915132
  0
LINE
  8
_0-2_
  6
PHANTOM1
 62
  152
 10
106.4226959650295
 20
17.125460961914996
 11
106.4226959650295
 21
26.725460961915132
  0
LINE
  8
_0-2_
  6
PHANTOM1
 62
  152
 10
100.22269596502969
 20
33.425460961914951
 11
100.22269596502969
 21
25.52546096191486
  0
LINE
  8
_0-2_
  6
PHANTOM1
 62
  152
 10
101.22269596502969
 20
34.425460961914951
 11
109.12269596502932
 21
34.425460961914951
  0
LINE
  8
_0-2_
  6
PHANTOM1
 62
  152
 10
124.22269596502969
 20
34.425460961914951
 11
116.3226959650296
 21
34.425460961914951
  0
LINE
  8
_0-2_
  6
PHANTOM1
 62
  152
 10
125.22269596502969
 20
33.425460961914951
 11
125.22269596502969
 21
25.52546096191486
  0
ARC
  8
_0-2_
  6
PHANTOM1
 62
  152
 10
124.22269596502969
 20
33.425460961914951
 40
1
 50
0
 51
90
  0
LINE
  8
_0-2_
  6
PHANTOM1
 62
  152
 10
125.22269596502969
 20
10.425460961914951
 11
125.22269596502969
 21
18.325460961915041
  0
LINE
  8
_0-2_
  6
PHANTOM1
 62
  152
 10
124.22269596502969
 20
9.4254609619149505
 11
116.3226959650296
 21
9.4254609619149505
  0
ARC
  8
_0-2_
  6
PHANTOM1
 62
  152
 10
124.22269596502969
 20
10.425460961914951
 40
1
 50
270
 51
0
  0
LINE
  8
_0-2_
  6
PHANTOM1
 62
  152
 10
101.22269596502969
 20
9.4254609619149505
 11
109.12269596502932
 21
9.4254609619149505
  0
LINE
  8
_0-2_
  6
PHANTOM1
 62
  152
 10
100.22269596502969
 20
10.425460961914951
 11
100.22269596502969
 21
18.325460961915041
  0
ARC
  8
_0-2_
  6
PHANTOM1
 62
  152
 10
101.22269596502969
 20
10.425460961914951
 40
1
 50
180
 51
270
  0
LINE
  8
_0-2_
  6
PHANTOM1
 62
  152
 10
7.4919560241752379
 20
37.194732383228597
 11
15.729144475842531
 21
6.453126570086738
  0
LINE
  8
_0-2_
  6
PHANTOM1
 62
  152
 10
57.235944580042997
 20
36.503909780686058
 11
65.288027673245779
 21
6.453126570086738
  0
LINE
  8
_0-2_
  6
PHANTOM1
 62
  152
 10
57.792863262542141
 20
34.425460961914951
 11
8.2339800651388941
 21
34.425460961914951
  0
LINE
  8
_0-2_
  6
PHANTOM1
 62
  152
 10
64.491593073320246
 20
9.4254609619149505
 11
14.932709875916885
 21
9.4254609619149505
  0
LINE
  8
_0-3_
  6
CONTINUOUS
 62
  152
 10
103.49764899501514
 20
39.725461152649871
 11
103.49764899501514
 21
49.125460771180144
  0
LINE
  8
_0-3_
  6
CONTINUOUS
 62
  152
 10
103.78609342465114
 20
42.725460914231292
 11
113.78609342465114
 21
42.725460914231292
  0
LINE
  8
_0-3_
  6
CONTINUOUS
 62
  152
 10
103.78609342465114
 20
46.125461009598723
 11
113.78609342465114
 21
46.125461009598723
  0
LINE
  8
_0-3_
  6
CONTINUOUS
 62
  152
 10
113.48609323391628
 20
42.425460961915007
 11
113.48609323391628
 21
46.425460961915007
  0
LINE
  8
ADD_LINE
  6
DOT
 62
    9
 10
103.78609342465114
 20
44.425460961915007
 11
104.49320020583781
 21
45.132567743101674
  0
LINE
  8
ADD_LINE
  6
DOT
 62
    9
 10
103.78609342465114
 20
44.425460961915007
 11
104.49320020583781
 21
43.71835418072834
  0
LINE
  8
_0-3_
  6
CONTINUOUS
 62
   56
 10
103.49764899501514
 20
39.725461152649871
 11
103.78609342465114
 21
39.725461152649871
  0
LINE
  8
_0-3_
  6
CONTINUOUS
 62
   56
 10
103.49764899501514
 20
49.125460771180144
 11
103.78609342465114
 21
49.125460771180144
  0
LINE
  8
_0-3_
  6
CONTINUOUS
 62
   56
 10
103.78609342465114
 20
46.425460961915007
 11
113.48609323391628
 21
46.425460961915007
  0
LINE
  8
_0-3_
  6
CONTINUOUS
 62
   56
 10
113.78609342465114
 20
46.125461009598723
 11
113.48609323391628
 21
46.425460961915007
  0
LINE
  8
_0-3_
  6
CONTINUOUS
 62
   56
 10
113.78609342465114
 20
42.725460914231292
 11
113.78609342465114
 21
46.125461009598723
  0
LINE
  8
_0-3_
  6
CONTINUOUS
 62
   56
 10
113.78609342465114
 20
42.725460914231292
 11
113.48609323391628
 21
42.425460961915007
  0
LINE
  8
_0-3_
  6
CONTINUOUS
 62
   56
 10
103.78609342465114
 20
42.425460961915007
 11
113.48609323391628
 21
42.425460961915007
  0
ARC
  8
_0-3_
  6
CONTINUOUS
 62
   56
 10
107.38609332928371
 20
44.425460961915007
 40
6.0999999046325684
 50
129.60191345214844
 51
230.3980712890625
  0
LINE
  8
_0-3_
  6
CONTINUOUS
 62
   56
 10
103.78609342461516
 20
39.725461152649871
 11
103.78609342461516
 21
49.125460771180144
  0
LINE
  8
_0-2_
  6
PHANTOM1
 62
  152
 10
106.78609342465086
 20
34.925460961914951
 11
106.78609342465086
 21
60.428015564641555
  0
LINE
  8
_0-2_
  6
PHANTOM1
 62
  152
 10
103.78609342465086
 20
34.925460961914951
 11
103.78609342465086
 21
60.428015564641555
  0
LINE
  8
_0-2_
  6
PHANTOM1
 62
  152
 10
103.78609342465086
 20
34.925460961914951
 11
106.78609342465086
 21
34.925460961914951
  0
LINE
  8
_0-1_
  6
CONTINUOUS
 62
   56
 10
91.553834059647727
 20
44.005460975028029
 11
91.553834059647727
 21
44.845460948801986
  0
LINE
  8
_0-1_
  6
CONTINUOUS
 62
   56
 10
89.03383416812818
 20
46.525460866547576
 11
89.873834141902137
 21
46.525460866547576
  0
LINE
  8
_0-1_
  6
CONTINUOUS
 62
   56
 10
87.35383425038259
 20
44.005460975028029
 11
87.35383425038259
 21
44.845460948801986
  0
LINE
  8
_0-1_
  6
CONTINUOUS
 62
   56
 10
89.03383416812818
 20
42.325461057282439
 11
89.873834141902137
 21
42.325461057282439
  0
LINE
  8
_0-1_
  6
CONTINUOUS
 62
   56
 10
89.873834141902137
 20
45.685460952378264
 11
89.873834141902137
 21
46.525460866547576
  0
LINE
  8
_0-1_
  6
CONTINUOUS
 62
   56
 10
90.713834145478415
 20
44.845460948801986
 11
91.553834059647727
 21
44.845460948801986
  0
LINE
  8
_0-1_
  6
CONTINUOUS
 62
   56
 10
90.713834145478415
 20
44.005460975028029
 11
91.553834059647727
 21
44.005460975028029
  0
LINE
  8
_0-1_
  6
CONTINUOUS
 62
   56
 10
89.873834141902137
 20
43.165460971451751
 11
89.873834141902137
 21
42.325461057282439
  0
LINE
  8
_0-1_
  6
CONTINUOUS
 62
   56
 10
89.03383416812818
 20
43.165460971451751
 11
89.03383416812818
 21
42.325461057282439
  0
LINE
  8
_0-1_
  6
CONTINUOUS
 62
   56
 10
88.193834164551902
 20
44.005460975028029
 11
87.35383425038259
 21
44.005460975028029
  0
LINE
  8
_0-1_
  6
CONTINUOUS
 62
   56
 10
88.193834164551902
 20
44.845460948801986
 11
87.35383425038259
 21
44.845460948801986
  0
LINE
  8
_0-1_
  6
CONTINUOUS
 62
   56
 10
89.03383416812818
 20
45.685460952378264
 11
89.03383416812818
 21
46.525460866547576
  0
CIRCLE
  8
_0-1_
  6
CONTINUOUS
 62
   56
 10
89.453834155015159
 20
44.425460961915007
 40
4.6999998092651367
  0
ARC
  8
_0-1_
  6
CONTINUOUS
 62
   56
 10
90.713834145478415
 20
45.685460952378264
 40
0.8399999737739563
 50
180
 51
270
  0
ARC
  8
_0-1_
  6
CONTINUOUS
 62
   56
 10
90.713834145478415
 20
43.165460971451751
 40
0.8399999737739563
 50
90
 51
180
  0
ARC
  8
_0-1_
  6
CONTINUOUS
 62
   56
 10
88.193834164551902
 20
43.165460971451751
 40
0.8399999737739563
 50
0
 51
90
  0
ARC
  8
_0-1_
  6
CONTINUOUS
 62
   56
 10
88.193834164551902
 20
45.685460952378264
 40
0.8399999737739563
 50
270
 51
0
  0
LINE
  8
_0-1_
  6
CENTER1
 62
  152
 10
89.453834155015159
 20
50.135417965962574
 11
89.453834155015159
 21
38.830638977232979
  0
LINE
  8
_0-1_
  6
CENTER1
 62
  152
 10
83.834499568206809
 20
44.425460961915007
 11
114.77389469525627
 21
44.425460961915007
  0
ENDSEC
  0
EOF
