  0
SECTION
  2
HEADER
  9
$ACADVER
  1
AC1009
  9
$INSBASE
 10
0
 20
0
 30
0
  9
$EXTMIN
 10
0
 20
0
  9
$EXTMAX
 10
1189
 20
841
  9
$LIMMIN
 10
0
 20
0
  9
$LIMMAX
 10
1189
 20
841
  9
$LTSCALE
 40
1
  0
ENDSEC
  0
SECTION
  2
TABLES
  0
TABLE
  2
LTYPE
 70
     9
  0
LTYPE
  2
CONTINUOUS
 70
    64
  3
実線
 72
    65
 73
     0
 40
0.0
  0
LTYPE
  2
DASHED1
 70
    64
  3
--  --  --  --  --  --  --  --  
 72
    65
 73
     2
 40
2.5
 49
1.25
 49
-1.25
  0
LTYPE
  2
DASHED2
 70
    64
  3
----    ----    ----    ----    
 72
    65
 73
     2
 40
5.0
 49
2.5
 49
-2.5
  0
LTYPE
  2
DASHED3
 70
    64
  3
------  ------  ------  ------  
 72
    65
 73
     2
 40
5.0
 49
3.75
 49
-1.25
  0
LTYPE
  2
CENTER1
 70
    64
  3
----- - ----- - ----- - ----- - 
 72
    65
 73
     4
 40
10.0
 49
6.25
 49
-1.25
 49
1.25
 49
-1.25
  0
LTYPE
  2
CENTER2
 70
    64
  3
----------  --  ----------  --  
 72
    65
 73
     4
 40
20.0
 49
12.5
 49
-2.5
 49
2.5
 49
-2.5
  0
LTYPE
  2
PHANTOM1
 70
    64
  3
--- - - --- - - --- - - --- - - 
 72
    65
 73
     6
 40
10.0
 49
3.25
 49
-1.25
 49
1.25
 49
-1.25
 49
1.25
 49
-1.25
  0
LTYPE
  2
PHANTOM2
 70
    64
  3
--------  -  -  --------  -  -  
 72
    65
 73
     6
 40
20.0
 49
10.0
 49
-2.5
 49
1.25
 49
-2.5
 49
1.25
 49
-2.5
  0
LTYPE
  2
DOT
 70
    64
  3
-   -   -   -   -   -   -   -   
 72
    65
 73
     2
 40
2.5
 49
0.625
 49
-1.875
  0
LTYPE
  2
DUMMY
 70
    64
  3
ダミー
 72
    65
 73
     0
 40
0.0
  0
LTYPE
  2
RAND1
 70
    64
  3
ランダム線1
 72
    65
 73
     4
 40
10.0
 49
1.0
 49
-2.0
 49
3.0
 49
-4.0
  0
LTYPE
  2
RAND2
 70
    64
  3
ランダム線2
 72
    65
 73
     4
 40
14.0
 49
2.0
 49
-3.0
 49
4.0
 49
-5.0
  0
LTYPE
  2
RAND3
 70
    64
  3
ランダム線3
 72
    65
 73
     4
 40
18.0
 49
3.0
 49
-4.0
 49
5.0
 49
-6.0
  0
LTYPE
  2
RAND4
 70
    64
  3
ランダム線4
 72
    65
 73
     4
 40
22.0
 49
4.0
 49
-5.0
 49
6.0
 49
-7.0
  0
LTYPE
  2
RAND5
 70
    64
  3
ランダム線5
 72
    65
 73
     4
 40
26.0
 49
5.0
 49
-6.0
 49
7.0
 49
-8.0
  0
LTYPE
  2
LONG1
 70
    64
  3
----------  --  ----------  --  
 72
    65
 73
     4
 40
40.0
 49
32.5
 49
-2.5
 49
2.5
 49
-2.5
  0
LTYPE
  2
LONG2
 70
    64
  3
--------  -  -  --------  -  -  
 72
    65
 73
     6
 40
40.0
 49
30.0
 49
-2.5
 49
1.25
 49
-2.5
 49
1.25
 49
-2.5
  0
LTYPE
  2
LONG3
 70
    64
  3
+++++++++++++++..+++++++++++++++
 72
    65
 73
     2
 40
40.0
 49
37.5
 49
-2.5
  0
LTYPE
  2
LONG4
 70
    64
  3
+++++++++++++++..+++++++++++++++
 72
    65
 73
     2
 40
80.0
 49
75.0
 49
-5.0
  0
LTYPE
  2
LONG5
 70
    64
  3
----------  --  ----------  --  
 72
    65
 73
     4
 40
60.0
 49
37.5
 49
-7.5
 49
7.5
 49
-7.5
  0
LTYPE
  2
dashed
 70
   64
  3
-------   -------------   ------
 72
   65
 73
    2
 40
7.5
 49
6
 49
-1.5
  0
LTYPE
  2
dashed_spaced
 70
   64
  3
----        --------        ----
 72
   65
 73
    2
 40
12
 49
6
 49
-6
  0
LTYPE
  2
long_dashed_dotted
 70
   64
  3
------------- --- --------------
 72
   65
 73
    4
 40
15.25
 49
12
 49
-1.5
 49
0.25
 49
-1.5
  0
LTYPE
  2
long_dashed_double-dotted
 70
   64
  3
----------- --- --- ------------
 72
   65
 73
    6
 40
17
 49
12
 49
-1.5
 49
0.25
 49
-1.5
 49
0.25
 49
-1.5
  0
LTYPE
  2
long_dashed_triplicate-dotted
 70
   64
  3
--------- --- --- --- ----------
 72
   65
 73
    8
 40
18.75
 49
12
 49
-1.5
 49
0.25
 49
-1.5
 49
0.25
 49
-1.5
 49
0.25
 49
-1.5
  0
LTYPE
  2
dotted
 70
   64
  3
   -       -       -       -    
 72
   65
 73
    2
 40
1.75
 49
0.25
 49
-1.5
  0
LTYPE
  2
chain
 70
   64
  3
-------------- -- --------------
 72
   65
 73
    4
 40
18.5
 49
12
 49
-1.5
 49
3.5
 49
-1.5
  0
LTYPE
  2
chain_double_dash
 70
   64
  3
------------ -- -- -------------
 72
   65
 73
    6
 40
23.5
 49
12
 49
-1.5
 49
3.5
 49
-1.5
 49
3.5
 49
-1.5
  0
LTYPE
  2
dashed_dotted
 70
   64
  3
-----------     -     ----------
 72
   65
 73
    4
 40
9.25
 49
6
 49
-1.5
 49
0.25
 49
-1.5
  0
LTYPE
  2
double-dashed_dotted
 70
   64
  3
------   -----------   -   -----
 72
   65
 73
    6
 40
16.75
 49
6
 49
-1.5
 49
6
 49
-1.5
 49
0.25
 49
-1.5
  0
LTYPE
  2
dashed_double-dotted
 70
   64
  3
---------    -    -    ---------
 72
   65
 73
    6
 40
11
 49
6
 49
-1.5
 49
0.25
 49
-1.5
 49
0.25
 49
-1.5
  0
LTYPE
  2
double-dashed_double-dotted
 70
   64
  3
-----   ---------   -   -   ----
 72
   65
 73
    8
 40
18.5
 49
6
 49
-1.5
 49
6
 49
-1.5
 49
0.25
 49
-1.5
 49
0.25
 49
-1.5
  0
LTYPE
  2
dashed_triplicate-dotted
 70
   64
  3
-------    -    -    -    ------
 72
   65
 73
    8
 40
12.75
 49
6
 49
-1.5
 49
0.25
 49
-1.5
 49
0.25
 49
-1.5
 49
0.25
 49
-1.5
  0
LTYPE
  2
double-dashed_triplicate-dotted
 70
   64
  3
-----  ---------  -  -  -  -----
 72
   65
 73
   10
 40
20.25
 49
6
 49
-1.5
 49
6
 49
-1.5
 49
0.25
 49
-1.5
 49
0.25
 49
-1.5
 49
0.25
 49
-1.5
  0
LTYPE
  2
undefined
 70
   64
  3
--------------------------------
 72
   65
 73
    0
 40
0
  0
ENDTAB
  0
TABLE
  2
STYLE
  5
3
100
AcDbSymbolTable
 70
     1
  0
STYLE
  5
10
100
AcDbSymbolTableRecord
100
AcDbTextStyleTableRecord
  2
STANDARD
 70
     0
 40
0.0
 41
1.0
 50
0.0
 71
     0
 42
0.2
  3
txt
  4
bigfont.shx
  0
STYLE
  5
26
100
AcDbSymbolTableRecord
100
AcDbTextStyleTableRecord
  2
TATEGAKI
 70
    68
 40
0.0
 41
1.0
 50
0.0
 71
     0
 42
1.0
  3
txt
  4
bigfont.shx
  0
ENDTAB
  0
TABLE
  2
LAYER
 70
    4
  0
LAYER
  2
_0-0_
 70
   64
 62
    7
  6
CONTINUOUS
  0
LAYER
  2
_0-1_
 70
   64
 62
    7
  6
CONTINUOUS
  0
LAYER
  2
_0-8_
 70
   64
 62
    7
  6
CONTINUOUS
  0
LAYER
  2
ADD_LINE
 70
   64
 62
    7
  6
CONTINUOUS
  0
ENDTAB
  0
ENDSEC
  0
SECTION
  2
BLOCKS
  0
ENDSEC
  0
SECTION
  2
ENTITIES
  0
LINE
  8
_0-0_
  6
CONTINUOUS
 62
    7
 10
53.674127761687259
 20
24.346671316782647
 11
55.174127761687259
 21
24.096671316782647
  0
LINE
  8
_0-0_
  6
CONTINUOUS
 62
    7
 10
55.174127761687259
 20
24.096671316782647
 11
55.174127761687259
 21
18.94667131678267
  0
LINE
  8
_0-0_
  6
CONTINUOUS
 62
    7
 10
53.674127761687259
 20
18.94667131678267
 11
53.674127761687259
 21
25.44667131678267
  0
LINE
  8
_0-0_
  6
CONTINUOUS
 62
    7
 10
55.174127761687259
 20
20.94667131678267
 11
64.674127761687259
 21
20.94667131678267
  0
LINE
  8
_0-0_
  6
CONTINUOUS
 62
    7
 10
64.674127761687259
 20
20.94667131678267
 11
65.174127761687259
 21
20.44667131678267
  0
LINE
  8
_0-0_
  6
CONTINUOUS
 62
    7
 10
65.174127761687259
 20
20.44667131678267
 11
65.174127761687259
 21
18.94667131678267
  0
LINE
  8
_0-0_
  6
CONTINUOUS
 62
    7
 10
53.674127761687259
 20
18.94667131678267
 11
49.174127761687259
 21
18.94667131678267
  0
LINE
  8
_0-0_
  6
CONTINUOUS
 62
    7
 10
53.674127761687259
 20
25.44667131678267
 11
49.174127761687259
 21
25.44667131678267
  0
LINE
  8
_0-0_
  6
CONTINUOUS
 62
    7
 10
49.174127761687259
 20
25.046671316783033
 11
53.674127761687259
 21
25.046671316783033
  0
LINE
  8
_0-0_
  6
CONTINUOUS
 62
    7
 10
53.674127761687259
 20
24.546671316783033
 11
49.174127761687259
 21
24.546671316783033
  0
LINE
  8
_0-0_
  6
CONTINUOUS
 62
    7
 10
49.174127761687259
 20
24.046671316783033
 11
53.674127761687259
 21
24.046671316783033
  0
LINE
  8
_0-0_
  6
CONTINUOUS
 62
    7
 10
53.674127761687259
 20
23.44667131678267
 11
49.174127761687259
 21
23.44667131678267
  0
LINE
  8
_0-0_
  6
CONTINUOUS
 62
    7
 10
49.174127761687259
 20
22.746671316782852
 11
53.674127761687259
 21
22.746671316782852
  0
LINE
  8
_0-0_
  6
CONTINUOUS
 62
    7
 10
49.174127761687259
 20
19.94667131678267
 11
53.674127761687259
 21
19.94667131678267
  0
LINE
  8
_0-0_
  6
CONTINUOUS
 62
    7
 10
53.674127761687259
 20
20.94667131678267
 11
49.174127761687259
 21
20.94667131678267
  0
LINE
  8
_0-0_
  6
CONTINUOUS
 62
    7
 10
49.174127761687259
 20
21.94667131678267
 11
53.674127761687259
 21
21.94667131678267
  0
LINE
  8
_0-0_
  6
CONTINUOUS
 62
    7
 10
49.174127761687259
 20
25.44667131678267
 11
49.174127761687259
 21
18.94667131678267
  0
ARC
  8
_0-8_
  6
CONTINUOUS
 62
    7
 10
69.799127767955952
 20
18.94667131678267
 40
21.625000006268635
 50
162.50767547744479
 51
180
  0
LINE
  8
_0-0_
  6
CONTINUOUS
 62
    7
 10
53.674127761687259
 20
13.546671316782692
 11
55.174127761687259
 21
13.796671316782692
  0
LINE
  8
_0-0_
  6
CONTINUOUS
 62
    7
 10
55.174127761687259
 20
13.796671316782692
 11
55.174127761687259
 21
18.94667131678267
  0
LINE
  8
_0-0_
  6
CONTINUOUS
 62
    7
 10
53.674127761687259
 20
18.94667131678267
 11
53.674127761687259
 21
12.44667131678267
  0
LINE
  8
_0-0_
  6
CONTINUOUS
 62
    7
 10
55.174127761687259
 20
16.94667131678267
 11
64.674127761687259
 21
16.94667131678267
  0
LINE
  8
_0-0_
  6
CONTINUOUS
 62
    7
 10
64.674127761687259
 20
16.94667131678267
 11
65.174127761687259
 21
17.44667131678267
  0
LINE
  8
_0-0_
  6
CONTINUOUS
 62
    7
 10
65.174127761687259
 20
17.44667131678267
 11
65.174127761687259
 21
18.94667131678267
  0
LINE
  8
_0-0_
  6
CONTINUOUS
 62
    7
 10
53.674127761687259
 20
18.94667131678267
 11
49.174127761687259
 21
18.94667131678267
  0
LINE
  8
_0-0_
  6
CONTINUOUS
 62
    7
 10
53.674127761687259
 20
12.44667131678267
 11
49.174127761687259
 21
12.44667131678267
  0
LINE
  8
_0-0_
  6
CONTINUOUS
 62
    7
 10
49.174127761687259
 20
12.846671316782306
 11
53.674127761687259
 21
12.846671316782306
  0
LINE
  8
_0-0_
  6
CONTINUOUS
 62
    7
 10
53.674127761687259
 20
13.346671316782306
 11
49.174127761687259
 21
13.346671316782306
  0
LINE
  8
_0-0_
  6
CONTINUOUS
 62
    7
 10
49.174127761687259
 20
13.846671316782306
 11
53.674127761687259
 21
13.846671316782306
  0
LINE
  8
_0-0_
  6
CONTINUOUS
 62
    7
 10
53.674127761687259
 20
14.44667131678267
 11
49.174127761687259
 21
14.44667131678267
  0
LINE
  8
_0-0_
  6
CONTINUOUS
 62
    7
 10
49.174127761687259
 20
15.146671316782488
 11
53.674127761687259
 21
15.146671316782488
  0
LINE
  8
_0-0_
  6
CONTINUOUS
 62
    7
 10
49.174127761687259
 20
17.94667131678267
 11
53.674127761687259
 21
17.94667131678267
  0
LINE
  8
_0-0_
  6
CONTINUOUS
 62
    7
 10
53.674127761687259
 20
16.94667131678267
 11
49.174127761687259
 21
16.94667131678267
  0
LINE
  8
_0-0_
  6
CONTINUOUS
 62
    7
 10
49.174127761687259
 20
15.94667131678267
 11
53.674127761687259
 21
15.94667131678267
  0
LINE
  8
_0-0_
  6
CONTINUOUS
 62
    7
 10
49.174127761687259
 20
12.44667131678267
 11
49.174127761687259
 21
18.94667131678267
  0
ARC
  8
_0-8_
  6
CONTINUOUS
 62
    7
 10
69.799127767955952
 20
18.94667131678267
 40
21.625000006268635
 50
180
 51
197.49232452255521
  0
LINE
  8
_0-0_
  6
CONTINUOUS
 62
    7
 10
133.37436635854829
 20
27.44667131678267
 11
133.37436635854829
 21
10.44667131678267
  0
LINE
  8
_0-0_
  6
CONTINUOUS
 62
    7
 10
133.37436635854829
 20
10.44667131678267
 11
139.37436635854829
 21
10.44667131678267
  0
LINE
  8
_0-0_
  6
CONTINUOUS
 62
    7
 10
139.37436635854829
 20
10.44667131678267
 11
139.37436635854829
 21
27.44667131678267
  0
LINE
  8
_0-0_
  6
CONTINUOUS
 62
    7
 10
139.37436635854829
 20
27.44667131678267
 11
133.37436635854829
 21
27.44667131678267
  0
LINE
  8
_0-0_
  6
CONTINUOUS
 62
    7
 10
133.37436635854829
 20
27.046671316783033
 11
139.37436635854829
 21
27.046671316783033
  0
LINE
  8
_0-0_
  6
CONTINUOUS
 62
    7
 10
139.37436635854829
 20
26.546671316783033
 11
133.37436635854829
 21
26.546671316783033
  0
LINE
  8
_0-0_
  6
CONTINUOUS
 62
    7
 10
133.37436635854829
 20
26.046671316783033
 11
139.37436635854829
 21
26.046671316783033
  0
LINE
  8
_0-0_
  6
CONTINUOUS
 62
    7
 10
139.37436635854829
 20
25.44667131678267
 11
133.37436635854829
 21
25.44667131678267
  0
LINE
  8
_0-0_
  6
CONTINUOUS
 62
    7
 10
133.37436635854829
 20
24.746671316782852
 11
139.37436635854829
 21
24.746671316782852
  0
LINE
  8
_0-0_
  6
CONTINUOUS
 62
    7
 10
139.37436635854829
 20
25.19667131678267
 11
140.87436635854829
 21
24.94667131678267
  0
LINE
  8
_0-0_
  6
CONTINUOUS
 62
    7
 10
140.87436635854829
 20
24.94667131678267
 11
140.87436635854829
 21
12.94667131678267
  0
LINE
  8
_0-0_
  6
CONTINUOUS
 62
    7
 10
140.87436635854829
 20
12.94667131678267
 11
139.37436635854829
 21
12.69667131678267
  0
LINE
  8
_0-0_
  6
CONTINUOUS
 62
    7
 10
139.37436635854829
 20
12.44667131678267
 11
133.37436635854829
 21
12.44667131678267
  0
LINE
  8
_0-0_
  6
CONTINUOUS
 62
    7
 10
133.37436635854829
 20
11.846671316782761
 11
139.37436635854829
 21
11.846671316782761
  0
LINE
  8
_0-0_
  6
CONTINUOUS
 62
    7
 10
139.37436635854829
 20
11.346671316782761
 11
133.37436635854829
 21
11.346671316782761
  0
LINE
  8
_0-0_
  6
CONTINUOUS
 62
    7
 10
133.37436635854829
 20
10.846671316782761
 11
139.37436635854829
 21
10.846671316782761
  0
LINE
  8
_0-0_
  6
CONTINUOUS
 62
    7
 10
139.37436635854829
 20
13.146671316782943
 11
133.37436635854829
 21
13.146671316782943
  0
LINE
  8
_0-0_
  6
CONTINUOUS
 62
    7
 10
133.37436635854829
 20
13.94667131678267
 11
139.37436635854829
 21
13.94667131678267
  0
LINE
  8
_0-0_
  6
CONTINUOUS
 62
    7
 10
139.37436635854829
 20
14.94667131678267
 11
133.37436635854829
 21
14.94667131678267
  0
LINE
  8
_0-0_
  6
CONTINUOUS
 62
    7
 10
133.37436635854829
 20
15.94667131678267
 11
139.37436635854829
 21
15.94667131678267
  0
LINE
  8
_0-0_
  6
CONTINUOUS
 62
    7
 10
139.37436635854829
 20
16.94667131678267
 11
133.37436635854829
 21
16.94667131678267
  0
LINE
  8
_0-0_
  6
CONTINUOUS
 62
    7
 10
133.37436635854829
 20
17.94667131678267
 11
139.37436635854829
 21
17.94667131678267
  0
LINE
  8
_0-0_
  6
CONTINUOUS
 62
    7
 10
139.37436635854829
 20
18.94667131678267
 11
133.37436635854829
 21
18.94667131678267
  0
LINE
  8
_0-0_
  6
CONTINUOUS
 62
    7
 10
133.37436635854829
 20
19.94667131678267
 11
139.37436635854829
 21
19.94667131678267
  0
LINE
  8
_0-0_
  6
CONTINUOUS
 62
    7
 10
139.37436635854829
 20
20.94667131678267
 11
133.37436635854829
 21
20.94667131678267
  0
LINE
  8
_0-0_
  6
CONTINUOUS
 62
    7
 10
133.37436635854829
 20
21.94667131678267
 11
139.37436635854829
 21
21.94667131678267
  0
LINE
  8
_0-0_
  6
CONTINUOUS
 62
    7
 10
139.37436635854829
 20
22.94667131678267
 11
133.37436635854829
 21
22.94667131678267
  0
LINE
  8
_0-0_
  6
CONTINUOUS
 62
    7
 10
133.37436635854829
 20
23.94667131678267
 11
139.37436635854829
 21
23.94667131678267
  0
LINE
  8
_0-0_
  6
CONTINUOUS
 62
    7
 10
140.87436635854829
 20
21.94667131678267
 11
152.37436635854829
 21
21.94667131678267
  0
LINE
  8
_0-0_
  6
CONTINUOUS
 62
    7
 10
152.37436635854829
 20
21.94667131678267
 11
152.87436635854829
 21
21.44667131678267
  0
LINE
  8
_0-0_
  6
CONTINUOUS
 62
    7
 10
152.87436635854829
 20
21.44667131678267
 11
152.87436635854829
 21
16.44667131678267
  0
LINE
  8
_0-0_
  6
CONTINUOUS
 62
    7
 10
152.87436635854829
 20
16.44667131678267
 11
152.37436635854829
 21
15.94667131678267
  0
LINE
  8
_0-0_
  6
CONTINUOUS
 62
    7
 10
152.37436635854829
 20
15.94667131678267
 11
140.87436635854829
 21
15.94667131678267
  0
ARC
  8
_0-0_
  6
CONTINUOUS
 62
    7
 10
168.99936635854829
 20
18.94667131678267
 40
36.625
 50
166.58032638448614
 51
193.41967361551386
  0
CIRCLE
  8
_0-0_
  6
CONTINUOUS
 62
    7
 10
106.68414645094896
 20
18.94667131678267
 40
8.5
  0
CIRCLE
  8
_0-0_
  6
CONTINUOUS
 62
    7
 10
22.483907854087875
 20
18.94667131678267
 40
6.5000000009644054
  0
CIRCLE
  8
_0-0_
  6
CONTINUOUS
 62
    7
 10
22.483907854087875
 20
18.94667131678267
 40
7.0000000009644054
  0
CIRCLE
  8
_0-0_
  6
CONTINUOUS
 62
    7
 10
106.68414645094896
 20
18.94667131678267
 40
8
  0
LINE
  8
_0-1_
  6
CONTINUOUS
 62
  152
 10
65.174127761687259
 20
20.44667131678267
 11
55.174127761687259
 21
20.44667131678267
  0
LINE
  8
_0-1_
  6
CONTINUOUS
 62
  152
 10
65.174127761687259
 20
17.44667131678267
 11
55.174127761687259
 21
17.44667131678267
  0
LINE
  8
_0-1_
  6
CENTER1
 62
  152
 10
47.295722595577217
 20
18.94667131678267
 11
66.50256843887496
 21
18.94667131678267
  0
LINE
  8
_0-1_
  6
CONTINUOUS
 62
  152
 10
152.87436635854829
 20
21.44667131678267
 11
140.87436635854829
 21
21.44667131678267
  0
LINE
  8
_0-1_
  6
CONTINUOUS
 62
  152
 10
140.87436635854829
 20
16.44667131678267
 11
152.87436635854829
 21
16.44667131678267
  0
LINE
  8
_0-1_
  6
CENTER1
 62
  152
 10
132.37436635854829
 20
18.94667131678267
 11
152.87436635854829
 21
18.94667131678267
  0
LINE
  8
_0-1_
  6
CENTER1
 62
  152
 10
22.483907854087875
 20
27.276908055351612
 11
22.483907854087875
 21
9.5956160075595562
  0
LINE
  8
_0-1_
  6
CENTER1
 62
  152
 10
33.092683082763187
 20
18.94667131678267
 11
12.182633356678707
 21
18.94667131678267
  0
LINE
  8
_0-1_
  6
CENTER1
 62
  152
 10
117.29292167962416
 20
18.94667131678267
 11
96.382871953539677
 21
18.94667131678267
  0
LINE
  8
_0-1_
  6
CENTER1
 62
  152
 10
106.68414645094896
 20
29.019412199192061
 11
106.68414645094896
 21
9.5956160075595562
  0
TEXT
  8
_0-8_
 62
    7
 10
99.881970703777938
 20
35.767188754837548
 40
5
 41
1
 50
0
  1
PRN_M6
  0
TEXT
  8
_0-8_
 62
    7
 10
16.044121669060928
 20
35.586574508973513
 40
5
 41
1
 50
0
  1
PRN_M4
  0
LINE
  8
_0-0_
  6
CONTINUOUS
 62
  152
 10
64.674127761687259
 20
18.94667131678267
 11
64.674127761687259
 21
20.94667131678267
  0
LINE
  8
_0-0_
  6
CONTINUOUS
 62
  152
 10
64.674127761687259
 20
18.94667131678267
 11
64.674127761687259
 21
16.94667131678267
  0
LINE
  8
_0-0_
  6
CONTINUOUS
 62
  152
 10
152.37436635854829
 20
15.94667131678267
 11
152.37436635854829
 21
21.94667131678267
  0
ENDSEC
  0
EOF
