  0
SECTION
  2
HEADER
  9
$ACADVER
  1
AC1009
  9
$INSBASE
 10
0
 20
0
 30
0
  9
$EXTMIN
 10
0
 20
0
  9
$EXTMAX
 10
1189
 20
841
  9
$LIMMIN
 10
0
 20
0
  9
$LIMMAX
 10
1189
 20
841
  9
$LTSCALE
 40
1
  0
ENDSEC
  0
SECTION
  2
TABLES
  0
TABLE
  2
LTYPE
 70
     9
  0
LTYPE
  2
CONTINUOUS
 70
    64
  3
実線
 72
    65
 73
     0
 40
0.0
  0
LTYPE
  2
DASHED1
 70
    64
  3
--  --  --  --  --  --  --  --  
 72
    65
 73
     2
 40
2.5
 49
1.25
 49
-1.25
  0
LTYPE
  2
DASHED2
 70
    64
  3
----    ----    ----    ----    
 72
    65
 73
     2
 40
5.0
 49
2.5
 49
-2.5
  0
LTYPE
  2
DASHED3
 70
    64
  3
------  ------  ------  ------  
 72
    65
 73
     2
 40
5.0
 49
3.75
 49
-1.25
  0
LTYPE
  2
CENTER1
 70
    64
  3
----- - ----- - ----- - ----- - 
 72
    65
 73
     4
 40
10.0
 49
6.25
 49
-1.25
 49
1.25
 49
-1.25
  0
LTYPE
  2
CENTER2
 70
    64
  3
----------  --  ----------  --  
 72
    65
 73
     4
 40
20.0
 49
12.5
 49
-2.5
 49
2.5
 49
-2.5
  0
LTYPE
  2
PHANTOM1
 70
    64
  3
--- - - --- - - --- - - --- - - 
 72
    65
 73
     6
 40
10.0
 49
3.25
 49
-1.25
 49
1.25
 49
-1.25
 49
1.25
 49
-1.25
  0
LTYPE
  2
PHANTOM2
 70
    64
  3
--------  -  -  --------  -  -  
 72
    65
 73
     6
 40
20.0
 49
10.0
 49
-2.5
 49
1.25
 49
-2.5
 49
1.25
 49
-2.5
  0
LTYPE
  2
DOT
 70
    64
  3
-   -   -   -   -   -   -   -   
 72
    65
 73
     2
 40
2.5
 49
0.625
 49
-1.875
  0
LTYPE
  2
DUMMY
 70
    64
  3
ダミー
 72
    65
 73
     0
 40
0.0
  0
LTYPE
  2
RAND1
 70
    64
  3
ランダム線1
 72
    65
 73
     4
 40
10.0
 49
1.0
 49
-2.0
 49
3.0
 49
-4.0
  0
LTYPE
  2
RAND2
 70
    64
  3
ランダム線2
 72
    65
 73
     4
 40
14.0
 49
2.0
 49
-3.0
 49
4.0
 49
-5.0
  0
LTYPE
  2
RAND3
 70
    64
  3
ランダム線3
 72
    65
 73
     4
 40
18.0
 49
3.0
 49
-4.0
 49
5.0
 49
-6.0
  0
LTYPE
  2
RAND4
 70
    64
  3
ランダム線4
 72
    65
 73
     4
 40
22.0
 49
4.0
 49
-5.0
 49
6.0
 49
-7.0
  0
LTYPE
  2
RAND5
 70
    64
  3
ランダム線5
 72
    65
 73
     4
 40
26.0
 49
5.0
 49
-6.0
 49
7.0
 49
-8.0
  0
LTYPE
  2
LONG1
 70
    64
  3
----------  --  ----------  --  
 72
    65
 73
     4
 40
40.0
 49
32.5
 49
-2.5
 49
2.5
 49
-2.5
  0
LTYPE
  2
LONG2
 70
    64
  3
--------  -  -  --------  -  -  
 72
    65
 73
     6
 40
40.0
 49
30.0
 49
-2.5
 49
1.25
 49
-2.5
 49
1.25
 49
-2.5
  0
LTYPE
  2
LONG3
 70
    64
  3
+++++++++++++++..+++++++++++++++
 72
    65
 73
     2
 40
40.0
 49
37.5
 49
-2.5
  0
LTYPE
  2
LONG4
 70
    64
  3
+++++++++++++++..+++++++++++++++
 72
    65
 73
     2
 40
80.0
 49
75.0
 49
-5.0
  0
LTYPE
  2
LONG5
 70
    64
  3
----------  --  ----------  --  
 72
    65
 73
     4
 40
60.0
 49
37.5
 49
-7.5
 49
7.5
 49
-7.5
  0
LTYPE
  2
dashed
 70
   64
  3
-------   -------------   ------
 72
   65
 73
    2
 40
7.5
 49
6
 49
-1.5
  0
LTYPE
  2
dashed_spaced
 70
   64
  3
----        --------        ----
 72
   65
 73
    2
 40
12
 49
6
 49
-6
  0
LTYPE
  2
long_dashed_dotted
 70
   64
  3
------------- --- --------------
 72
   65
 73
    4
 40
15.25
 49
12
 49
-1.5
 49
0.25
 49
-1.5
  0
LTYPE
  2
long_dashed_double-dotted
 70
   64
  3
----------- --- --- ------------
 72
   65
 73
    6
 40
17
 49
12
 49
-1.5
 49
0.25
 49
-1.5
 49
0.25
 49
-1.5
  0
LTYPE
  2
long_dashed_triplicate-dotted
 70
   64
  3
--------- --- --- --- ----------
 72
   65
 73
    8
 40
18.75
 49
12
 49
-1.5
 49
0.25
 49
-1.5
 49
0.25
 49
-1.5
 49
0.25
 49
-1.5
  0
LTYPE
  2
dotted
 70
   64
  3
   -       -       -       -    
 72
   65
 73
    2
 40
1.75
 49
0.25
 49
-1.5
  0
LTYPE
  2
chain
 70
   64
  3
-------------- -- --------------
 72
   65
 73
    4
 40
18.5
 49
12
 49
-1.5
 49
3.5
 49
-1.5
  0
LTYPE
  2
chain_double_dash
 70
   64
  3
------------ -- -- -------------
 72
   65
 73
    6
 40
23.5
 49
12
 49
-1.5
 49
3.5
 49
-1.5
 49
3.5
 49
-1.5
  0
LTYPE
  2
dashed_dotted
 70
   64
  3
-----------     -     ----------
 72
   65
 73
    4
 40
9.25
 49
6
 49
-1.5
 49
0.25
 49
-1.5
  0
LTYPE
  2
double-dashed_dotted
 70
   64
  3
------   -----------   -   -----
 72
   65
 73
    6
 40
16.75
 49
6
 49
-1.5
 49
6
 49
-1.5
 49
0.25
 49
-1.5
  0
LTYPE
  2
dashed_double-dotted
 70
   64
  3
---------    -    -    ---------
 72
   65
 73
    6
 40
11
 49
6
 49
-1.5
 49
0.25
 49
-1.5
 49
0.25
 49
-1.5
  0
LTYPE
  2
double-dashed_double-dotted
 70
   64
  3
-----   ---------   -   -   ----
 72
   65
 73
    8
 40
18.5
 49
6
 49
-1.5
 49
6
 49
-1.5
 49
0.25
 49
-1.5
 49
0.25
 49
-1.5
  0
LTYPE
  2
dashed_triplicate-dotted
 70
   64
  3
-------    -    -    -    ------
 72
   65
 73
    8
 40
12.75
 49
6
 49
-1.5
 49
0.25
 49
-1.5
 49
0.25
 49
-1.5
 49
0.25
 49
-1.5
  0
LTYPE
  2
double-dashed_triplicate-dotted
 70
   64
  3
-----  ---------  -  -  -  -----
 72
   65
 73
   10
 40
20.25
 49
6
 49
-1.5
 49
6
 49
-1.5
 49
0.25
 49
-1.5
 49
0.25
 49
-1.5
 49
0.25
 49
-1.5
  0
LTYPE
  2
undefined
 70
   64
  3
--------------------------------
 72
   65
 73
    0
 40
0
  0
ENDTAB
  0
TABLE
  2
STYLE
  5
3
100
AcDbSymbolTable
 70
     1
  0
STYLE
  5
10
100
AcDbSymbolTableRecord
100
AcDbTextStyleTableRecord
  2
STANDARD
 70
     0
 40
0.0
 41
1.0
 50
0.0
 71
     0
 42
0.2
  3
txt
  4
bigfont.shx
  0
STYLE
  5
26
100
AcDbSymbolTableRecord
100
AcDbTextStyleTableRecord
  2
TATEGAKI
 70
    68
 40
0.0
 41
1.0
 50
0.0
 71
     0
 42
1.0
  3
txt
  4
bigfont.shx
  0
ENDTAB
  0
TABLE
  2
LAYER
 70
    3
  0
LAYER
  2
_0-0_
 70
   64
 62
    7
  6
CONTINUOUS
  0
LAYER
  2
_0-1_
 70
   64
 62
    7
  6
CONTINUOUS
  0
LAYER
  2
ADD_LINE
 70
   64
 62
    7
  6
CONTINUOUS
  0
ENDTAB
  0
ENDSEC
  0
SECTION
  2
BLOCKS
  0
ENDSEC
  0
SECTION
  2
ENTITIES
  0
LINE
  8
_0-0_
  6
CONTINUOUS
 62
    7
 10
292.7320900363917
 20
10.374118206872993
 11
292.7320900363917
 21
70.374118206872993
  0
LINE
  8
_0-0_
  6
CONTINUOUS
 62
    7
 10
292.7320900363917
 20
70.374118206872993
 11
290.7320900363917
 21
70.374118206872993
  0
LINE
  8
_0-0_
  6
CONTINUOUS
 62
    7
 10
290.7320900363917
 20
70.374118206872993
 11
290.7320900363917
 21
10.374118206872993
  0
LINE
  8
_0-0_
  6
CONTINUOUS
 62
    7
 10
290.7320900363917
 20
10.374118206872993
 11
292.7320900363917
 21
10.374118206872993
  0
LINE
  8
_0-0_
  6
CONTINUOUS
 62
    7
 10
290.7320900363917
 20
25.374118206872993
 11
282.7320900363917
 21
25.374118206872993
  0
LINE
  8
_0-0_
  6
CONTINUOUS
 62
    7
 10
282.7320900363917
 20
31.374118206872993
 11
290.7320900363917
 21
31.374118206872993
  0
LINE
  8
_0-0_
  6
CONTINUOUS
 62
    7
 10
282.7320900363917
 20
49.374118206872993
 11
290.7320900363917
 21
49.374118206872993
  0
LINE
  8
_0-0_
  6
CONTINUOUS
 62
    7
 10
290.7320900363917
 20
55.374118206872993
 11
282.7320900363917
 21
55.374118206872993
  0
LINE
  8
_0-0_
  6
CONTINUOUS
 62
    7
 10
285.29566639683765
 20
115.49519589761968
 11
283.29566639683765
 21
115.49519589761968
  0
LINE
  8
_0-0_
  6
CONTINUOUS
 62
    7
 10
283.29566639683765
 20
115.49519589761968
 11
283.29566639683765
 21
160.49519589761968
  0
LINE
  8
_0-0_
  6
CONTINUOUS
 62
    7
 10
283.29566639683765
 20
160.49519589761968
 11
285.29566639683765
 21
160.49519589761968
  0
LINE
  8
_0-0_
  6
CONTINUOUS
 62
    7
 10
285.29566639683765
 20
160.49519589761968
 11
285.29566639683765
 21
115.49519589761968
  0
LINE
  8
_0-0_
  6
CONTINUOUS
 62
    7
 10
283.29566639683765
 20
125.49519589761968
 11
277.79566639683765
 21
125.49519589761968
  0
LINE
  8
_0-0_
  6
CONTINUOUS
 62
    7
 10
277.79566639683765
 20
150.49519589761968
 11
283.29566639683765
 21
150.49519589761968
  0
LINE
  8
_0-0_
  6
CONTINUOUS
 62
    7
 10
283.29566639683765
 20
145.49519589761968
 11
277.79566639683765
 21
145.49519589761968
  0
LINE
  8
_0-0_
  6
CONTINUOUS
 62
    7
 10
277.79566639683765
 20
130.49519589761968
 11
283.29566639683765
 21
130.49519589761968
  0
LINE
  8
_0-0_
  6
CONTINUOUS
 62
    7
 10
219.2301047804873
 20
122.99519589761968
 11
219.2301047804873
 21
152.99519589761968
  0
LINE
  8
_0-0_
  6
CONTINUOUS
 62
    7
 10
204.2301047804873
 20
152.99519589761968
 11
204.2301047804873
 21
122.99519589761968
  0
LINE
  8
_0-0_
  6
CONTINUOUS
 62
    7
 10
214.2301047804873
 20
147.99519589761968
 11
214.2301047804873
 21
127.99519589761968
  0
LINE
  8
_0-0_
  6
CONTINUOUS
 62
    7
 10
209.2301047804873
 20
127.99519589761968
 11
209.2301047804873
 21
147.99519589761968
  0
LINE
  8
_0-0_
  6
CONTINUOUS
 62
    7
 10
223.7320900363917
 20
20.374118206872993
 11
223.7320900363917
 21
60.374118206872993
  0
LINE
  8
_0-0_
  6
CONTINUOUS
 62
    7
 10
203.7320900363917
 20
60.374118206872993
 11
203.7320900363917
 21
20.374118206872993
  0
LINE
  8
_0-0_
  6
CONTINUOUS
 62
    7
 10
210.7320900363917
 20
28.374118206872993
 11
210.7320900363917
 21
52.374118206872993
  0
LINE
  8
_0-0_
  6
CONTINUOUS
 62
    7
 10
216.7320900363917
 20
52.374118206872993
 11
216.7320900363917
 21
28.374118206872993
  0
LINE
  8
_0-0_
  6
CONTINUOUS
 62
    7
 10
98.344551960497142
 20
47.857434706872994
 11
98.344551960497142
 21
54.516244706872897
  0
LINE
  8
_0-0_
  6
CONTINUOUS
 62
    7
 10
112.34455196049714
 20
70.374114706872945
 11
114.34455196049714
 21
70.374114706872945
  0
LINE
  8
_0-0_
  6
CONTINUOUS
 62
    7
 10
114.34455196049714
 20
70.374114706872945
 11
114.34455196049714
 21
10.374121706872813
  0
LINE
  8
_0-0_
  6
CONTINUOUS
 62
    7
 10
114.34455196049714
 20
10.374121706872813
 11
112.34455196049714
 21
10.374121706872813
  0
LINE
  8
_0-0_
  6
CONTINUOUS
 62
    7
 10
112.34455196049714
 20
10.374121706872813
 11
112.34455196049714
 21
70.374114706872945
  0
LINE
  8
_0-0_
  6
CONTINUOUS
 62
    7
 10
112.34455196049714
 20
31.374114706872945
 11
103.34453196049719
 21
31.374114706872945
  0
LINE
  8
_0-0_
  6
CONTINUOUS
 62
    7
 10
103.34453196049719
 20
25.374115706872828
 11
112.34455196049714
 21
25.374115706872828
  0
LINE
  8
_0-0_
  6
CONTINUOUS
 62
    7
 10
108.34453196050333
 20
160.49519589761968
 11
108.34453196050333
 21
115.49519589761968
  0
LINE
  8
_0-0_
  6
CONTINUOUS
 62
    7
 10
108.34453196050333
 20
115.49519589761968
 11
106.34453196050333
 21
115.49519589761968
  0
LINE
  8
_0-0_
  6
CONTINUOUS
 62
    7
 10
106.34453196050333
 20
115.49519589761968
 11
106.34453196050333
 21
160.49519589761968
  0
LINE
  8
_0-0_
  6
CONTINUOUS
 62
    7
 10
106.34453196050333
 20
160.49519589761968
 11
108.34453196050333
 21
160.49519589761968
  0
LINE
  8
_0-0_
  6
CONTINUOUS
 62
    7
 10
96.344531960503332
 20
149.65709968731022
 11
96.344531960503332
 21
143.99519589761968
  0
LINE
  8
_0-0_
  6
CONTINUOUS
 62
    7
 10
106.34453196050333
 20
130.49519589761968
 11
100.84453196050333
 21
130.49519589761968
  0
LINE
  8
_0-0_
  6
CONTINUOUS
 62
    7
 10
100.84453196050333
 20
125.49519589761968
 11
106.34453196050333
 21
125.49519589761968
  0
LINE
  8
_0-0_
  6
CONTINUOUS
 62
    7
 10
42.278970344152981
 20
122.99519589761968
 11
42.278970344152981
 21
152.99519589761968
  0
LINE
  8
_0-0_
  6
CONTINUOUS
 62
    7
 10
27.278970344152981
 20
152.99519589761968
 11
27.278970344152981
 21
122.99519589761968
  0
LINE
  8
_0-0_
  6
CONTINUOUS
 62
    7
 10
37.278970344152981
 20
127.99519589761968
 11
37.278970344152981
 21
147.00962430575311
  0
LINE
  8
_0-0_
  6
CONTINUOUS
 62
    7
 10
32.278970344152981
 20
147.00962430575311
 11
32.278970344152981
 21
127.99519589761968
  0
LINE
  8
_0-0_
  6
CONTINUOUS
 62
    7
 10
44.778970344153208
 20
20.374125706872803
 11
44.778970344153208
 21
60.374124706872919
  0
LINE
  8
_0-0_
  6
CONTINUOUS
 62
    7
 10
24.778970344152981
 20
60.374124706872919
 11
24.778970344152981
 21
20.374125706872803
  0
LINE
  8
_0-0_
  6
CONTINUOUS
 62
    7
 10
31.778970344153208
 20
28.374119706872818
 11
31.778970344153208
 21
52.851540211188251
  0
LINE
  8
_0-0_
  6
CONTINUOUS
 62
    7
 10
37.778970344153208
 20
52.851540211188251
 11
37.778970344153208
 21
28.374119706872818
  0
ARC
  8
_0-0_
  6
CONTINUOUS
 62
    7
 10
100.84453196050333
 20
137.99519589761968
 40
12.5
 50
111.10019602409302
 51
270
  0
ARC
  8
_0-0_
  6
CONTINUOUS
 62
    7
 10
34.778970344152981
 20
152.99519589761968
 40
7.5
 50
0
 51
180
  0
ARC
  8
_0-0_
  6
CONTINUOUS
 62
    7
 10
34.778970344152981
 20
122.99519589761968
 40
7.5
 50
180
 51
0
  0
CIRCLE
  8
_0-0_
  6
CONTINUOUS
 62
    7
 10
34.778970344152981
 20
155.49519589761968
 40
2.1000000000000001
  0
CIRCLE
  8
_0-0_
  6
CONTINUOUS
 62
    7
 10
34.778970344152981
 20
120.49519589761968
 40
2.1000000000000001
  0
CIRCLE
  8
_0-0_
  6
CONTINUOUS
 62
    7
 10
34.778970344152981
 20
155.49519589761968
 40
4
  0
CIRCLE
  8
_0-0_
  6
CONTINUOUS
 62
    7
 10
34.778970344152981
 20
120.49519589761968
 40
4
  0
ARC
  8
_0-0_
  6
CONTINUOUS
 62
    7
 10
34.778970344152981
 20
127.99519589761968
 40
2.5
 50
180
 51
0
  0
ARC
  8
_0-0_
  6
CONTINUOUS
 62
    7
 10
100.84453196050333
 20
137.99519589761968
 40
7.5
 50
126.86989764584402
 51
270
  0
LINE
  8
_0-0_
  6
CONTINUOUS
 62
    7
 10
37.278970344152981
 20
147.00962430575316
 11
37.212794715907194
 21
147.49739298715588
  0
LINE
  8
_0-0_
  6
CONTINUOUS
 62
    7
 10
37.212794715907194
 20
147.49739298715588
 11
37.072668565700269
 21
147.96476622298439
  0
LINE
  8
_0-0_
  6
CONTINUOUS
 62
    7
 10
37.072668565700269
 20
147.96476622298439
 11
36.862849555698972
 21
148.39754311397036
  0
LINE
  8
_0-0_
  6
CONTINUOUS
 62
    7
 10
36.862849555698972
 20
148.39754311397036
 11
36.589712930348583
 21
148.78257395327671
  0
LINE
  8
_0-0_
  6
CONTINUOUS
 62
    7
 10
36.589712930348583
 20
148.78257395327671
 11
36.261557807796635
 21
149.10815977368622
  0
LINE
  8
_0-0_
  6
CONTINUOUS
 62
    7
 10
36.261557807796635
 20
149.10815977368622
 11
35.888355015387219
 21
149.36440781480019
  0
LINE
  8
_0-0_
  6
CONTINUOUS
 62
    7
 10
35.888355015387219
 20
149.36440781480019
 11
35.481444131118224
 21
149.54353210955696
  0
LINE
  8
_0-0_
  6
CONTINUOUS
 62
    7
 10
35.481444131118224
 20
149.54353210955696
 11
35.053188936301012
 21
149.64009005690173
  0
LINE
  8
_0-0_
  6
CONTINUOUS
 62
    7
 10
35.053188936301012
 20
149.64009005690173
 11
34.616601748322864
 21
149.65114779246505
  0
LINE
  8
_0-0_
  6
CONTINUOUS
 62
    7
 10
34.616601748322864
 20
149.65114779246505
 11
34.184948047966373
 21
149.57636933254742
  0
LINE
  8
_0-0_
  6
CONTINUOUS
 62
    7
 10
34.184948047966373
 20
149.57636933254742
 11
33.77134341448982
 21
149.41802678281357
  0
LINE
  8
_0-0_
  6
CONTINUOUS
 62
    7
 10
33.77134341448982
 20
149.41802678281357
 11
33.388355015387219
 21
149.18093130151203
  0
LINE
  8
_0-0_
  6
CONTINUOUS
 62
    7
 10
33.388355015387219
 20
149.18093130151203
 11
33.047619759363897
 21
148.87228691486609
  0
LINE
  8
_0-0_
  6
CONTINUOUS
 62
    7
 10
33.047619759363897
 20
148.87228691486609
 11
32.759490714753724
 21
148.50147162638234
  0
LINE
  8
_0-0_
  6
CONTINUOUS
 62
    7
 10
32.759490714753724
 20
148.50147162638234
 11
32.532722536776873
 21
148.07975247095976
  0
LINE
  8
_0-0_
  6
CONTINUOUS
 62
    7
 10
32.532722536776873
 20
148.07975247095976
 11
32.374205461770771
 21
147.61994317173571
  0
LINE
  8
_0-0_
  6
CONTINUOUS
 62
    7
 10
32.374205461770771
 20
147.61994317173571
 11
32.28875595084628
 21
147.13601480159241
  0
LINE
  8
_0-0_
  6
CONTINUOUS
 62
    7
 10
32.28875595084628
 20
147.13601480159241
 11
32.278970344152981
 21
147.00962430575316
  0
ARC
  8
_0-0_
  6
CONTINUOUS
 62
    7
 10
211.7301047804873
 20
152.99519589761968
 40
7.5
 50
0
 51
180
  0
ARC
  8
_0-0_
  6
CONTINUOUS
 62
    7
 10
211.7301047804873
 20
122.99519589761968
 40
7.5
 50
180
 51
0
  0
CIRCLE
  8
_0-0_
  6
CONTINUOUS
 62
    7
 10
211.7301047804873
 20
155.49519589761968
 40
2.1000000000000001
  0
CIRCLE
  8
_0-0_
  6
CONTINUOUS
 62
    7
 10
211.7301047804873
 20
120.49519589761968
 40
2.1000000000000001
  0
CIRCLE
  8
_0-0_
  6
CONTINUOUS
 62
    7
 10
211.7301047804873
 20
155.49519589761968
 40
4
  0
CIRCLE
  8
_0-0_
  6
CONTINUOUS
 62
    7
 10
211.7301047804873
 20
120.49519589761968
 40
4
  0
ARC
  8
_0-0_
  6
CONTINUOUS
 62
    7
 10
277.79566639683765
 20
137.99519589761968
 40
7.5
 50
90
 51
270
  0
ARC
  8
_0-0_
  6
CONTINUOUS
 62
    7
 10
277.79566639683765
 20
137.99519589761968
 40
12.5
 50
90
 51
270
  0
ARC
  8
_0-0_
  6
CONTINUOUS
 62
    7
 10
211.7301047804873
 20
127.99519589761968
 40
2.5
 50
180
 51
0
  0
ARC
  8
_0-0_
  6
CONTINUOUS
 62
    7
 10
211.7301047804873
 20
147.99519589761968
 40
2.5
 50
0
 51
180
  0
LINE
  8
_0-0_
  6
CONTINUOUS
 62
    7
 10
31.778970344153208
 20
52.851540211188251
 11
31.824547085116592
 21
53.143269149668697
  0
LINE
  8
_0-0_
  6
CONTINUOUS
 62
    7
 10
31.824547085116592
 20
53.143269149668697
 11
31.959892481795464
 21
53.426134051975396
  0
LINE
  8
_0-0_
  6
CONTINUOUS
 62
    7
 10
31.959892481795464
 20
53.426134051975396
 11
32.180894132799949
 21
53.691540211188226
  0
LINE
  8
_0-0_
  6
CONTINUOUS
 62
    7
 10
32.180894132799949
 20
53.691540211188226
 11
32.480837014796293
 21
53.93142339546165
  0
LINE
  8
_0-0_
  6
CONTINUOUS
 62
    7
 10
32.480837014796293
 20
53.93142339546165
 11
32.850607515093543
 21
54.138494875628112
  0
LINE
  8
_0-0_
  6
CONTINUOUS
 62
    7
 10
32.850607515093543
 20
54.138494875628112
 11
33.278970344153208
 21
54.306462889546083
  0
LINE
  8
_0-0_
  6
CONTINUOUS
 62
    7
 10
33.278970344153208
 20
54.306462889546083
 11
33.752909914176144
 21
54.430223814108558
  0
LINE
  8
_0-0_
  6
CONTINUOUS
 62
    7
 10
33.752909914176144
 20
54.430223814108558
 11
34.258025811152493
 21
54.506017236248795
  0
LINE
  8
_0-0_
  6
CONTINUOUS
 62
    7
 10
34.258025811152493
 20
54.506017236248795
 11
34.778970344153208
 21
54.531540211188258
  0
LINE
  8
_0-0_
  6
CONTINUOUS
 62
    7
 10
34.778970344153208
 20
54.531540211188258
 11
35.299914877153924
 21
54.506017236248795
  0
LINE
  8
_0-0_
  6
CONTINUOUS
 62
    7
 10
35.299914877153924
 20
54.506017236248795
 11
35.805030774130273
 21
54.430223814108558
  0
LINE
  8
_0-0_
  6
CONTINUOUS
 62
    7
 10
35.805030774130273
 20
54.430223814108558
 11
36.278970344153208
 21
54.306462889546083
  0
LINE
  8
_0-0_
  6
CONTINUOUS
 62
    7
 10
36.278970344153208
 20
54.306462889546083
 11
36.707333173212874
 21
54.138494875628112
  0
LINE
  8
_0-0_
  6
CONTINUOUS
 62
    7
 10
36.707333173212874
 20
54.138494875628112
 11
37.077103673510123
 21
53.93142339546165
  0
LINE
  8
_0-0_
  6
CONTINUOUS
 62
    7
 10
37.077103673510123
 20
53.93142339546165
 11
37.377046555506467
 21
53.691540211188226
  0
LINE
  8
_0-0_
  6
CONTINUOUS
 62
    7
 10
37.377046555506467
 20
53.691540211188226
 11
37.598048206510953
 21
53.426134051975396
  0
LINE
  8
_0-0_
  6
CONTINUOUS
 62
    7
 10
37.598048206510953
 20
53.426134051975396
 11
37.733393603189825
 21
53.143269149668697
  0
LINE
  8
_0-0_
  6
CONTINUOUS
 62
    7
 10
37.733393603189825
 20
53.143269149668697
 11
37.778970344153208
 21
52.851540211188251
  0
ARC
  8
_0-0_
  6
CONTINUOUS
 62
    7
 10
34.778970344153208
 20
28.374119706872818
 40
2.9999999000000002
 50
180.00014999999999
 51
0
  0
CIRCLE
  8
_0-0_
  6
CONTINUOUS
 62
    7
 10
34.778970344153208
 20
63.374114706872945
 40
4.5
  0
CIRCLE
  8
_0-0_
  6
CONTINUOUS
 62
    7
 10
34.778970344153208
 20
17.374121706872813
 40
4.5
  0
CIRCLE
  8
_0-0_
  6
CONTINUOUS
 62
    7
 10
34.778970344153208
 20
63.374114706872945
 40
2.5999998
  0
CIRCLE
  8
_0-0_
  6
CONTINUOUS
 62
    7
 10
34.778970344153208
 20
17.374121706872813
 40
2.5999998
  0
ARC
  8
_0-0_
  6
CONTINUOUS
 62
    7
 10
34.778970344153208
 20
20.374125706872803
 40
10
 50
180
 51
359.99983999999995
  0
ARC
  8
_0-0_
  6
CONTINUOUS
 62
    7
 10
34.778970344153208
 20
60.374124706872919
 40
10
 50
0.0001525
 51
180
  0
ARC
  8
_0-0_
  6
CONTINUOUS
 62
    7
 10
103.34453196049719
 20
40.37410470687297
 40
9.0000000999999994
 50
123.74888699999998
 51
270
  0
ARC
  8
_0-0_
  6
CONTINUOUS
 62
    7
 10
103.34453196049719
 20
40.37410470687297
 40
15
 50
109.47117700000003
 51
270
  0
CIRCLE
  8
_0-0_
  6
CONTINUOUS
 62
    7
 10
213.7320900363917
 20
17.374118206872993
 40
4.5
  0
CIRCLE
  8
_0-0_
  6
CONTINUOUS
 62
    7
 10
213.7320900363917
 20
63.374118206872993
 40
4.5
  0
CIRCLE
  8
_0-0_
  6
CONTINUOUS
 62
    7
 10
213.7320900363917
 20
63.374118206872993
 40
2.6000000000000001
  0
ARC
  8
_0-0_
  6
CONTINUOUS
 62
    7
 10
282.7320900363917
 20
40.374118206872993
 40
9
 50
90
 51
270
  0
ARC
  8
_0-0_
  6
CONTINUOUS
 62
    7
 10
213.7320900363917
 20
52.374118206872993
 40
3
 50
0
 51
179.99999999999997
  0
ARC
  8
_0-0_
  6
CONTINUOUS
 62
    7
 10
213.7320900363917
 20
28.374118206872993
 40
3
 50
180
 51
0
  0
ARC
  8
_0-0_
  6
CONTINUOUS
 62
    7
 10
213.7320900363917
 20
20.374118206872993
 40
10
 50
180
 51
0
  0
ARC
  8
_0-0_
  6
CONTINUOUS
 62
    7
 10
282.7320900363917
 20
40.374118206872993
 40
15
 50
90
 51
270
  0
CIRCLE
  8
_0-0_
  6
CONTINUOUS
 62
    7
 10
213.7320900363917
 20
17.374118206872993
 40
2.6000000000000001
  0
ARC
  8
_0-0_
  6
CONTINUOUS
 62
    7
 10
213.7320900363917
 20
60.374118206872993
 40
10
 50
0
 51
179.99999999999997
  0
LINE
  8
_0-1_
  6
DASHED2
 62
  152
 10
292.7320900363917
 20
14.774118206872856
 11
290.7320900363917
 21
12.874118206872993
  0
LINE
  8
_0-1_
  6
CENTER1
 62
  152
 10
290.7320900363917
 20
17.374118206872993
 11
292.7320900363917
 21
17.374118206872993
  0
LINE
  8
_0-1_
  6
DASHED2
 62
  152
 10
292.7320900363917
 20
19.974118206872902
 11
290.7320900363917
 21
21.874118206872993
  0
LINE
  8
_0-1_
  6
CENTER1
 62
  152
 10
292.7320900363917
 20
40.374118206872993
 11
267.7320900363917
 21
40.374118206872993
  0
LINE
  8
_0-1_
  6
DASHED2
 62
  152
 10
290.7320900363917
 20
58.874118206872993
 11
292.7320900363917
 21
60.774118206873084
  0
LINE
  8
_0-1_
  6
CENTER1
 62
  152
 10
292.7320900363917
 20
63.374118206872993
 11
290.7320900363917
 21
63.374118206872993
  0
LINE
  8
_0-1_
  6
DASHED2
 62
  152
 10
290.7320900363917
 20
67.874118206872993
 11
292.7320900363917
 21
65.974118206872902
  0
LINE
  8
_0-1_
  6
DASHED2
 62
  152
 10
285.29566639683765
 20
118.39519589761977
 11
285.19566639683728
 21
118.39519589761977
  0
LINE
  8
_0-1_
  6
DASHED2
 62
  152
 10
285.19566639683728
 20
118.39519589761977
 11
285.19566639683728
 21
122.59519589761959
  0
LINE
  8
_0-1_
  6
DASHED2
 62
  152
 10
285.19566639683728
 20
122.59519589761959
 11
283.29566639683765
 21
124.49519589761968
  0
LINE
  8
_0-1_
  6
CENTER1
 62
  152
 10
277.79566639683765
 20
125.49519589761968
 11
277.79566639683765
 21
150.49519589761968
  0
LINE
  8
_0-1_
  6
DASHED2
 62
  152
 10
283.29566639683765
 20
151.49519589761968
 11
285.19566639683728
 21
153.39519589761977
  0
LINE
  8
_0-1_
  6
DASHED2
 62
  152
 10
285.19566639683728
 20
153.39519589761977
 11
285.19566639683728
 21
157.59519589761982
  0
LINE
  8
_0-1_
  6
DASHED2
 62
  152
 10
285.19566639683728
 20
157.59519589761982
 11
285.29566639683765
 21
157.59519589761982
  0
LINE
  8
_0-1_
  6
DASHED2
 62
  152
 10
285.19566639683728
 20
157.59519589761982
 11
283.29566639683765
 21
159.49519589761968
  0
LINE
  8
_0-1_
  6
CENTER1
 62
  152
 10
283.29566639683765
 20
155.49519589761968
 11
285.29566639683765
 21
155.49519589761968
  0
LINE
  8
_0-1_
  6
DASHED2
 62
  152
 10
285.29566639683765
 20
153.39519589761977
 11
285.19566639683728
 21
153.39519589761977
  0
LINE
  8
_0-1_
  6
CENTER1
 62
  152
 10
285.29566639683765
 20
137.99519589761968
 11
265.29566639683765
 21
137.99519589761968
  0
LINE
  8
_0-1_
  6
DASHED2
 62
  152
 10
285.19566639683728
 20
122.59519589761959
 11
285.29566639683765
 21
122.59519589761959
  0
LINE
  8
_0-1_
  6
CENTER1
 62
  152
 10
285.29566639683765
 20
120.49519589761968
 11
283.29566639683765
 21
120.49519589761968
  0
LINE
  8
_0-1_
  6
DASHED2
 62
  152
 10
285.19566639683728
 20
118.39519589761977
 11
283.29566639683765
 21
116.49519589761968
  0
LINE
  8
_0-1_
  6
CENTER1
 62
  152
 10
215.7301047804873
 20
155.49519589761968
 11
207.7301047804873
 21
155.49519589761968
  0
LINE
  8
_0-1_
  6
CENTER1
 62
  152
 10
207.7301047804873
 20
120.49519589761968
 11
215.7301047804873
 21
120.49519589761968
  0
LINE
  8
_0-1_
  6
CENTER1
 62
  152
 10
211.7301047804873
 20
115.49519589761968
 11
211.7301047804873
 21
160.49519589761968
  0
LINE
  8
_0-1_
  6
CENTER1
 62
  152
 10
204.2301047804873
 20
137.99519589761968
 11
219.2301047804873
 21
137.99519589761968
  0
LINE
  8
_0-1_
  6
CENTER1
 62
  152
 10
213.7320900363917
 20
70.374118206872993
 11
213.7320900363917
 21
10.374118206872993
  0
LINE
  8
_0-1_
  6
CENTER1
 62
  152
 10
209.2320900363917
 20
17.374118206872993
 11
218.2320900363917
 21
17.374118206872993
  0
LINE
  8
_0-1_
  6
CENTER1
 62
  152
 10
218.2320900363917
 20
63.374118206872993
 11
209.2320900363917
 21
63.374118206872993
  0
LINE
  8
_0-1_
  6
CENTER1
 62
  152
 10
223.7320900363917
 20
40.374118206872993
 11
203.7320900363917
 21
40.374118206872993
  0
LINE
  8
_0-1_
  6
CENTER1
 62
  152
 10
114.34455196049714
 20
40.374118206872993
 11
88.344531960503105
 21
40.374118206872993
  0
LINE
  8
_0-1_
  6
DASHED2
 62
  152
 10
112.34455196049714
 20
58.874114706872945
 11
114.34455196049714
 21
60.774114706872808
  0
LINE
  8
_0-1_
  6
DASHED2
 62
  152
 10
114.34455196049714
 20
65.974104706872879
 11
112.34455196049714
 21
67.87410470687297
  0
LINE
  8
_0-1_
  6
CENTER1
 62
  152
 10
109.15211345503633
 20
63.374114706872945
 11
117.5948423934334
 21
63.374114706872945
  0
LINE
  8
_0-1_
  6
DASHED2
 62
  152
 10
112.34455196049714
 20
21.874119706872818
 11
114.34455196049714
 21
19.974123706872945
  0
LINE
  8
_0-1_
  6
DASHED2
 62
  152
 10
114.34455196049714
 20
14.774120706872793
 11
112.34455196049714
 21
12.874124706872919
  0
LINE
  8
_0-1_
  6
CENTER1
 62
  152
 10
108.03878656206109
 20
17.374121706873041
 11
117.22373342910817
 21
17.374121706873041
  0
LINE
  8
_0-1_
  6
DASHED2
 62
  152
 10
108.34453196050333
 20
157.59519589761982
 11
108.2445319605032
 21
157.59519589761982
  0
LINE
  8
_0-1_
  6
DASHED2
 62
  152
 10
108.2445319605032
 20
157.59519589761982
 11
108.2445319605032
 21
153.39519589761977
  0
LINE
  8
_0-1_
  6
DASHED2
 62
  152
 10
108.2445319605032
 20
153.39519589761977
 11
106.34453196050333
 21
151.49519589761968
  0
LINE
  8
_0-1_
  6
DASHED2
 62
  152
 10
108.2445319605032
 20
153.39519589761977
 11
108.34453196050333
 21
153.39519589761977
  0
LINE
  8
_0-1_
  6
CENTER1
 62
  152
 10
108.34453196050333
 20
155.49519589761968
 11
106.34453196050333
 21
155.49519589761968
  0
LINE
  8
_0-1_
  6
DASHED2
 62
  152
 10
108.2445319605032
 20
157.59519589761982
 11
106.34453196050333
 21
159.49519589761968
  0
LINE
  8
_0-1_
  6
CENTER1
 62
  152
 10
88.344531960503332
 20
137.99519589761968
 11
108.34453196050333
 21
137.99519589761968
  0
LINE
  8
_0-1_
  6
DASHED2
 62
  152
 10
106.34453196050333
 20
124.49519589761968
 11
108.2445319605032
 21
122.59519589761959
  0
LINE
  8
_0-1_
  6
DASHED2
 62
  152
 10
108.2445319605032
 20
122.59519589761959
 11
108.2445319605032
 21
118.39519589761977
  0
LINE
  8
_0-1_
  6
DASHED2
 62
  152
 10
108.2445319605032
 20
118.39519589761977
 11
106.34453196050333
 21
116.49519589761968
  0
LINE
  8
_0-1_
  6
DASHED2
 62
  152
 10
108.2445319605032
 20
118.39519589761977
 11
108.34453196050333
 21
118.39519589761977
  0
LINE
  8
_0-1_
  6
CENTER1
 62
  152
 10
108.34453196050333
 20
120.49519589761968
 11
106.34453196050333
 21
120.49519589761968
  0
LINE
  8
_0-1_
  6
DASHED2
 62
  152
 10
108.2445319605032
 20
122.59519589761959
 11
108.34453196050333
 21
122.59519589761959
  0
LINE
  8
_0-1_
  6
CENTER1
 62
  152
 10
38.778970344152981
 20
155.49519589761968
 11
30.778970344152981
 21
155.49519589761968
  0
LINE
  8
_0-1_
  6
CENTER1
 62
  152
 10
30.778970344152981
 20
120.49519589761968
 11
38.778970344152981
 21
120.49519589761968
  0
LINE
  8
_0-1_
  6
CENTER1
 62
  152
 10
34.778970344152981
 20
115.49519589761968
 11
34.778970344152981
 21
160.49519589761968
  0
LINE
  8
_0-1_
  6
CENTER1
 62
  152
 10
27.278970344152981
 20
137.99519589761968
 11
42.278970344152981
 21
137.99519589761968
  0
LINE
  8
_0-1_
  6
CENTER1
 62
  152
 10
34.778970344152981
 20
70.374124706872919
 11
34.778970344152981
 21
10.374125706872803
  0
LINE
  8
_0-1_
  6
CENTER1
 62
  152
 10
28.794236523472705
 20
17.374121706873041
 11
40.763704164833484
 21
17.374121706873041
  0
LINE
  8
_0-1_
  6
CENTER1
 62
  152
 10
40.763704164833484
 20
63.374114706872945
 11
28.794236523472705
 21
63.374114706872945
  0
LINE
  8
_0-1_
  6
CENTER1
 62
  152
 10
44.697948714193103
 20
40.374118206872993
 11
24.778970344152981
 21
40.374118206872993
  0
TEXT
  8
_0-1_
 62
    7
 10
15.317246288098318
 20
163.68216765200555
 40
5
 41
1
 50
0
  1
OPD-5
  0
TEXT
  8
_0-1_
 62
    7
 10
196.97939489322687
 20
164.3248033522907
 40
5
 41
1
 50
0
  1
PD-5
  0
TEXT
  8
_0-1_
 62
    7
 10
199.21288088313088
 20
74.873584156248285
 40
5
 41
1
 50
0
  1
PD-6
  0
TEXT
  8
_0-1_
 62
    7
 10
16.383024151969607
 20
73.909630605820325
 40
5
 41
1
 50
0
  1
OPD-6
  0
ENDSEC
  0
EOF
