  0
SECTION
  2
HEADER
  9
$ACADVER
  1
AC1009
  9
$INSBASE
 10
0
 20
0
 30
0
  9
$EXTMIN
 10
0
 20
0
  9
$EXTMAX
 10
1189
 20
841
  9
$LIMMIN
 10
0
 20
0
  9
$LIMMAX
 10
1189
 20
841
  9
$LTSCALE
 40
1
  0
ENDSEC
  0
SECTION
  2
TABLES
  0
TABLE
  2
LTYPE
 70
     9
  0
LTYPE
  2
CONTINUOUS
 70
    64
  3
実線
 72
    65
 73
     0
 40
0.0
  0
LTYPE
  2
DASHED1
 70
    64
  3
--  --  --  --  --  --  --  --  
 72
    65
 73
     2
 40
2.5
 49
1.25
 49
-1.25
  0
LTYPE
  2
DASHED2
 70
    64
  3
----    ----    ----    ----    
 72
    65
 73
     2
 40
5.0
 49
2.5
 49
-2.5
  0
LTYPE
  2
DASHED3
 70
    64
  3
------  ------  ------  ------  
 72
    65
 73
     2
 40
5.0
 49
3.75
 49
-1.25
  0
LTYPE
  2
CENTER1
 70
    64
  3
----- - ----- - ----- - ----- - 
 72
    65
 73
     4
 40
10.0
 49
6.25
 49
-1.25
 49
1.25
 49
-1.25
  0
LTYPE
  2
CENTER2
 70
    64
  3
----------  --  ----------  --  
 72
    65
 73
     4
 40
20.0
 49
12.5
 49
-2.5
 49
2.5
 49
-2.5
  0
LTYPE
  2
PHANTOM1
 70
    64
  3
--- - - --- - - --- - - --- - - 
 72
    65
 73
     6
 40
10.0
 49
3.25
 49
-1.25
 49
1.25
 49
-1.25
 49
1.25
 49
-1.25
  0
LTYPE
  2
PHANTOM2
 70
    64
  3
--------  -  -  --------  -  -  
 72
    65
 73
     6
 40
20.0
 49
10.0
 49
-2.5
 49
1.25
 49
-2.5
 49
1.25
 49
-2.5
  0
LTYPE
  2
DOT
 70
    64
  3
-   -   -   -   -   -   -   -   
 72
    65
 73
     2
 40
2.5
 49
0.625
 49
-1.875
  0
LTYPE
  2
DUMMY
 70
    64
  3
ダミー
 72
    65
 73
     0
 40
0.0
  0
LTYPE
  2
RAND1
 70
    64
  3
ランダム線1
 72
    65
 73
     4
 40
10.0
 49
1.0
 49
-2.0
 49
3.0
 49
-4.0
  0
LTYPE
  2
RAND2
 70
    64
  3
ランダム線2
 72
    65
 73
     4
 40
14.0
 49
2.0
 49
-3.0
 49
4.0
 49
-5.0
  0
LTYPE
  2
RAND3
 70
    64
  3
ランダム線3
 72
    65
 73
     4
 40
18.0
 49
3.0
 49
-4.0
 49
5.0
 49
-6.0
  0
LTYPE
  2
RAND4
 70
    64
  3
ランダム線4
 72
    65
 73
     4
 40
22.0
 49
4.0
 49
-5.0
 49
6.0
 49
-7.0
  0
LTYPE
  2
RAND5
 70
    64
  3
ランダム線5
 72
    65
 73
     4
 40
26.0
 49
5.0
 49
-6.0
 49
7.0
 49
-8.0
  0
LTYPE
  2
LONG1
 70
    64
  3
----------  --  ----------  --  
 72
    65
 73
     4
 40
40.0
 49
32.5
 49
-2.5
 49
2.5
 49
-2.5
  0
LTYPE
  2
LONG2
 70
    64
  3
--------  -  -  --------  -  -  
 72
    65
 73
     6
 40
40.0
 49
30.0
 49
-2.5
 49
1.25
 49
-2.5
 49
1.25
 49
-2.5
  0
LTYPE
  2
LONG3
 70
    64
  3
+++++++++++++++..+++++++++++++++
 72
    65
 73
     2
 40
40.0
 49
37.5
 49
-2.5
  0
LTYPE
  2
LONG4
 70
    64
  3
+++++++++++++++..+++++++++++++++
 72
    65
 73
     2
 40
80.0
 49
75.0
 49
-5.0
  0
LTYPE
  2
LONG5
 70
    64
  3
----------  --  ----------  --  
 72
    65
 73
     4
 40
60.0
 49
37.5
 49
-7.5
 49
7.5
 49
-7.5
  0
LTYPE
  2
dashed
 70
   64
  3
-------   -------------   ------
 72
   65
 73
    2
 40
7.5
 49
6
 49
-1.5
  0
LTYPE
  2
dashed_spaced
 70
   64
  3
----        --------        ----
 72
   65
 73
    2
 40
12
 49
6
 49
-6
  0
LTYPE
  2
long_dashed_dotted
 70
   64
  3
------------- --- --------------
 72
   65
 73
    4
 40
15.25
 49
12
 49
-1.5
 49
0.25
 49
-1.5
  0
LTYPE
  2
long_dashed_double-dotted
 70
   64
  3
----------- --- --- ------------
 72
   65
 73
    6
 40
17
 49
12
 49
-1.5
 49
0.25
 49
-1.5
 49
0.25
 49
-1.5
  0
LTYPE
  2
long_dashed_triplicate-dotted
 70
   64
  3
--------- --- --- --- ----------
 72
   65
 73
    8
 40
18.75
 49
12
 49
-1.5
 49
0.25
 49
-1.5
 49
0.25
 49
-1.5
 49
0.25
 49
-1.5
  0
LTYPE
  2
dotted
 70
   64
  3
   -       -       -       -    
 72
   65
 73
    2
 40
1.75
 49
0.25
 49
-1.5
  0
LTYPE
  2
chain
 70
   64
  3
-------------- -- --------------
 72
   65
 73
    4
 40
18.5
 49
12
 49
-1.5
 49
3.5
 49
-1.5
  0
LTYPE
  2
chain_double_dash
 70
   64
  3
------------ -- -- -------------
 72
   65
 73
    6
 40
23.5
 49
12
 49
-1.5
 49
3.5
 49
-1.5
 49
3.5
 49
-1.5
  0
LTYPE
  2
dashed_dotted
 70
   64
  3
-----------     -     ----------
 72
   65
 73
    4
 40
9.25
 49
6
 49
-1.5
 49
0.25
 49
-1.5
  0
LTYPE
  2
double-dashed_dotted
 70
   64
  3
------   -----------   -   -----
 72
   65
 73
    6
 40
16.75
 49
6
 49
-1.5
 49
6
 49
-1.5
 49
0.25
 49
-1.5
  0
LTYPE
  2
dashed_double-dotted
 70
   64
  3
---------    -    -    ---------
 72
   65
 73
    6
 40
11
 49
6
 49
-1.5
 49
0.25
 49
-1.5
 49
0.25
 49
-1.5
  0
LTYPE
  2
double-dashed_double-dotted
 70
   64
  3
-----   ---------   -   -   ----
 72
   65
 73
    8
 40
18.5
 49
6
 49
-1.5
 49
6
 49
-1.5
 49
0.25
 49
-1.5
 49
0.25
 49
-1.5
  0
LTYPE
  2
dashed_triplicate-dotted
 70
   64
  3
-------    -    -    -    ------
 72
   65
 73
    8
 40
12.75
 49
6
 49
-1.5
 49
0.25
 49
-1.5
 49
0.25
 49
-1.5
 49
0.25
 49
-1.5
  0
LTYPE
  2
double-dashed_triplicate-dotted
 70
   64
  3
-----  ---------  -  -  -  -----
 72
   65
 73
   10
 40
20.25
 49
6
 49
-1.5
 49
6
 49
-1.5
 49
0.25
 49
-1.5
 49
0.25
 49
-1.5
 49
0.25
 49
-1.5
  0
LTYPE
  2
undefined
 70
   64
  3
--------------------------------
 72
   65
 73
    0
 40
0
  0
ENDTAB
  0
TABLE
  2
STYLE
  5
3
100
AcDbSymbolTable
 70
     1
  0
STYLE
  5
10
100
AcDbSymbolTableRecord
100
AcDbTextStyleTableRecord
  2
STANDARD
 70
     0
 40
0.0
 41
1.0
 50
0.0
 71
     0
 42
0.2
  3
txt
  4
bigfont.shx
  0
STYLE
  5
26
100
AcDbSymbolTableRecord
100
AcDbTextStyleTableRecord
  2
TATEGAKI
 70
    68
 40
0.0
 41
1.0
 50
0.0
 71
     0
 42
1.0
  3
txt
  4
bigfont.shx
  0
ENDTAB
  0
TABLE
  2
LAYER
 70
    5
  0
LAYER
  2
_0-0_
 70
   64
 62
    7
  6
CONTINUOUS
  0
LAYER
  2
_0-1_
 70
   64
 62
    7
  6
CONTINUOUS
  0
LAYER
  2
_0-8_
 70
   64
 62
    7
  6
CONTINUOUS
  0
LAYER
  2
_0-e_
 70
   64
 62
    7
  6
CONTINUOUS
  0
LAYER
  2
ADD_LINE
 70
   64
 62
    7
  6
CONTINUOUS
  0
ENDTAB
  0
ENDSEC
  0
SECTION
  2
BLOCKS
  0
ENDSEC
  0
SECTION
  2
ENTITIES
  0
LINE
  8
_0-0_
  6
CONTINUOUS
 62
    7
 10
135.15778179829204
 20
206.58499383982218
 11
95.157781798292035
 21
206.58499383982218
  0
LINE
  8
_0-0_
  6
CONTINUOUS
 62
    7
 10
124.71218609211132
 20
60.016451359353653
 11
124.71218609211132
 21
6.7321801191193913
  0
LINE
  8
_0-0_
  6
CONTINUOUS
 62
    7
 10
127.71218609211132
 20
6.7321801191193913
 11
127.71218609211132
 21
60.016451359353653
  0
LINE
  8
_0-0_
  6
CONTINUOUS
 62
    7
 10
127.71218609211132
 20
60.016451359353653
 11
7.7121860921113239
 21
60.016451359353653
  0
LINE
  8
_0-0_
  6
CONTINUOUS
 62
    7
 10
7.7121860921113239
 20
60.016451359353653
 11
7.7121860921113239
 21
6.7321801191193913
  0
LINE
  8
_0-0_
  6
CONTINUOUS
 62
    7
 10
7.7121860921113239
 20
6.7321801191193913
 11
127.71218609211132
 21
6.7321801191193913
  0
LINE
  8
_0-0_
  6
CONTINUOUS
 62
    7
 10
10.712186092111324
 20
6.7321801191193913
 11
10.712186092111324
 21
60.016451359353653
  0
LINE
  8
_0-0_
  6
CONTINUOUS
 62
    7
 10
87.712186092111267
 20
133.30072259958791
 11
87.712186092111267
 21
80.016451359353653
  0
LINE
  8
_0-0_
  6
CONTINUOUS
 62
    7
 10
87.712186092111267
 20
80.016451359353653
 11
7.7121860921113239
 21
80.016451359353653
  0
LINE
  8
_0-0_
  6
CONTINUOUS
 62
    7
 10
7.7121860921113239
 20
80.016451359353653
 11
7.7121860921113239
 21
133.30072259958791
  0
LINE
  8
_0-0_
  6
CONTINUOUS
 62
    7
 10
7.7121860921113239
 20
133.30072259958791
 11
87.712186092111267
 21
133.30072259958791
  0
LINE
  8
_0-0_
  6
CONTINUOUS
 62
    7
 10
84.712186092111267
 20
133.30072259958791
 11
84.712186092111267
 21
80.016451359353653
  0
LINE
  8
_0-0_
  6
CONTINUOUS
 62
    7
 10
10.712186092111324
 20
133.30072259958791
 11
10.712186092111324
 21
80.016451359353653
  0
LINE
  8
_0-0_
  6
CONTINUOUS
 62
    7
 10
64.712186092111097
 20
153.30072259958791
 11
64.712186092111097
 21
206.58499383982218
  0
LINE
  8
_0-0_
  6
CONTINUOUS
 62
    7
 10
67.712186092111097
 20
206.58499383982218
 11
7.7121860921113239
 21
206.58499383982218
  0
LINE
  8
_0-0_
  6
CONTINUOUS
 62
    7
 10
7.7121860921113239
 20
206.58499383982218
 11
7.7121860921113239
 21
153.30072259958791
  0
LINE
  8
_0-0_
  6
CONTINUOUS
 62
    7
 10
7.7121860921113239
 20
153.30072259958791
 11
67.712186092111097
 21
153.30072259958791
  0
LINE
  8
_0-0_
  6
CONTINUOUS
 62
    7
 10
67.712186092111097
 20
153.30072259958791
 11
67.712186092111097
 21
206.58499383982218
  0
LINE
  8
_0-0_
  6
CONTINUOUS
 62
    7
 10
10.712186092111324
 20
153.30072259958791
 11
10.712186092111324
 21
206.58499383982218
  0
LINE
  8
_0-0_
  6
CONTINUOUS
 62
    7
 10
98.157781798292035
 20
206.58499383982218
 11
98.157781798292035
 21
153.30072259958791
  0
LINE
  8
_0-0_
  6
CONTINUOUS
 62
    7
 10
95.157781798292035
 20
153.30072259958791
 11
135.15778179829204
 21
153.30072259958791
  0
LINE
  8
_0-0_
  6
CONTINUOUS
 62
    7
 10
135.15778179829204
 20
153.30072259958791
 11
135.15778179829204
 21
206.58499383982218
  0
LINE
  8
_0-0_
  6
CONTINUOUS
 62
    7
 10
95.157781798292035
 20
206.58499383982218
 11
95.157781798292035
 21
153.30072259958791
  0
LINE
  8
_0-0_
  6
CONTINUOUS
 62
    7
 10
132.15778179829204
 20
153.30072259958791
 11
132.15778179829204
 21
206.58499383982218
  0
TEXT
  8
_0-0_
 62
    7
 10
329.53697019741128
 20
210.14794289366839
 40
4.2999999999999998
 41
0.744186046511628
 50
0
  1
E40A-R
  0
TEXT
  8
_0-0_
 62
    7
 10
258.43378775566464
 20
210.78279273689827
 40
4.2999999999999998
 41
0.744186046511628
 50
0
  1
E40A-L
  0
LINE
  8
_0-0_
  6
CENTER1
 62
  152
 10
330.04842589107483
 20
173.30072259958746
 11
322.0484258910746
 21
173.30072259958746
  0
LINE
  8
_0-0_
  6
CENTER1
 62
  152
 10
326.04842589107483
 20
177.30072259958746
 11
326.04842589107483
 21
169.30072259958746
  0
ARC
  8
_0-0_
  6
CONTINUOUS
 62
    7
 10
341.41294351311302
 20
158.8953772434333
 40
0.6866147596063365
 50
19.118120314093797
 51
73.770896322251104
  0
ARC
  8
_0-0_
  6
CONTINUOUS
 62
    7
 10
341.14430862221224
 20
158.8953772434333
 40
0.6866147596063365
 50
106.22910367774887
 51
160.88187968590617
  0
ARC
  8
_0-0_
  6
CONTINUOUS
 62
    7
 10
341.27862606766274
 20
158.2719802667188
 40
1.3234835615556071
 50
75.730707223577113
 51
104.26929277642292
  0
ARC
  8
_0-0_
  6
CONTINUOUS
 62
    7
 10
340.39517575573694
 20
158.74610689973809
 40
1.1115687810639558
 50
359.28077569259483
 51
15.355258257845652
  0
ARC
  8
_0-0_
  6
CONTINUOUS
 62
    7
 10
341.27862606766274
 20
158.97637421008625
 40
0.1990355837046196
 50
18.780934832588589
 51
161.21906516741137
  0
ARC
  8
_0-0_
  6
CONTINUOUS
 62
    7
 10
342.16207637958854
 20
158.74610689973809
 40
1.1115687810639558
 50
164.64474174215434
 51
180.71922430740514
  0
ARC
  8
_0-0_
  6
CONTINUOUS
 62
    7
 10
342.16207637958854
 20
157.92827877386566
 40
1.1115687810639558
 50
179.28077569259483
 51
195.35525825784563
  0
ARC
  8
_0-0_
  6
CONTINUOUS
 62
    7
 10
340.39517575573694
 20
157.92827877386566
 40
1.1115687810639558
 50
344.64474174215428
 51
0.7192243074051079
  0
ARC
  8
_0-0_
  6
CONTINUOUS
 62
    7
 10
339.29145208965537
 20
158.33719283680233
 40
2.8787836133968563
 50
344.21600247589294
 51
15.783997524107017
  0
ARC
  8
_0-0_
  6
CONTINUOUS
 62
    7
 10
341.14430862221224
 20
157.77900843017045
 40
0.6866147596063365
 50
199.11812031409383
 51
253.77089632225113
  0
ARC
  8
_0-0_
  6
CONTINUOUS
 62
    7
 10
341.41294351311302
 20
157.77900843017045
 40
0.6866147596063365
 50
286.22910367774887
 51
340.88187968590614
  0
ARC
  8
_0-0_
  6
CONTINUOUS
 62
    7
 10
341.27862606766274
 20
158.40240540688495
 40
1.3234835615556071
 50
255.7307072235771
 51
284.2692927764229
  0
ARC
  8
_0-0_
  6
CONTINUOUS
 62
    7
 10
341.27862606766274
 20
157.69801146351796
 40
0.1990355837046196
 50
198.7809348325886
 51
341.21906516741143
  0
ARC
  8
_0-0_
  6
CONTINUOUS
 62
    7
 10
334.2068473720953
 20
158.33719283679687
 40
7.3112867397731955
 50
356.78919008197266
 51
3.2108099180273384
  0
ARC
  8
_0-0_
  6
CONTINUOUS
 62
    7
 10
348.35040476323019
 20
158.33719283679687
 40
7.3112867397731955
 50
176.78919008197266
 51
183.21080991802734
  0
ARC
  8
_0-0_
  6
CONTINUOUS
 62
    7
 10
343.26580004567012
 20
158.33719283680233
 40
2.8787836133968563
 50
164.21600247589294
 51
195.78399752410709
  0
ARC
  8
_0-0_
  6
CONTINUOUS
 62
    7
 10
338.99715786217683
 20
158.8953772434333
 40
0.6866147596063365
 50
106.22910367774887
 51
160.88187968590617
  0
ARC
  8
_0-0_
  6
CONTINUOUS
 62
    7
 10
339.13147530762734
 20
158.2719802667188
 40
1.3234835615556071
 50
75.730707223577113
 51
104.26929277642292
  0
ARC
  8
_0-0_
  6
CONTINUOUS
 62
    7
 10
337.14430132961996
 20
158.33719283680233
 40
2.8787836133968563
 50
9.8663227198208538
 51
15.783997524107031
  0
ARC
  8
_0-0_
  6
CONTINUOUS
 62
    7
 10
339.26579275307762
 20
158.8953772434333
 40
0.6866147596063365
 50
19.118120314093797
 51
73.770896322251104
  0
ARC
  8
_0-0_
  6
CONTINUOUS
 62
    7
 10
338.24802499570154
 20
158.74610689973809
 40
1.1115687810639558
 50
4.352810002800874
 51
15.355258257845636
  0
ARC
  8
_0-0_
  6
CONTINUOUS
 62
    7
 10
340.01492561955314
 20
158.74610689973809
 40
1.1115687810639558
 50
164.64474174215434
 51
180.71922430740514
  0
ARC
  8
_0-0_
  6
CONTINUOUS
 62
    7
 10
339.13147530762734
 20
158.97637421008625
 40
0.1990355837046196
 50
18.780934832588589
 51
161.21906516741137
  0
ARC
  8
_0-0_
  6
CONTINUOUS
 62
    7
 10
340.01492561955314
 20
157.92827877386566
 40
1.1115687810639558
 50
179.28077569259483
 51
195.35525825784563
  0
ARC
  8
_0-0_
  6
CONTINUOUS
 62
    7
 10
338.24802499570154
 20
157.92827877386566
 40
1.1115687810639558
 50
344.64474174215428
 51
1.0000756008749312
  0
ARC
  8
_0-0_
  6
CONTINUOUS
 62
    7
 10
339.13147530762734
 20
157.69801146351796
 40
0.1990355837046196
 50
198.7809348325886
 51
341.21906516741143
  0
ARC
  8
_0-0_
  6
CONTINUOUS
 62
    7
 10
337.14430132961996
 20
158.33719283680233
 40
2.8787836133968563
 50
344.21600247589294
 51
352.22375855280194
  0
ARC
  8
_0-0_
  6
CONTINUOUS
 62
    7
 10
339.26579275307762
 20
157.77900843017045
 40
0.6866147596063365
 50
286.22910367774887
 51
340.88187968590614
  0
ARC
  8
_0-0_
  6
CONTINUOUS
 62
    7
 10
339.13147530762734
 20
158.40240540688495
 40
1.3234835615556071
 50
255.7307072235771
 51
284.2692927764229
  0
ARC
  8
_0-0_
  6
CONTINUOUS
 62
    7
 10
338.99715786217683
 20
157.77900843017045
 40
0.6866147596063365
 50
199.11812031409383
 51
253.77089632225113
  0
ARC
  8
_0-0_
  6
CONTINUOUS
 62
    7
 10
346.20325400319479
 20
158.33719283679687
 40
7.3112867397731955
 50
176.78919008197266
 51
183.21080991802734
  0
ARC
  8
_0-0_
  6
CONTINUOUS
 62
    7
 10
341.11864928563472
 20
158.33719283680233
 40
2.8787836133968563
 50
164.21600247589294
 51
195.78399752410709
  0
ARC
  8
_0-0_
  6
CONTINUOUS
 62
    7
 10
326.04842589107483
 20
173.30072259958746
 40
2.7090001000000004
 50
257.52580999999998
 51
282.47417999999999
  0
ARC
  8
_0-0_
  6
CONTINUOUS
 62
    7
 10
326.04842589107483
 20
173.30072259958746
 40
2.7090001000000004
 50
167.52571999999995
 51
192.47426999999996
  0
ARC
  8
_0-0_
  6
CONTINUOUS
 62
    7
 10
326.04842589107483
 20
173.30072259958746
 40
2.7090001000000004
 50
77.525817000000018
 51
102.47418000000005
  0
ARC
  8
_0-0_
  6
CONTINUOUS
 62
    7
 10
326.04842589107483
 20
173.30072259958746
 40
2.7090001000000004
 50
347.52571999999998
 51
12.474273000000045
  0
ARC
  8
_0-0_
  6
CONTINUOUS
 62
    7
 10
324.59635589107501
 20
171.84867259958713
 40
0.8668801000000001
 50
0
 51
90
  0
ARC
  8
_0-0_
  6
CONTINUOUS
 62
    7
 10
327.500445891075
 20
171.84867259958713
 40
0.8668801000000001
 50
90
 51
180
  0
ARC
  8
_0-0_
  6
CONTINUOUS
 62
    7
 10
327.500445891075
 20
174.75271259958748
 40
0.8668801000000001
 50
180
 51
270
  0
ARC
  8
_0-0_
  6
CONTINUOUS
 62
    7
 10
324.59635589107501
 20
174.75271259958748
 40
0.8668801000000001
 50
270
 51
0
  0
CIRCLE
  8
_0-0_
  6
CONTINUOUS
 62
    7
 10
326.04842589107483
 20
173.30072259958746
 40
4.1989502999999999
  0
ARC
  8
_0-0_
  6
CONTINUOUS
 62
    7
 10
344.54842589107483
 20
196.24794475095172
 40
1.5
 50
0
 51
45.000000000000028
  0
ARC
  8
_0-0_
  6
CONTINUOUS
 62
    7
 10
334.3326971385365
 20
206.46367350349004
 40
1.5
 50
45.000000000000028
 51
134.99999999999997
  0
ARC
  8
_0-0_
  6
CONTINUOUS
 62
    7
 10
307.54842589107483
 20
179.67940225602791
 40
1.5
 50
135
 51
179.99999999999997
  0
ARC
  8
_0-0_
  6
CONTINUOUS
 62
    7
 10
342.64842589107474
 20
156.70072259958755
 40
0.4
 50
270
 51
0
  0
ARC
  8
_0-0_
  6
CONTINUOUS
 62
    7
 10
342.64842589107474
 20
159.90072259958737
 40
0.4
 50
0
 51
89.999999999999972
  0
ARC
  8
_0-0_
  6
CONTINUOUS
 62
    7
 10
333.44842589107492
 20
156.70072259958755
 40
0.4
 50
179.99999999999997
 51
270
  0
ARC
  8
_0-0_
  6
CONTINUOUS
 62
    7
 10
333.44842589107492
 20
159.90072259958737
 40
0.4
 50
89.999999999999929
 51
179.99999999999994
  0
ARC
  8
_0-0_
  6
CONTINUOUS
 62
    7
 10
344.54842589107483
 20
154.80072259958791
 40
1.5
 50
270
 51
0
  0
ARC
  8
_0-0_
  6
CONTINUOUS
 62
    7
 10
307.54842589107483
 20
154.80072259958791
 40
1.5
 50
180
 51
270
  0
LINE
  8
_0-0_
  6
CONTINUOUS
 62
    7
 10
339.99661174041233
 20
157.94767979048987
 11
339.3594244538578
 21
157.94767979048987
  0
LINE
  8
_0-0_
  6
CONTINUOUS
 62
    7
 10
339.35638756936618
 20
158.83047253453782
 11
339.98050834473059
 21
158.83047253453782
  0
LINE
  8
_0-0_
  6
CONTINUOUS
 62
    7
 10
337.79225712558735
 20
159.56212958236205
 11
336.07659937573357
 21
159.56212958236205
  0
LINE
  8
_0-0_
  6
CONTINUOUS
 62
    7
 10
337.79225712558735
 20
159.12538005826076
 11
337.79225712558735
 21
159.56212958236205
  0
LINE
  8
_0-0_
  6
CONTINUOUS
 62
    7
 10
336.68535947826189
 20
159.12538005826076
 11
337.79225712558735
 21
159.12538005826076
  0
LINE
  8
_0-0_
  6
CONTINUOUS
 62
    7
 10
336.68535947826189
 20
158.55724688153435
 11
336.68535947826189
 21
159.12538005826076
  0
LINE
  8
_0-0_
  6
CONTINUOUS
 62
    7
 10
337.68670388823483
 20
158.55724688153435
 11
336.68535947826189
 21
158.55724688153435
  0
LINE
  8
_0-0_
  6
CONTINUOUS
 62
    7
 10
337.68670388823483
 20
158.14726558795786
 11
337.68670388823483
 21
158.55724688153435
  0
LINE
  8
_0-0_
  6
CONTINUOUS
 62
    7
 10
336.68535947826189
 20
158.14726558795786
 11
337.68670388823483
 21
158.14726558795786
  0
LINE
  8
_0-0_
  6
CONTINUOUS
 62
    7
 10
336.68535947826189
 20
157.54900561537846
 11
336.68535947826189
 21
158.14726558795786
  0
LINE
  8
_0-0_
  6
CONTINUOUS
 62
    7
 10
337.79225712558735
 20
157.54900561537846
 11
336.68535947826189
 21
157.54900561537846
  0
LINE
  8
_0-0_
  6
CONTINUOUS
 62
    7
 10
337.79225712558735
 20
157.11225609124216
 11
337.79225712558735
 21
157.54900561537846
  0
LINE
  8
_0-0_
  6
CONTINUOUS
 62
    7
 10
336.07659937573357
 20
157.11225609124216
 11
337.79225712558735
 21
157.11225609124216
  0
LINE
  8
_0-0_
  6
CONTINUOUS
 62
    7
 10
336.07659937573357
 20
159.56212958236205
 11
336.07659937573357
 21
157.11225609124216
  0
LINE
  8
_0-0_
  6
CONTINUOUS
 62
    7
 10
334.50095911082298
 20
159.56212958236205
 11
333.89003247674299
 21
159.56212958236205
  0
LINE
  8
_0-0_
  6
CONTINUOUS
 62
    7
 10
334.50095911082298
 20
157.54900561537846
 11
334.50095911082298
 21
159.56212958236205
  0
LINE
  8
_0-0_
  6
CONTINUOUS
 62
    7
 10
335.60524380831993
 20
157.54900561537846
 11
334.50095911082298
 21
157.54900561537846
  0
LINE
  8
_0-0_
  6
CONTINUOUS
 62
    7
 10
335.60524380831993
 20
157.11225609124216
 11
335.60524380831993
 21
157.54900561537846
  0
LINE
  8
_0-0_
  6
CONTINUOUS
 62
    7
 10
333.89003247674299
 20
157.11225609124216
 11
335.60524380831993
 21
157.11225609124216
  0
LINE
  8
_0-0_
  6
CONTINUOUS
 62
    7
 10
333.89003247674299
 20
159.56212958236205
 11
333.89003247674299
 21
157.11225609124216
  0
LINE
  8
_0-0_
  6
CONTINUOUS
 62
    7
 10
333.04842589107483
 20
156.70072259958755
 11
333.04842589107483
 21
159.90072259958737
  0
LINE
  8
_0-0_
  6
CONTINUOUS
 62
    7
 10
342.64842589107474
 20
156.30072259958791
 11
333.44842589107492
 21
156.30072259958791
  0
LINE
  8
_0-0_
  6
CONTINUOUS
 62
    7
 10
343.04842589107483
 20
159.90072259958737
 11
343.04842589107483
 21
156.70072259958755
  0
LINE
  8
_0-0_
  6
CONTINUOUS
 62
    7
 10
333.44842589107492
 20
160.30072259958791
 11
342.64842589107474
 21
160.30072259958791
  0
LINE
  8
_0-0_
  6
CONTINUOUS
 62
    7
 10
328.69343589107501
 20
172.71554259958697
 11
327.500445891075
 21
172.71554259958697
  0
LINE
  8
_0-0_
  6
CONTINUOUS
 62
    7
 10
327.500445891075
 20
173.88584259958719
 11
328.69343589107501
 21
173.88584259958719
  0
LINE
  8
_0-0_
  6
CONTINUOUS
 62
    7
 10
326.63357589107517
 20
175.94578259958729
 11
326.63357589107517
 21
174.75271259958748
  0
LINE
  8
_0-0_
  6
CONTINUOUS
 62
    7
 10
325.46322589107484
 20
174.75271259958748
 11
325.46322589107484
 21
175.94578259958729
  0
LINE
  8
_0-0_
  6
CONTINUOUS
 62
    7
 10
323.4033158910749
 20
173.88584259958719
 11
324.59635589107501
 21
173.88584259958719
  0
LINE
  8
_0-0_
  6
CONTINUOUS
 62
    7
 10
324.59635589107501
 20
172.71554259958697
 11
323.4033158910749
 21
172.71554259958697
  0
LINE
  8
_0-0_
  6
CONTINUOUS
 62
    7
 10
325.46322589107484
 20
171.84867259958713
 11
325.46322589107484
 21
170.65566259958717
  0
LINE
  8
_0-0_
  6
CONTINUOUS
 62
    7
 10
326.63357589107517
 20
170.65566259958717
 11
326.63357589107517
 21
171.84867259958713
  0
LINE
  8
_0-0_
  6
CONTINUOUS
 62
    7
 10
345.60908606285437
 20
197.30860492273126
 11
335.3933573103165
 21
207.52433367527004
  0
LINE
  8
_0-0_
  6
CONTINUOUS
 62
    7
 10
346.04842589107483
 20
154.80072259958791
 11
346.04842589107483
 21
196.24794475095172
  0
LINE
  8
_0-0_
  6
CONTINUOUS
 62
    7
 10
307.54842589107483
 20
153.30072259958746
 11
344.54842589107483
 21
153.30072259958746
  0
LINE
  8
_0-0_
  6
CONTINUOUS
 62
    7
 10
306.04842589107483
 20
180.30072259958791
 11
306.04842589107483
 21
154.80072259958791
  0
LINE
  8
_0-0_
  6
CONTINUOUS
 62
    7
 10
333.27203696675673
 20
207.52433367527004
 11
306.48776571929483
 21
180.74006242780791
  0
LINE
  8
_0-0_
  6
CENTER1
 62
  152
 10
271.86460105136047
 20
177.30072259958791
 11
271.86460105136047
 21
169.30072259958791
  0
LINE
  8
_0-0_
  6
CENTER1
 62
  152
 10
267.86460105136047
 20
173.30072259958791
 11
275.86460105136047
 21
173.30072259958791
  0
ARC
  8
_0-0_
  6
CONTINUOUS
 62
    7
 10
263.22911867339798
 20
158.89537724343421
 40
0.6866147596063365
 50
19.118120314093773
 51
73.770896322251076
  0
ARC
  8
_0-0_
  6
CONTINUOUS
 62
    7
 10
262.96048378249742
 20
158.89537724343421
 40
0.6866147596063365
 50
106.22910367774885
 51
160.88187968590611
  0
ARC
  8
_0-0_
  6
CONTINUOUS
 62
    7
 10
263.09480122794793
 20
158.27198026671971
 40
1.3234835615556071
 50
75.730707223577085
 51
104.26929277642289
  0
ARC
  8
_0-0_
  6
CONTINUOUS
 62
    7
 10
262.2113509160219
 20
158.746106899739
 40
1.1115687810639556
 50
359.28077569259483
 51
15.355258257845652
  0
ARC
  8
_0-0_
  6
CONTINUOUS
 62
    7
 10
263.09480122794793
 20
158.9763742100867
 40
0.1990355837046196
 50
18.780934832588567
 51
161.21906516741137
  0
ARC
  8
_0-0_
  6
CONTINUOUS
 62
    7
 10
263.9782515398735
 20
158.746106899739
 40
1.1115687810639558
 50
164.64474174215434
 51
180.71922430740514
  0
ARC
  8
_0-0_
  6
CONTINUOUS
 62
    7
 10
263.9782515398735
 20
157.92827877386657
 40
1.1115687810639558
 50
179.28077569259483
 51
195.35525825784563
  0
ARC
  8
_0-0_
  6
CONTINUOUS
 62
    7
 10
262.2113509160219
 20
157.92827877386657
 40
1.1115687810639556
 50
344.64474174215434
 51
0.7192243074051015
  0
ARC
  8
_0-0_
  6
CONTINUOUS
 62
    7
 10
261.10762724994055
 20
158.33719283680233
 40
2.8787836133968563
 50
344.21600247589294
 51
15.783997524107017
  0
ARC
  8
_0-0_
  6
CONTINUOUS
 62
    7
 10
262.96048378249742
 20
157.77900843017136
 40
0.6866147596063365
 50
199.1181203140938
 51
253.7708963222511
  0
ARC
  8
_0-0_
  6
CONTINUOUS
 62
    7
 10
263.22911867339798
 20
157.77900843017136
 40
0.6866147596063365
 50
286.22910367774898
 51
340.88187968590626
  0
ARC
  8
_0-0_
  6
CONTINUOUS
 62
    7
 10
263.09480122794793
 20
158.40240540688586
 40
1.3234835615556071
 50
255.7307072235771
 51
284.2692927764229
  0
ARC
  8
_0-0_
  6
CONTINUOUS
 62
    7
 10
263.09480122794793
 20
157.69801146351796
 40
0.1990355837046196
 50
198.78093483258854
 51
341.21906516741137
  0
ARC
  8
_0-0_
  6
CONTINUOUS
 62
    7
 10
256.02302253238048
 20
158.33719283679778
 40
7.3112867397731964
 50
356.78919008197266
 51
3.2108099180273384
  0
ARC
  8
_0-0_
  6
CONTINUOUS
 62
    7
 10
270.16657992351537
 20
158.33719283679778
 40
7.3112867397731955
 50
176.78919008197263
 51
183.21080991802731
  0
ARC
  8
_0-0_
  6
CONTINUOUS
 62
    7
 10
265.0819752059553
 20
158.33719283680233
 40
2.8787836133968558
 50
164.21600247589291
 51
195.78399752410704
  0
ARC
  8
_0-0_
  6
CONTINUOUS
 62
    7
 10
260.81333302246202
 20
158.89537724343421
 40
0.6866147596063365
 50
106.22910367774885
 51
160.88187968590611
  0
ARC
  8
_0-0_
  6
CONTINUOUS
 62
    7
 10
260.94765046791252
 20
158.27198026671971
 40
1.3234835615556071
 50
75.730707223577085
 51
104.26929277642289
  0
ARC
  8
_0-0_
  6
CONTINUOUS
 62
    7
 10
258.96047648990515
 20
158.33719283680233
 40
2.8787836133968563
 50
9.866322719820829
 51
15.783997524107004
  0
ARC
  8
_0-0_
  6
CONTINUOUS
 62
    7
 10
261.08196791336258
 20
158.89537724343421
 40
0.6866147596063365
 50
19.118120314093773
 51
73.770896322251076
  0
ARC
  8
_0-0_
  6
CONTINUOUS
 62
    7
 10
260.0642001559865
 20
158.746106899739
 40
1.1115687810639556
 50
4.3528100028008483
 51
15.355258257845611
  0
ARC
  8
_0-0_
  6
CONTINUOUS
 62
    7
 10
261.8311007798381
 20
158.746106899739
 40
1.1115687810639558
 50
164.64474174215434
 51
180.71922430740514
  0
ARC
  8
_0-0_
  6
CONTINUOUS
 62
    7
 10
260.94765046791252
 20
158.9763742100867
 40
0.1990355837046196
 50
18.780934832588567
 51
161.21906516741137
  0
ARC
  8
_0-0_
  6
CONTINUOUS
 62
    7
 10
261.8311007798381
 20
157.92827877386657
 40
1.1115687810639558
 50
179.28077569259483
 51
195.35525825784563
  0
ARC
  8
_0-0_
  6
CONTINUOUS
 62
    7
 10
260.0642001559865
 20
157.92827877386657
 40
1.1115687810639556
 50
344.64474174215434
 51
1.000075600874925
  0
ARC
  8
_0-0_
  6
CONTINUOUS
 62
    7
 10
260.94765046791252
 20
157.69801146351796
 40
0.1990355837046196
 50
198.78093483258854
 51
341.21906516741137
  0
ARC
  8
_0-0_
  6
CONTINUOUS
 62
    7
 10
258.96047648990515
 20
158.33719283680233
 40
2.8787836133968563
 50
344.21600247589294
 51
352.22375855280194
  0
ARC
  8
_0-0_
  6
CONTINUOUS
 62
    7
 10
261.08196791336258
 20
157.77900843017136
 40
0.6866147596063365
 50
286.22910367774898
 51
340.88187968590626
  0
ARC
  8
_0-0_
  6
CONTINUOUS
 62
    7
 10
260.94765046791252
 20
158.40240540688586
 40
1.3234835615556071
 50
255.7307072235771
 51
284.2692927764229
  0
ARC
  8
_0-0_
  6
CONTINUOUS
 62
    7
 10
260.81333302246202
 20
157.77900843017136
 40
0.6866147596063365
 50
199.1181203140938
 51
253.7708963222511
  0
ARC
  8
_0-0_
  6
CONTINUOUS
 62
    7
 10
268.01942916347997
 20
158.33719283679778
 40
7.3112867397731955
 50
176.78919008197263
 51
183.21080991802731
  0
ARC
  8
_0-0_
  6
CONTINUOUS
 62
    7
 10
262.9348244459199
 20
158.33719283680233
 40
2.8787836133968558
 50
164.21600247589291
 51
195.78399752410704
  0
ARC
  8
_0-0_
  6
CONTINUOUS
 62
    7
 10
264.46460105135992
 20
156.700722599588
 40
0.4
 50
270
 51
0
  0
ARC
  8
_0-0_
  6
CONTINUOUS
 62
    7
 10
264.46460105135992
 20
159.90072259958828
 40
0.4
 50
0
 51
89.999999999999972
  0
ARC
  8
_0-0_
  6
CONTINUOUS
 62
    7
 10
255.2646010513601
 20
156.700722599588
 40
0.4
 50
179.99999999999994
 51
269.99999999999994
  0
ARC
  8
_0-0_
  6
CONTINUOUS
 62
    7
 10
255.2646010513601
 20
159.90072259958828
 40
0.4
 50
89.999999999999929
 51
179.99999999999994
  0
ARC
  8
_0-0_
  6
CONTINUOUS
 62
    7
 10
271.86460105136047
 20
173.30072259958791
 40
2.7090001000000004
 50
257.52582000000001
 51
282.47419000000002
  0
ARC
  8
_0-0_
  6
CONTINUOUS
 62
    7
 10
271.86460105136047
 20
173.30072259958791
 40
2.7090001000000004
 50
347.52573000000001
 51
12.474280000000038
  0
ARC
  8
_0-0_
  6
CONTINUOUS
 62
    7
 10
271.86460105136047
 20
173.30072259958791
 40
2.7090001000000004
 50
77.525819999999982
 51
102.47418299999998
  0
ARC
  8
_0-0_
  6
CONTINUOUS
 62
    7
 10
271.86460105136047
 20
173.30072259958791
 40
2.7090001000000004
 50
167.52572699999996
 51
192.47428000000002
  0
ARC
  8
_0-0_
  6
CONTINUOUS
 62
    7
 10
273.31667105136029
 20
171.84867259958804
 40
0.8668801000000001
 50
90
 51
180
  0
ARC
  8
_0-0_
  6
CONTINUOUS
 62
    7
 10
270.41258105136029
 20
171.84867259958804
 40
0.8668801000000001
 50
0
 51
90
  0
ARC
  8
_0-0_
  6
CONTINUOUS
 62
    7
 10
270.41258105136029
 20
174.75271259958794
 40
0.8668801000000001
 50
270
 51
0
  0
ARC
  8
_0-0_
  6
CONTINUOUS
 62
    7
 10
273.31667105136029
 20
174.75271259958794
 40
0.8668801000000001
 50
180
 51
270
  0
CIRCLE
  8
_0-0_
  6
CONTINUOUS
 62
    7
 10
271.86460105136047
 20
173.30072259958791
 40
4.1989502999999999
  0
ARC
  8
_0-0_
  6
CONTINUOUS
 62
    7
 10
253.36460105136001
 20
196.24794475095217
 40
1.4999999999999998
 50
134.99999999999994
 51
180
  0
ARC
  8
_0-0_
  6
CONTINUOUS
 62
    7
 10
263.58032980389834
 20
206.46367350349004
 40
1.4999999999999998
 50
45.000000000000014
 51
134.99999999999994
  0
ARC
  8
_0-0_
  6
CONTINUOUS
 62
    7
 10
290.36460105136047
 20
179.67940225602837
 40
1.4999999999999998
 50
0.0000000000000127
 51
44.999999999999979
  0
ARC
  8
_0-0_
  6
CONTINUOUS
 62
    7
 10
253.36460105136001
 20
154.80072259958791
 40
1.4999999999999998
 50
180
 51
270
  0
ARC
  8
_0-0_
  6
CONTINUOUS
 62
    7
 10
290.36460105136047
 20
154.80072259958791
 40
1.4999999999999998
 50
270
 51
0
  0
LINE
  8
_0-0_
  6
CONTINUOUS
 62
    7
 10
256.31713427110816
 20
157.54900561537846
 11
257.42141896860511
 21
157.54900561537846
  0
LINE
  8
_0-0_
  6
CONTINUOUS
 62
    7
 10
256.31713427110816
 20
159.56212958236296
 11
256.31713427110816
 21
157.54900561537846
  0
LINE
  8
_0-0_
  6
CONTINUOUS
 62
    7
 10
255.70620763702817
 20
159.56212958236296
 11
256.31713427110816
 21
159.56212958236296
  0
LINE
  8
_0-0_
  6
CONTINUOUS
 62
    7
 10
255.70620763702817
 20
157.11225609124261
 11
255.70620763702817
 21
159.56212958236296
  0
LINE
  8
_0-0_
  6
CONTINUOUS
 62
    7
 10
257.42141896860511
 20
157.11225609124261
 11
255.70620763702817
 21
157.11225609124261
  0
LINE
  8
_0-0_
  6
CONTINUOUS
 62
    7
 10
257.42141896860511
 20
157.54900561537846
 11
257.42141896860511
 21
157.11225609124261
  0
LINE
  8
_0-0_
  6
CONTINUOUS
 62
    7
 10
259.50287904852001
 20
158.55724688153435
 11
259.50287904852001
 21
158.14726558795877
  0
LINE
  8
_0-0_
  6
CONTINUOUS
 62
    7
 10
258.50153463854684
 20
158.55724688153435
 11
259.50287904852001
 21
158.55724688153435
  0
LINE
  8
_0-0_
  6
CONTINUOUS
 62
    7
 10
258.50153463854684
 20
159.12538005826076
 11
258.50153463854684
 21
158.55724688153435
  0
LINE
  8
_0-0_
  6
CONTINUOUS
 62
    7
 10
259.60843228587254
 20
159.12538005826076
 11
258.50153463854684
 21
159.12538005826076
  0
LINE
  8
_0-0_
  6
CONTINUOUS
 62
    7
 10
259.60843228587254
 20
159.56212958236296
 11
259.60843228587254
 21
159.12538005826076
  0
LINE
  8
_0-0_
  6
CONTINUOUS
 62
    7
 10
257.89277453601852
 20
159.56212958236296
 11
259.60843228587254
 21
159.56212958236296
  0
LINE
  8
_0-0_
  6
CONTINUOUS
 62
    7
 10
257.89277453601852
 20
157.11225609124261
 11
257.89277453601852
 21
159.56212958236296
  0
LINE
  8
_0-0_
  6
CONTINUOUS
 62
    7
 10
259.60843228587254
 20
157.11225609124261
 11
257.89277453601852
 21
157.11225609124261
  0
LINE
  8
_0-0_
  6
CONTINUOUS
 62
    7
 10
259.60843228587254
 20
157.54900561537846
 11
259.60843228587254
 21
157.11225609124261
  0
LINE
  8
_0-0_
  6
CONTINUOUS
 62
    7
 10
258.50153463854684
 20
157.54900561537846
 11
259.60843228587254
 21
157.54900561537846
  0
LINE
  8
_0-0_
  6
CONTINUOUS
 62
    7
 10
258.50153463854684
 20
158.14726558795877
 11
258.50153463854684
 21
157.54900561537846
  0
LINE
  8
_0-0_
  6
CONTINUOUS
 62
    7
 10
259.50287904852001
 20
158.14726558795877
 11
258.50153463854684
 21
158.14726558795877
  0
LINE
  8
_0-0_
  6
CONTINUOUS
 62
    7
 10
261.17559961414298
 20
157.94767979049078
 11
261.81278690069729
 21
157.94767979049078
  0
LINE
  8
_0-0_
  6
CONTINUOUS
 62
    7
 10
261.79668350501578
 20
158.83047253453873
 11
261.17256272965113
 21
158.83047253453873
  0
LINE
  8
_0-0_
  6
CONTINUOUS
 62
    7
 10
255.2646010513601
 20
160.30072259958791
 11
264.46460105135992
 21
160.30072259958791
  0
LINE
  8
_0-0_
  6
CONTINUOUS
 62
    7
 10
254.86460105136001
 20
156.700722599588
 11
254.86460105136001
 21
159.90072259958828
  0
LINE
  8
_0-0_
  6
CONTINUOUS
 62
    7
 10
264.46460105135992
 20
156.30072259958791
 11
255.2646010513601
 21
156.30072259958791
  0
LINE
  8
_0-0_
  6
CONTINUOUS
 62
    7
 10
264.86460105136001
 20
159.90072259958828
 11
264.86460105136001
 21
156.700722599588
  0
LINE
  8
_0-0_
  6
CONTINUOUS
 62
    7
 10
272.44980105136045
 20
175.94578259958774
 11
272.44980105136045
 21
174.75271259958794
  0
LINE
  8
_0-0_
  6
CONTINUOUS
 62
    7
 10
271.27945105136013
 20
174.75271259958794
 11
271.27945105136013
 21
175.94578259958774
  0
LINE
  8
_0-0_
  6
CONTINUOUS
 62
    7
 10
269.21959105136028
 20
173.88584259958765
 11
270.41258105136029
 21
173.88584259958765
  0
LINE
  8
_0-0_
  6
CONTINUOUS
 62
    7
 10
270.41258105136029
 20
172.71554259958788
 11
269.21959105136028
 21
172.71554259958788
  0
LINE
  8
_0-0_
  6
CONTINUOUS
 62
    7
 10
271.27945105136013
 20
170.65566259958808
 11
271.27945105136013
 21
171.84867259958804
  0
LINE
  8
_0-0_
  6
CONTINUOUS
 62
    7
 10
272.44980105136045
 20
171.84867259958804
 11
272.44980105136045
 21
170.65566259958808
  0
LINE
  8
_0-0_
  6
CONTINUOUS
 62
    7
 10
273.31667105136029
 20
172.71554259958788
 11
274.5097110513604
 21
172.71554259958788
  0
LINE
  8
_0-0_
  6
CONTINUOUS
 62
    7
 10
274.5097110513604
 20
173.88584259958765
 11
273.31667105136029
 21
173.88584259958765
  0
LINE
  8
_0-0_
  6
CONTINUOUS
 62
    7
 10
291.42526122314047
 20
180.74006242780791
 11
264.64098997567834
 21
207.52433367527004
  0
LINE
  8
_0-0_
  6
CONTINUOUS
 62
    7
 10
291.86460105136047
 20
154.80072259958791
 11
291.86460105136047
 21
180.30072259958791
  0
LINE
  8
_0-0_
  6
CONTINUOUS
 62
    7
 10
253.36460105136001
 20
153.30072259958791
 11
290.36460105136047
 21
153.30072259958791
  0
LINE
  8
_0-0_
  6
CONTINUOUS
 62
    7
 10
251.86460105136001
 20
196.24794475095217
 11
251.86460105136001
 21
154.80072259958791
  0
LINE
  8
_0-0_
  6
CONTINUOUS
 62
    7
 10
262.51966963211834
 20
207.52433367527004
 11
252.30394087958047
 21
197.30860492273217
  0
LINE
  8
_0-0_
  6
CONTINUOUS
 62
    7
 10
184.55693534421596
 20
197.20057574890569
 11
187.52175965098957
 21
194.23575144213231
  0
LINE
  8
_0-0_
  6
CONTINUOUS
 62
    7
 10
187.66820626039623
 20
193.88219805153898
 11
187.66820626039623
 21
192.17509127035231
  0
LINE
  8
_0-0_
  6
CONTINUOUS
 62
    7
 10
187.52175965098957
 20
191.82153787975921
 11
178.62226471437805
 21
182.92204294314746
  0
LINE
  8
_0-0_
  6
CONTINUOUS
 62
    7
 10
178.26871132378471
 20
182.77559633374079
 11
176.56160454259805
 21
182.77559633374079
  0
LINE
  8
_0-0_
  6
CONTINUOUS
 62
    7
 10
176.20805115200471
 20
182.92204294314746
 11
173.24322684523156
 21
185.88686724992084
  0
LINE
  8
_0-0_
  6
CONTINUOUS
 62
    7
 10
163.35880874708744
 20
153.30072259958791
 11
176.25880836561771
 21
153.30072259958791
  0
LINE
  8
_0-0_
  6
CONTINUOUS
 62
    7
 10
176.75880836561771
 20
153.80072259958791
 11
176.75880836561771
 21
155.58268976267385
  0
LINE
  8
_0-0_
  6
CONTINUOUS
 62
    7
 10
176.75880836561771
 20
155.70072412546682
 11
176.15880989149662
 21
156.90072107370901
  0
LINE
  8
_0-0_
  6
CONTINUOUS
 62
    7
 10
175.8497908027515
 20
156.90072107370901
 11
174.35880874708744
 21
156.90072107370901
  0
LINE
  8
_0-0_
  6
CONTINUOUS
 62
    7
 10
173.85880874708744
 20
157.40072107370901
 11
173.85880874708744
 21
161.59361505564237
  0
LINE
  8
_0-0_
  6
CONTINUOUS
 62
    7
 10
174.00525497511478
 20
161.94716882761503
 11
175.21236213768077
 21
163.15427599018102
  0
LINE
  8
_0-0_
  6
CONTINUOUS
 62
    7
 10
175.5659155282741
 20
163.30072259958769
 11
188.15170215681644
 21
163.30072259958769
  0
LINE
  8
_0-0_
  6
CONTINUOUS
 62
    7
 10
188.50525497511478
 20
163.15427637156034
 11
189.71236251906009
 21
161.94716882761503
  0
LINE
  8
_0-0_
  6
CONTINUOUS
 62
    7
 10
189.85880874708744
 20
161.59361505564237
 11
189.85880874708744
 21
157.40072107370901
  0
LINE
  8
_0-0_
  6
CONTINUOUS
 62
    7
 10
187.45880912855716
 20
153.30072259958791
 11
200.35880874708744
 21
153.30072259958791
  0
LINE
  8
_0-0_
  6
CONTINUOUS
 62
    7
 10
198.25881027296634
 20
167.29170674962205
 11
198.25881027296634
 21
165.80072259958769
  0
LINE
  8
_0-0_
  6
CONTINUOUS
 62
    7
 10
197.75881027296634
 20
165.30072259958769
 11
193.56591629103275
 21
165.30072259958769
  0
LINE
  8
_0-0_
  6
CONTINUOUS
 62
    7
 10
193.21236251906009
 20
165.44716882761503
 11
192.00525497511478
 21
166.65427637156034
  0
LINE
  8
_0-0_
  6
CONTINUOUS
 62
    7
 10
191.85880874708744
 20
167.007830143533
 11
191.85880874708744
 21
179.59361600931692
  0
LINE
  8
_0-0_
  6
CONTINUOUS
 62
    7
 10
192.00525497511478
 20
179.94716882761526
 11
193.21236251906009
 21
181.15427637156057
  0
LINE
  8
_0-0_
  6
CONTINUOUS
 62
    7
 10
198.25881027296634
 20
180.80072259958791
 11
198.25881027296634
 21
179.30973844955355
  0
LINE
  8
_0-0_
  6
CONTINUOUS
 62
    7
 10
198.53520347521624
 20
178.86252485405356
 11
199.35323547438236
 21
178.45350885447073
  0
LINE
  8
_0-0_
  6
CONTINUOUS
 62
    7
 10
199.5768415840015
 20
178.40072298105764
 11
201.35880874708744
 21
178.40072298105764
  0
LINE
  8
_0-0_
  6
CONTINUOUS
 62
    7
 10
199.35880874708744
 20
182.80072259958791
 11
183.74358505793759
 21
182.80072259958791
  0
LINE
  8
_0-0_
  6
CONTINUOUS
 62
    7
 10
183.03647827675093
 20
184.50782938077435
 11
189.52175965098957
 21
190.99311075501276
  0
LINE
  8
_0-0_
  6
CONTINUOUS
 62
    7
 10
189.66820626039623
 20
191.3466641456061
 11
189.66820626039623
 21
194.71062517628519
  0
LINE
  8
_0-0_
  6
CONTINUOUS
 62
    7
 10
189.52175965098957
 20
195.06417856687852
 11
184.83977913565002
 21
199.74615908221784
  0
LINE
  8
_0-0_
  6
CONTINUOUS
 62
    7
 10
184.83977913565002
 20
200.45326586340451
 11
189.78952660395578
 21
205.40301333171027
  0
LINE
  8
_0-0_
  6
CONTINUOUS
 62
    7
 10
190.49663338514245
 20
205.40301333171027
 11
199.71236213768077
 21
196.18728457917217
  0
LINE
  8
_0-0_
  6
CONTINUOUS
 62
    7
 10
199.85880874708744
 20
195.83373118857907
 11
199.85880874708744
 21
183.30072259958791
  0
LINE
  8
_0-0_
  6
CONTINUOUS
 62
    7
 10
189.75880874708753
 20
181.200722599588
 11
173.95880874708735
 21
181.200722599588
  0
LINE
  8
_0-0_
  6
CONTINUOUS
 62
    7
 10
173.45880874708735
 20
180.700722599588
 11
173.45880874708735
 21
177.75636964334802
  0
LINE
  8
_0-0_
  6
CONTINUOUS
 62
    7
 10
173.91249706262249
 20
177.25851903535198
 11
177.30512043155238
 21
176.94292616382353
  0
LINE
  8
_0-0_
  6
CONTINUOUS
 62
    7
 10
177.75880874708753
 20
176.44507555582749
 11
177.75880874708753
 21
170.15636964334811
  0
LINE
  8
_0-0_
  6
CONTINUOUS
 62
    7
 10
177.30512043155238
 20
169.65851903535207
 11
173.91249706262249
 21
169.34292616382385
  0
LINE
  8
_0-0_
  6
CONTINUOUS
 62
    7
 10
173.45880874708735
 20
168.8450755558278
 11
173.45880874708735
 21
165.40072259958782
  0
LINE
  8
_0-0_
  6
CONTINUOUS
 62
    7
 10
173.95880874708735
 20
164.90072259958782
 11
189.75880874708753
 21
164.90072259958782
  0
LINE
  8
_0-0_
  6
CONTINUOUS
 62
    7
 10
190.25880874708753
 20
165.40072259958782
 11
190.25880874708753
 21
168.8450755558278
  0
LINE
  8
_0-0_
  6
CONTINUOUS
 62
    7
 10
189.80512043155238
 20
169.34292616382385
 11
186.41249706262249
 21
169.65851903535207
  0
LINE
  8
_0-0_
  6
CONTINUOUS
 62
    7
 10
186.41249706262249
 20
176.94292616382353
 11
189.80512043155238
 21
177.25851903535175
  0
LINE
  8
_0-0_
  6
CONTINUOUS
 62
    7
 10
190.25880874708753
 20
177.75636964334802
 11
190.25880874708753
 21
180.700722599588
  0
LINE
  8
_0-0_
  6
CONTINUOUS
 62
    7
 10
170.69764351191895
 20
185.60402345848701
 11
171.71236213768077
 21
184.58930483272542
  0
LINE
  8
_0-0_
  6
CONTINUOUS
 62
    7
 10
171.85880874708744
 20
184.23575144213208
 11
171.85880874708744
 21
165.80072259958769
  0
LINE
  8
_0-0_
  6
CONTINUOUS
 62
    7
 10
171.35880874708744
 20
165.30072259958769
 11
164.35880874708744
 21
165.30072259958769
  0
LINE
  8
_0-0_
  6
CONTINUOUS
 62
    7
 10
164.0052553564941
 20
179.61874208424837
 11
169.99053673073274
 21
185.60402345848701
  0
LINE
  8
_0-0_
  6
CONTINUOUS
 62
    7
 10
169.68690483597527
 20
155.40867112385007
 11
170.91677915886464
 21
154.96103020027937
  0
LINE
  8
_0-0_
  6
CONTINUOUS
 62
    7
 10
172.19850506812361
 20
156.2427499235427
 11
171.75086323657331
 21
157.47263292704127
  0
LINE
  8
_0-0_
  6
CONTINUOUS
 62
    7
 10
171.75085943096008
 20
161.12882037437072
 11
172.19850506812361
 21
162.35870146162864
  0
LINE
  8
_0-0_
  6
CONTINUOUS
 62
    7
 10
170.91677915886464
 20
163.64042737088749
 11
169.68688257527208
 21
163.1927845310974
  0
LINE
  8
_0-0_
  6
CONTINUOUS
 62
    7
 10
166.03073024105095
 20
163.19278233394033
 11
164.8008276207787
 21
163.64042737088749
  0
LINE
  8
_0-0_
  6
CONTINUOUS
 62
    7
 10
163.51910789751571
 20
162.35870146162864
 11
163.96675551179703
 21
161.12881494235074
  0
LINE
  8
_0-0_
  6
CONTINUOUS
 62
    7
 10
163.9667517061788
 20
157.47263835910172
 11
163.51910789751571
 21
156.2427499235427
  0
LINE
  8
_0-0_
  6
CONTINUOUS
 62
    7
 10
164.8008276207787
 20
154.96103020027937
 11
166.03070798035003
 21
155.40867332103875
  0
LINE
  8
_0-0_
  6
CONTINUOUS
 62
    7
 10
191.51910397578774
 20
162.35869301136535
 11
191.96674681557749
 21
161.12879642777256
  0
LINE
  8
_0-0_
  6
CONTINUOUS
 62
    7
 10
192.80082988504671
 20
163.6404189206242
 11
194.03071097230429
 21
163.19277328346055
  0
LINE
  8
_0-0_
  6
CONTINUOUS
 62
    7
 10
197.68689841963385
 20
163.1927770890739
 11
198.91678142313265
 21
163.6404189206242
  0
LINE
  8
_0-0_
  6
CONTINUOUS
 62
    7
 10
200.19850114639564
 20
162.35869301136535
 11
199.75086022282483
 21
161.12881868847597
  0
LINE
  8
_0-0_
  6
CONTINUOUS
 62
    7
 10
199.7508580256366
 20
157.47262183285073
 11
200.19850114639564
 21
156.24274147327941
  0
LINE
  8
_0-0_
  6
CONTINUOUS
 62
    7
 10
198.91678142313265
 20
154.96102175001619
 11
197.68689298757351
 21
155.40866555867927
  0
LINE
  8
_0-0_
  6
CONTINUOUS
 62
    7
 10
194.03071640432461
 20
155.40866936429774
 11
192.80082988504671
 21
154.96102175001619
  0
LINE
  8
_0-0_
  6
CONTINUOUS
 62
    7
 10
191.51910397578774
 20
156.24274147327941
 11
191.96674901273479
 21
157.47264409355131
  0
ARC
  8
_0-0_
  6
CONTINUOUS
 62
    7
 10
189.35880874708744
 20
161.59361505564237
 40
0.5
 50
0.0000000000000127
 51
45.000000000000014
  0
ARC
  8
_0-0_
  6
CONTINUOUS
 62
    7
 10
188.15170215681644
 20
162.80072259958769
 40
0.5
 50
45.000000000000014
 51
90.000000000000014
  0
ARC
  8
_0-0_
  6
CONTINUOUS
 62
    7
 10
176.25880836561771
 20
153.80072259958791
 40
0.5
 50
270
 51
0
  0
ARC
  8
_0-0_
  6
CONTINUOUS
 62
    7
 10
187.45880912855716
 20
153.80072259958791
 40
0.5
 50
180.00001525878903
 51
270
  0
ARC
  8
_0-0_
  6
CONTINUOUS
 62
    7
 10
189.35880874708744
 20
157.40072107370901
 40
0.5
 50
270
 51
0
  0
ARC
  8
_0-0_
  6
CONTINUOUS
 62
    7
 10
174.35880874708744
 20
157.40072107370901
 40
0.5
 50
180
 51
270
  0
ARC
  8
_0-0_
  6
CONTINUOUS
 62
    7
 10
174.35880874708744
 20
161.59361505564237
 40
0.5
 50
135
 51
180
  0
ARC
  8
_0-0_
  6
CONTINUOUS
 62
    7
 10
163.35880874708744
 20
154.80072259958791
 40
1.5
 50
180
 51
270
  0
ARC
  8
_0-0_
  6
CONTINUOUS
 62
    7
 10
173.95880874708735
 20
177.75636964334802
 40
0.4999999999999999
 50
180.00000000000006
 51
264.68545433005431
  0
ARC
  8
_0-0_
  6
CONTINUOUS
 62
    7
 10
173.95880874708735
 20
168.8450755558278
 40
0.5
 50
95.314545669945716
 51
180
  0
ARC
  8
_0-0_
  6
CONTINUOUS
 62
    7
 10
173.95880874708735
 20
165.40072259958782
 40
0.5
 50
180
 51
270
  0
ARC
  8
_0-0_
  6
CONTINUOUS
 62
    7
 10
189.75880874708753
 20
165.40072259958782
 40
0.5
 50
270
 51
0
  0
ARC
  8
_0-0_
  6
CONTINUOUS
 62
    7
 10
189.75880874708753
 20
180.700722599588
 40
0.5
 50
0.0000000000000035
 51
90
  0
ARC
  8
_0-0_
  6
CONTINUOUS
 62
    7
 10
173.95880874708735
 20
180.700722599588
 40
0.4999999999999999
 50
90
 51
180
  0
ARC
  8
_0-0_
  6
CONTINUOUS
 62
    7
 10
170.34409012132608
 20
185.25047006789367
 40
0.5
 50
44.999999999999972
 51
134.99999999999955
  0
ARC
  8
_0-0_
  6
CONTINUOUS
 62
    7
 10
164.35880874708744
 20
179.26518869365526
 40
0.5
 50
134.99999999999972
 51
180
  0
ARC
  8
_0-0_
  6
CONTINUOUS
 62
    7
 10
171.35880874708744
 20
184.23575144213208
 40
0.5
 50
0
 51
45
  0
ARC
  8
_0-0_
  6
CONTINUOUS
 62
    7
 10
184.20338195362308
 20
196.84702235831236
 40
0.4999999999999999
 50
45
 51
135
  0
ARC
  8
_0-0_
  6
CONTINUOUS
 62
    7
 10
173.59678023582444
 20
186.24042064051417
 40
0.4999999999999999
 50
135
 51
225
  0
ARC
  8
_0-0_
  6
CONTINUOUS
 62
    7
 10
190.14307999454911
 20
206.46367350349004
 40
1.5
 50
45.000000000000028
 51
135.00000000000006
  0
ARC
  8
_0-0_
  6
CONTINUOUS
 62
    7
 10
190.14307999454911
 20
205.04945994111694
 40
0.5
 50
45.000000000000078
 51
135.0000000000002
  0
ARC
  8
_0-0_
  6
CONTINUOUS
 62
    7
 10
199.35880874708744
 20
195.83373118857884
 40
0.5
 50
0
 51
45.000000000000099
  0
ARC
  8
_0-0_
  6
CONTINUOUS
 62
    7
 10
185.19333252624335
 20
200.09971247281118
 40
0.5
 50
134.99999999999989
 51
224.99999999999949
  0
ARC
  8
_0-0_
  6
CONTINUOUS
 62
    7
 10
199.35880874708744
 20
183.30072259958791
 40
0.5
 50
270
 51
0
  0
ARC
  8
_0-0_
  6
CONTINUOUS
 62
    7
 10
183.74358505793759
 20
183.80072259958791
 40
1
 50
134.99999999999937
 51
270
  0
ARC
  8
_0-0_
  6
CONTINUOUS
 62
    7
 10
187.16820626039623
 20
193.88219805153898
 40
0.5
 50
359.99999999999937
 51
44.999999999998522
  0
ARC
  8
_0-0_
  6
CONTINUOUS
 62
    7
 10
187.16820626039623
 20
192.17509127035231
 40
0.5
 50
315
 51
359.99999999999932
  0
ARC
  8
_0-0_
  6
CONTINUOUS
 62
    7
 10
178.26871132378471
 20
183.27559633374079
 40
0.5
 50
270.00000000000045
 51
315
  0
ARC
  8
_0-0_
  6
CONTINUOUS
 62
    7
 10
176.56160454259805
 20
183.27559633374079
 40
0.5
 50
225.0000000000008
 51
270.0000000000004
  0
ARC
  8
_0-0_
  6
CONTINUOUS
 62
    7
 10
201.35880874708744
 20
167.70072221811796
 40
0.5
 50
0
 51
90
  0
ARC
  8
_0-0_
  6
CONTINUOUS
 62
    7
 10
199.5768415840015
 20
178.90072298105764
 40
0.5
 50
243.43495178222656
 51
270.00001525878906
  0
ARC
  8
_0-0_
  6
CONTINUOUS
 62
    7
 10
197.75881027296634
 20
180.80072259958791
 40
0.5
 50
0
 51
90
  0
ARC
  8
_0-0_
  6
CONTINUOUS
 62
    7
 10
197.75881027296634
 20
165.80072259958769
 40
0.5
 50
270
 51
0
  0
ARC
  8
_0-0_
  6
CONTINUOUS
 62
    7
 10
192.35880874708744
 20
179.59361600931692
 40
0.5
 50
135
 51
180
  0
ARC
  8
_0-0_
  6
CONTINUOUS
 62
    7
 10
192.35880874708744
 20
167.007830143533
 40
0.5
 50
180
 51
225
  0
ARC
  8
_0-0_
  6
CONTINUOUS
 62
    7
 10
193.56591629103275
 20
165.80072259958769
 40
0.5
 50
225
 51
270
  0
ARC
  8
_0-0_
  6
CONTINUOUS
 62
    7
 10
198.75881027296634
 20
179.30973844955355
 40
0.5
 50
180
 51
243.434948822922
  0
ARC
  8
_0-0_
  6
CONTINUOUS
 62
    7
 10
198.75881027296634
 20
167.29170674962205
 40
0.5
 50
116.56505117707799
 51
180
  0
ARC
  8
_0-0_
  6
CONTINUOUS
 62
    7
 10
201.35880874708744
 20
178.90072298105764
 40
0.5
 50
270.00001525878906
 51
0
  0
ARC
  8
_0-0_
  6
CONTINUOUS
 62
    7
 10
175.5659155282741
 20
162.80072259958769
 40
0.5
 50
89.999999999999943
 51
134.99999999999994
  0
ARC
  8
_0-0_
  6
CONTINUOUS
 62
    7
 10
189.16820626039623
 20
194.71062517628542
 40
0.5
 50
359.99999999999812
 51
45.000000000000256
  0
ARC
  8
_0-0_
  6
CONTINUOUS
 62
    7
 10
189.16820626039623
 20
191.3466641456061
 40
0.5
 50
314.99999999999949
 51
359.99999999999807
  0
ARC
  8
_0-0_
  6
CONTINUOUS
 62
    7
 10
189.75880874708753
 20
168.8450755558278
 40
0.5
 50
0.0000000000000572
 51
84.68545433005518
  0
ARC
  8
_0-0_
  6
CONTINUOUS
 62
    7
 10
189.75880874708753
 20
177.75636964334802
 40
0.5
 50
275.31454566994483
 51
359.99999999999994
  0
ARC
  8
_0-0_
  6
CONTINUOUS
 62
    7
 10
186.45880874708735
 20
176.44507555582749
 40
0.5
 50
95.314545669945105
 51
179.99999999999994
  0
ARC
  8
_0-0_
  6
CONTINUOUS
 62
    7
 10
186.45880874708735
 20
170.15636964334811
 40
0.5
 50
179.99999999999997
 51
264.68545433005482
  0
ARC
  8
_0-0_
  6
CONTINUOUS
 62
    7
 10
177.25880874708753
 20
176.44507555582749
 40
0.5
 50
0
 51
84.685454330054924
  0
ARC
  8
_0-0_
  6
CONTINUOUS
 62
    7
 10
177.25880874708753
 20
170.15636964334811
 40
0.5
 50
275.31454566994506
 51
0
  0
ARC
  8
_0-0_
  6
CONTINUOUS
 62
    7
 10
171.35880874708744
 20
165.80072259958769
 40
0.5
 50
270
 51
0
  0
ARC
  8
_0-0_
  6
CONTINUOUS
 62
    7
 10
164.35880874708744
 20
165.80072259958769
 40
0.5
 50
180
 51
270
  0
ARC
  8
_0-0_
  6
CONTINUOUS
 62
    7
 10
200.35880874708744
 20
154.80072259958791
 40
1.5
 50
270
 51
0
  0
ARC
  8
_0-0_
  6
CONTINUOUS
 62
    7
 10
192.45880000421346
 20
155.9007177784419
 40
1.0000000128874909
 50
159.9998779296875
 51
290.0001220703125
  0
ARC
  8
_0-0_
  6
CONTINUOUS
 62
    7
 10
192.45880000421346
 20
162.70072289219837
 40
1.0000000128874909
 50
69.9998779296875
 51
200.0001220703125
  0
ARC
  8
_0-0_
  6
CONTINUOUS
 62
    7
 10
199.25881130396544
 20
162.70072289219837
 40
1.0000000128874909
 50
339.9998779296875
 51
110.0001220703125
  0
ARC
  8
_0-0_
  6
CONTINUOUS
 62
    7
 10
199.25881130396544
 20
155.9007177784419
 40
1.0000000128874909
 50
249.9998779296875
 51
20.0001220703125
  0
ARC
  8
_0-0_
  6
CONTINUOUS
 62
    7
 10
195.85880874708744
 20
159.30072259958791
 40
4.2999999999999998
 50
244.84061688979307
 51
295.15926383485208
  0
ARC
  8
_0-0_
  6
CONTINUOUS
 62
    7
 10
195.85880874708744
 20
159.30072259958791
 40
4.2999999999999998
 50
334.8404928785335
 51
25.15943825776036
  0
ARC
  8
_0-0_
  6
CONTINUOUS
 62
    7
 10
195.85880874708744
 20
159.30072259958791
 40
4.2999999999999998
 50
64.840656198632189
 51
115.15946307620588
  0
ARC
  8
_0-0_
  6
CONTINUOUS
 62
    7
 10
195.85880874708744
 20
159.30072259958791
 40
4.2999999999999998
 50
154.8408894467035
 51
205.15917941685819
  0
ARC
  8
_0-0_
  6
CONTINUOUS
 62
    7
 10
164.45880392594142
 20
162.70073134246167
 40
1.0000000128874909
 50
69.9998779296875
 51
200.0001220703125
  0
ARC
  8
_0-0_
  6
CONTINUOUS
 62
    7
 10
171.25880903969789
 20
162.70073134246167
 40
1.0000000128874909
 50
339.9998779296875
 51
110.0001220703125
  0
ARC
  8
_0-0_
  6
CONTINUOUS
 62
    7
 10
171.25880903969789
 20
155.90072004270968
 40
1.0000000128874909
 50
249.9998779296875
 51
20.0001220703125
  0
ARC
  8
_0-0_
  6
CONTINUOUS
 62
    7
 10
164.45880392594142
 20
155.90072004270968
 40
1.0000000128874909
 50
159.9998779296875
 51
290.0001220703125
  0
ARC
  8
_0-0_
  6
CONTINUOUS
 62
    7
 10
167.85880874708744
 20
159.30072259958791
 40
4.2999999999999998
 50
154.84061688979307
 51
205.15926383485206
  0
ARC
  8
_0-0_
  6
CONTINUOUS
 62
    7
 10
167.85880874708744
 20
159.30072259958791
 40
4.2999999999999998
 50
244.84049287853352
 51
295.15943825776043
  0
ARC
  8
_0-0_
  6
CONTINUOUS
 62
    7
 10
167.85880874708744
 20
159.30072259958791
 40
4.2999999999999998
 50
334.84065619863219
 51
25.159463076205888
  0
ARC
  8
_0-0_
  6
CONTINUOUS
 62
    7
 10
167.85880874708744
 20
159.30072259958791
 40
4.2999999999999998
 50
64.8408894467035
 51
115.15917941685819
  0
LINE
  8
_0-0_
  6
CONTINUOUS
 62
    7
 10
182.79554355989842
 20
196.14629074577459
 11
183.84982856302952
 21
197.20057574890569
  0
LINE
  8
_0-0_
  6
CONTINUOUS
 62
    7
 10
174.00829423697871
 20
189.22301864957586
 11
172.74825290762044
 21
190.48305997893425
  0
ARC
  8
_0-0_
  6
CONTINUOUS
 62
    7
 10
173.65474084638538
 20
188.86946525898264
 40
0.5
 50
18.43494882290852
 51
45
  0
LINE
  8
_0-0_
  6
CONTINUOUS
 62
    7
 10
174.41830010679416
 20
188.15992630783984
 11
174.12908249541067
 21
189.02757914199088
  0
LINE
  8
_0-0_
  6
CONTINUOUS
 62
    7
 10
174.29751184836221
 20
187.64825903423827
 11
173.24322684523156
 21
186.59397403110751
  0
ARC
  8
_0-0_
  6
CONTINUOUS
 62
    7
 10
173.94395845776887
 20
188.00181242483148
 40
0.5
 50
315
 51
18.434948822906847
  0
LINE
  8
_0-0_
  6
CONTINUOUS
 62
    7
 10
181.22078394456082
 20
196.43550835715854
 11
179.96074261520255
 21
197.69554968651681
  0
ARC
  8
_0-0_
  6
CONTINUOUS
 62
    7
 10
181.57433733515415
 20
196.78906174775176
 40
0.5
 50
225
 51
251.56505117706791
  0
LINE
  8
_0-0_
  6
CONTINUOUS
 62
    7
 10
182.28387628629673
 20
196.02550248734275
 11
181.4162234521458
 21
196.31472009872658
  0
ARC
  8
_0-0_
  6
CONTINUOUS
 62
    7
 10
182.44199016930531
 20
196.49984413636793
 40
0.5
 50
251.56505117706618
 51
314.99999999999994
  0
LINE
  8
_0-0_
  6
CONTINUOUS
 62
    7
 10
201.41946891886698
 20
197.30860492273172
 11
191.20374016632911
 21
207.52433367526982
  0
ARC
  8
_0-0_
  6
CONTINUOUS
 62
    7
 10
200.35880874708744
 20
196.24794475095183
 40
1.5
 50
0
 51
45
  0
LINE
  8
_0-0_
  6
CONTINUOUS
 62
    7
 10
187.8678245970533
 20
156.90072107370901
 11
189.35880874708744
 21
156.90072107370901
  0
ARC
  8
_0-0_
  6
CONTINUOUS
 62
    7
 10
187.8678245970533
 20
156.40072107370901
 40
0.5
 50
90
 51
153.434948822922
  0
LINE
  8
_0-0_
  6
CONTINUOUS
 62
    7
 10
187.0115955330574
 20
155.80629693446684
 11
187.42061100155331
 21
156.624327871459
  0
LINE
  8
_0-0_
  6
CONTINUOUS
 62
    7
 10
186.95880912855716
 20
155.58269013671696
 11
186.95880912855716
 21
153.80072259958791
  0
ARC
  8
_0-0_
  6
CONTINUOUS
 62
    7
 10
187.45880912855716
 20
155.58269013671696
 40
0.5
 50
153.43494882292521
 51
180
  0
LINE
  8
_0-0_
  6
CONTINUOUS
 62
    7
 10
193.56591629103275
 20
181.30072259958791
 11
197.75881027296634
 21
181.30072259958791
  0
ARC
  8
_0-0_
  6
CONTINUOUS
 62
    7
 10
193.56591629103275
 20
180.80072259958791
 40
0.5
 50
89.999999999999986
 51
135
  0
LINE
  8
_0-0_
  6
CONTINUOUS
 62
    7
 10
199.57684120995816
 20
168.20072221811796
 11
201.35880874708744
 21
168.20072221811796
  0
LINE
  8
_0-0_
  6
CONTINUOUS
 62
    7
 10
199.35323441220851
 20
168.14793581361795
 11
198.53520347521624
 21
167.73892034512204
  0
ARC
  8
_0-0_
  6
CONTINUOUS
 62
    7
 10
199.57684120995816
 20
167.70072221811796
 40
0.5
 50
90
 51
116.56505117706669
  0
LINE
  8
_0-0_
  6
CONTINUOUS
 62
    7
 10
201.85880874708744
 20
196.24794475095183
 11
201.85880874708744
 21
178.90072298105764
  0
LINE
  8
_0-0_
  6
CONTINUOUS
 62
    7
 10
201.85880873949634
 20
167.70072221811796
 11
201.85880873949634
 21
154.80072259958791
  0
LINE
  8
_0-0_
  6
CONTINUOUS
 62
    7
 10
171.85880874708744
 20
178.30072259958769
 11
173.45880874708735
 21
178.30072259958769
  0
LINE
  8
_0-0_
  6
CONTINUOUS
 62
    7
 10
185.95880874708735
 20
175.8507225995877
 11
191.85880874708744
 21
175.8507225995877
  0
LINE
  8
_0-0_
  6
CONTINUOUS
 62
    7
 10
171.85880874708744
 20
168.30072259958769
 11
173.45880874708735
 21
168.30072259958769
  0
LINE
  8
_0-0_
  6
CONTINUOUS
 62
    7
 10
185.95880874708735
 20
170.75072259958768
 11
191.85880874708744
 21
170.75072259958768
  0
LINE
  8
_0-0_
  6
CONTINUOUS
 62
    7
 10
181.45880874708735
 20
174.5150083309033
 11
185.95880874708735
 21
174.5150083309033
  0
LINE
  8
_0-0_
  6
CONTINUOUS
 62
    7
 10
181.45880874708735
 20
175.12215113695646
 11
185.95880874708735
 21
175.12215113695646
  0
LINE
  8
_0-0_
  6
CONTINUOUS
 62
    7
 10
181.45880874708735
 20
176.33643698748136
 11
185.95880874708735
 21
176.33643698748136
  0
LINE
  8
_0-0_
  6
CONTINUOUS
 62
    7
 10
181.45880874708735
 20
176.94357967432524
 11
185.95880874708735
 21
176.94357967432524
  0
LINE
  8
_0-0_
  6
CONTINUOUS
 62
    7
 10
181.45880874708735
 20
175.72929406221891
 11
185.95880874708735
 21
175.72929406221891
  0
LINE
  8
_0-0_
  6
CONTINUOUS
 62
    7
 10
181.45880874708735
 20
169.05072259958769
 11
180.95880874708735
 21
169.55072259958769
  0
LINE
  8
_0-0_
  6
CONTINUOUS
 62
    7
 10
180.95880874708735
 20
177.05072259958769
 11
180.95880874708735
 21
169.55072259958769
  0
LINE
  8
_0-0_
  6
CONTINUOUS
 62
    7
 10
180.95880874708735
 20
177.05072259958769
 11
181.45880874708735
 21
177.55072259958769
  0
LINE
  8
_0-0_
  6
CONTINUOUS
 62
    7
 10
181.45880874708735
 20
169.05072259958769
 11
181.45880874708735
 21
177.55072259958769
  0
LINE
  8
_0-0_
  6
CONTINUOUS
 62
    7
 10
181.45880874708735
 20
177.55072259958769
 11
185.95880874708735
 21
177.55072259958769
  0
LINE
  8
_0-0_
  6
CONTINUOUS
 62
    7
 10
185.95880874708735
 20
169.05072259958769
 11
185.95880874708735
 21
177.55072259958769
  0
LINE
  8
_0-0_
  6
CONTINUOUS
 62
    7
 10
181.45880874708735
 20
169.05072259958769
 11
185.95880874708735
 21
169.05072259958769
  0
ARC
  8
_0-8_
  6
CONTINUOUS
 62
    7
 10
180.80715959881064
 20
173.30072259958769
 40
20
 50
161.33707511505744
 51
198.66292488494256
  0
LINE
  8
_0-8_
  6
CONTINUOUS
 62
    7
 10
162.35880874708744
 20
169.70072259958766
 11
166.85880874708744
 21
169.70072259958766
  0
LINE
  8
_0-8_
  6
CONTINUOUS
 62
    7
 10
162.35880874708744
 20
176.90072259958771
 11
166.85880874708744
 21
176.90072259958771
  0
LINE
  8
_0-8_
  6
CONTINUOUS
 62
    7
 10
162.35880874708744
 20
169.70072259958766
 11
162.35880874708744
 21
176.90072259958771
  0
LINE
  8
_0-8_
  6
CONTINUOUS
 62
    7
 10
166.85880874708744
 20
178.20072259958772
 11
166.51239858557369
 21
178.40072259958771
  0
LINE
  8
_0-8_
  6
CONTINUOUS
 62
    7
 10
166.85880874708744
 20
168.40072259958765
 11
166.51239858557369
 21
168.20072259958766
  0
LINE
  8
_0-8_
  6
CONTINUOUS
 62
    7
 10
166.85880874708744
 20
168.40072259958765
 11
166.85880874708744
 21
178.20072259958772
  0
LINE
  8
_0-8_
  6
CONTINUOUS
 62
    7
 10
161.85880874708744
 20
179.70072259958766
 11
161.85880874708744
 21
178.40072259958771
  0
LINE
  8
_0-8_
  6
CONTINUOUS
 62
    7
 10
161.85880874708744
 20
168.20072259958766
 11
161.85880874708744
 21
166.90072259958765
  0
LINE
  8
_0-0_
  6
CONTINUOUS
 62
    7
 10
210.95880874708735
 20
175.45072269495512
 11
210.95880874708735
 21
171.15072250422025
  0
LINE
  8
_0-0_
  6
CONTINUOUS
 62
    7
 10
210.60880836561762
 20
170.80072259958769
 11
210.95880874708735
 21
171.15072250422025
  0
LINE
  8
_0-0_
  6
CONTINUOUS
 62
    7
 10
210.95880874708735
 20
175.45072269495512
 11
210.60880836561762
 21
175.80072259958769
  0
LINE
  8
_0-0_
  6
CONTINUOUS
 62
  152
 10
210.60880836561762
 20
170.80072259958769
 11
210.60880836561762
 21
175.80072259958769
  0
LINE
  8
_0-1_
  6
CENTER1
 62
  152
 10
159.55786478080506
 20
173.30072259958769
 11
211.57072150425438
 21
173.30072259958769
  0
LINE
  8
_0-0_
  6
CONTINUOUS
 62
    7
 10
209.05880575834772
 20
169.80075830062827
 11
209.05883172048971
 21
176.80059309636812
  0
LINE
  8
_0-0_
  6
CONTINUOUS
 62
    7
 10
205.45880873949636
 20
178.38813113919917
 11
202.45882031328847
 21
178.12570045011347
  0
LINE
  8
_0-0_
  6
CONTINUOUS
 62
    7
 10
209.05883172048971
 20
176.80059309636812
 11
207.22356675532046
 21
179.97943807788801
  0
LINE
  8
_0-0_
  6
CONTINUOUS
 62
    7
 10
205.45880873949636
 20
180.30067657151307
 11
205.45880873949636
 21
178.38813113919917
  0
LINE
  8
_0-0_
  6
CONTINUOUS
 62
    7
 10
207.22356675532046
 20
179.97943807788801
 11
205.45880873949636
 21
180.30067657151307
  0
LINE
  8
_0-0_
  6
CONTINUOUS
 62
    7
 10
205.45880873949636
 20
168.21324079175423
 11
202.45878716571087
 21
168.4757447491001
  0
LINE
  8
_0-0_
  6
CONTINUOUS
 62
    7
 10
202.45882031328847
 20
178.12570045011347
 11
202.45878716571087
 21
168.4757447491001
  0
LINE
  8
_0-0_
  6
CONTINUOUS
 62
    7
 10
209.05883172048971
 20
169.80084024665842
 11
207.22356675532046
 21
166.62199526513854
  0
LINE
  8
_0-0_
  6
CONTINUOUS
 62
    7
 10
205.45880873949636
 20
166.30075677151348
 11
205.45880873949636
 21
168.21330220382737
  0
LINE
  8
_0-0_
  6
CONTINUOUS
 62
    7
 10
207.22356675532046
 20
166.62199526513854
 11
205.45880873949636
 21
166.30075677151348
  0
LINE
  8
_0-0_
  6
CONTINUOUS
 62
    7
 10
210.60880836561762
 20
170.80072259958769
 11
209.05880946718025
 21
170.80072259958769
  0
LINE
  8
_0-0_
  6
CONTINUOUS
 62
    7
 10
202.45879515200494
 20
170.80072259958769
 11
185.95880874708735
 21
170.80072259958769
  0
LINE
  8
_0-0_
  6
CONTINUOUS
 62
    7
 10
210.60880836561762
 20
175.80072259958769
 11
209.05882801200505
 21
175.80072259958769
  0
LINE
  8
_0-0_
  6
CONTINUOUS
 62
    7
 10
202.4588123269944
 20
175.80072259958769
 11
185.95880874708735
 21
175.80072259958769
  0
LINE
  8
_0-0_
  6
CONTINUOUS
 62
  152
 10
185.95880874708735
 20
175.45072269495512
 11
202.45881112474547
 21
175.45072269495512
  0
LINE
  8
_0-0_
  6
CONTINUOUS
 62
  152
 10
185.95880874708735
 20
171.15072250422025
 11
202.45879635425388
 21
171.15072250422025
  0
LINE
  8
_0-0_
  6
CONTINUOUS
 62
  152
 10
209.05882671386769
 20
175.45072269495512
 11
210.95880874708735
 21
175.45072269495512
  0
LINE
  8
_0-0_
  6
CONTINUOUS
 62
  152
 10
209.05881076531767
 20
171.15072250422025
 11
210.95880874708735
 21
171.15072250422025
  0
LINE
  8
_0-0_
  6
CONTINUOUS
 62
    7
 10
163.85880874708744
 20
178.30072259958769
 11
163.85880874708744
 21
179.26518869365526
  0
LINE
  8
_0-0_
  6
CONTINUOUS
 62
    7
 10
161.85880874708744
 20
178.30072259958769
 11
163.85880874708744
 21
178.30072259958769
  0
LINE
  8
_0-0_
  6
CONTINUOUS
 62
    7
 10
163.85880874708744
 20
165.80072259958769
 11
163.85880874708744
 21
168.30072259958769
  0
LINE
  8
_0-0_
  6
CONTINUOUS
 62
    7
 10
161.85880874708744
 20
168.30072259958769
 11
163.85880874708744
 21
168.30072259958769
  0
LINE
  8
_0-8_
  6
CONTINUOUS
 62
    7
 10
163.85880874708744
 20
178.30072259958769
 11
164.23201382784441
 21
178.40072259958771
  0
LINE
  8
_0-8_
  6
CONTINUOUS
 62
    7
 10
164.23201382784441
 20
178.40072259958771
 11
166.51239858557369
 21
178.40072259958771
  0
LINE
  8
_0-8_
  6
CONTINUOUS
 62
    7
 10
163.85880874708744
 20
168.30072259958769
 11
164.23201382784441
 21
168.20072259958766
  0
LINE
  8
_0-8_
  6
CONTINUOUS
 62
    7
 10
164.23201382784441
 20
168.20072259958766
 11
166.51239858557369
 21
168.20072259958766
  0
CIRCLE
  8
_0-0_
  6
CONTINUOUS
 62
    7
 10
107.71218609211132
 20
26.732180119119164
 40
3.2999999523162842
  0
CIRCLE
  8
_0-0_
  6
CONTINUOUS
 62
    7
 10
107.71218609211132
 20
26.732180119119164
 40
5.5
  0
CIRCLE
  8
_0-0_
  6
CONTINUOUS
 62
    7
 10
27.712186092111324
 20
26.732180119119164
 40
3.2999999523162842
  0
CIRCLE
  8
_0-0_
  6
CONTINUOUS
 62
    7
 10
27.712186092111324
 20
26.732180119119164
 40
5.5
  0
CIRCLE
  8
_0-0_
  6
CONTINUOUS
 62
    7
 10
67.712186092111324
 20
26.732180119119164
 40
3.2999999523162842
  0
CIRCLE
  8
_0-0_
  6
CONTINUOUS
 62
    7
 10
67.712186092111324
 20
26.732180119119164
 40
5.5
  0
CIRCLE
  8
_0-0_
  6
CONTINUOUS
 62
    7
 10
27.712186092111324
 20
100.01645135935343
 40
3.2999999523162842
  0
CIRCLE
  8
_0-0_
  6
CONTINUOUS
 62
    7
 10
27.712186092111324
 20
100.01645135935343
 40
5.5
  0
CIRCLE
  8
_0-0_
  6
CONTINUOUS
 62
    7
 10
67.712186092111324
 20
100.01645135935343
 40
3.2999999523162842
  0
CIRCLE
  8
_0-0_
  6
CONTINUOUS
 62
    7
 10
67.712186092111324
 20
100.01645135935343
 40
5.5
  0
CIRCLE
  8
_0-0_
  6
CONTINUOUS
 62
    7
 10
47.712186092111097
 20
173.30072259958769
 40
3.2999999523162842
  0
CIRCLE
  8
_0-0_
  6
CONTINUOUS
 62
    7
 10
47.712186092111097
 20
173.30072259958769
 40
5.5
  0
CIRCLE
  8
_0-0_
  6
CONTINUOUS
 62
    7
 10
27.712186092111324
 20
173.30072259958769
 40
3.2999999523162842
  0
CIRCLE
  8
_0-0_
  6
CONTINUOUS
 62
    7
 10
27.712186092111324
 20
173.30072259958769
 40
5.5
  0
CIRCLE
  8
_0-0_
  6
CONTINUOUS
 62
    7
 10
115.15778179829204
 20
173.30072259958769
 40
3.2999999523162842
  0
CIRCLE
  8
_0-0_
  6
CONTINUOUS
 62
    7
 10
115.15778179829204
 20
173.30072259958769
 40
5.5
  0
LINE
  8
_0-0_
  6
CONTINUOUS
 62
    7
 10
67.712186092111097
 20
180.30072259958769
 11
7.7121860921113239
 21
180.30072259958769
  0
LINE
  8
_0-0_
  6
CONTINUOUS
 62
    7
 10
135.15778179829204
 20
180.30072259958769
 11
95.157781798292035
 21
180.30072259958769
  0
LINE
  8
_0-0_
  6
CONTINUOUS
 62
    7
 10
7.7121860921113239
 20
107.01645135935343
 11
87.712186092111267
 21
107.01645135935343
  0
LINE
  8
_0-0_
  6
CONTINUOUS
 62
    7
 10
127.71218609211132
 20
33.732180119119164
 11
7.7121860921113239
 21
33.732180119119164
  0
LINE
  8
_0-0_
  6
CONTINUOUS
 62
    7
 10
161.85880874708744
 20
179.67940225602825
 11
161.85880874708744
 21
154.80072259958791
  0
ARC
  8
_0-0_
  6
CONTINUOUS
 62
    7
 10
163.35880874708744
 20
179.67940225602825
 40
1.5
 50
135
 51
180
  0
LINE
  8
_0-0_
  6
CONTINUOUS
 62
    7
 10
132.15778179829204
 20
198.04910307682218
 11
98.157781798292035
 21
198.04910307682218
  0
LINE
  8
_0-0_
  6
CONTINUOUS
 62
    7
 10
132.15778179829204
 20
190.83661336982217
 11
98.157781798292035
 21
190.83661336982217
  0
LINE
  8
_0-0_
  6
CONTINUOUS
 62
    7
 10
162.29814857530789
 20
180.74006242780814
 11
172.04114612643389
 21
190.48305997893436
  0
ARC
  8
_0-0_
  6
CONTINUOUS
 62
    7
 10
172.39469951702711
 20
190.12950658834114
 40
0.4999999999999999
 50
45.000015258789055
 51
135
  0
ARC
  8
_0-0_
  6
CONTINUOUS
 62
    7
 10
180.31429600579588
 20
198.04910307711015
 40
0.4999999999999999
 50
135
 51
225
  0
LINE
  8
_0-0_
  6
CONTINUOUS
 62
    7
 10
189.08241982276957
 20
207.52433367526982
 11
179.96074261520278
 21
198.40265646770325
  0
LINE
  8
_0-0_
  6
CONTINUOUS
 62
    7
 10
124.71218609211132
 20
51.480560596353655
 11
10.712186092111324
 21
51.480560596353655
  0
LINE
  8
_0-0_
  6
CONTINUOUS
 62
    7
 10
124.71218609211132
 20
44.26807088935368
 11
10.712186092111324
 21
44.26807088935368
  0
LINE
  8
_0-0_
  6
CONTINUOUS
 62
    7
 10
84.712186092111267
 20
117.55234212958794
 11
10.712186092111324
 21
117.55234212958794
  0
LINE
  8
_0-0_
  6
CONTINUOUS
 62
    7
 10
84.712186092111267
 20
124.76483183658792
 11
10.712186092111324
 21
124.76483183658792
  0
LINE
  8
_0-0_
  6
CONTINUOUS
 62
    7
 10
64.712186092111097
 20
190.83661336982217
 11
10.712186092111324
 21
190.83661336982217
  0
LINE
  8
_0-0_
  6
CONTINUOUS
 62
    7
 10
64.712186092111097
 20
198.04910307682218
 11
10.712186092111324
 21
198.04910307682218
  0
TEXT
  8
_0-e_
 62
    7
 10
7.7121860921113239
 20
209.58499383982218
 40
5
 41
1
 50
0
  1
PB4HA-L60
  0
TEXT
  8
_0-e_
 62
    7
 10
95.157781798292035
 20
209.58499383982218
 40
5
 41
1
 50
0
  1
PB4HA-L40
  0
TEXT
  8
_0-e_
 62
    7
 10
7.7121860921113239
 20
136.30072259958791
 40
5
 41
1
 50
0
  1
PB4HA-L80
  0
TEXT
  8
_0-e_
 62
    7
 10
7.7121860921113239
 20
63.016451359353653
 40
5
 41
1
 50
0
  1
PB4HA-L120
  0
LINE
  8
_0-0_
  6
CENTER1
 62
  152
 10
108.15778179829204
 20
173.30072259958769
 11
122.15778179829204
 21
173.30072259958769
  0
LINE
  8
_0-0_
  6
CENTER1
 62
  152
 10
115.15778179829204
 20
180.30072259958769
 11
115.15778179829204
 21
166.30072259958769
  0
LINE
  8
_0-0_
  6
CENTER1
 62
  152
 10
40.712186092111097
 20
173.30072259958769
 11
54.712186092111097
 21
173.30072259958769
  0
LINE
  8
_0-0_
  6
CENTER1
 62
  152
 10
47.712186092111097
 20
180.30072259958769
 11
47.712186092111097
 21
166.30072259958769
  0
LINE
  8
_0-0_
  6
CENTER1
 62
  152
 10
20.712186092111324
 20
173.30072259958769
 11
34.712186092111324
 21
173.30072259958769
  0
LINE
  8
_0-0_
  6
CENTER1
 62
  152
 10
27.712186092111324
 20
180.30072259958769
 11
27.712186092111324
 21
166.30072259958769
  0
LINE
  8
_0-0_
  6
CENTER1
 62
  152
 10
20.712186092111324
 20
100.01645135935343
 11
34.712186092111324
 21
100.01645135935343
  0
LINE
  8
_0-0_
  6
CENTER1
 62
  152
 10
27.712186092111324
 20
107.01645135935343
 11
27.712186092111324
 21
93.016451359353425
  0
LINE
  8
_0-0_
  6
CENTER1
 62
  152
 10
60.712186092111324
 20
100.01645135935343
 11
74.712186092111324
 21
100.01645135935343
  0
LINE
  8
_0-0_
  6
CENTER1
 62
  152
 10
67.712186092111324
 20
107.01645135935343
 11
67.712186092111324
 21
93.016451359353425
  0
LINE
  8
_0-0_
  6
CENTER1
 62
  152
 10
20.712186092111324
 20
26.732180119119164
 11
34.712186092111324
 21
26.732180119119164
  0
LINE
  8
_0-0_
  6
CENTER1
 62
  152
 10
27.712186092111324
 20
33.732180119119164
 11
27.712186092111324
 21
19.732180119119164
  0
LINE
  8
_0-0_
  6
CENTER1
 62
  152
 10
60.712186092111324
 20
26.732180119119164
 11
74.712186092111324
 21
26.732180119119164
  0
LINE
  8
_0-0_
  6
CENTER1
 62
  152
 10
67.712186092111324
 20
33.732180119119164
 11
67.712186092111324
 21
19.732180119119164
  0
LINE
  8
_0-0_
  6
CENTER1
 62
  152
 10
100.71218609211132
 20
26.732180119119164
 11
114.71218609211132
 21
26.732180119119164
  0
LINE
  8
_0-0_
  6
CENTER1
 62
  152
 10
107.71218609211132
 20
33.732180119119164
 11
107.71218609211132
 21
19.732180119119164
  0
TEXT
  8
_0-e_
 62
    7
 10
160.31837071527076
 20
209.58499383982218
 40
5
 41
1
 50
0
  1
PB4BA
  0
ENDSEC
  0
EOF
