  0
SECTION
  2
HEADER
  9
$ACADVER
  1
AC1009
  9
$INSBASE
 10
0
 20
0
 30
0
  9
$EXTMIN
 10
0
 20
0
  9
$EXTMAX
 10
1189
 20
841
  9
$LIMMIN
 10
0
 20
0
  9
$LIMMAX
 10
1189
 20
841
  9
$LTSCALE
 40
1
  0
ENDSEC
  0
SECTION
  2
TABLES
  0
TABLE
  2
LTYPE
 70
     9
  0
LTYPE
  2
CONTINUOUS
 70
    64
  3
実線
 72
    65
 73
     0
 40
0.0
  0
LTYPE
  2
DASHED1
 70
    64
  3
--  --  --  --  --  --  --  --  
 72
    65
 73
     2
 40
2.5
 49
1.25
 49
-1.25
  0
LTYPE
  2
DASHED2
 70
    64
  3
----    ----    ----    ----    
 72
    65
 73
     2
 40
5.0
 49
2.5
 49
-2.5
  0
LTYPE
  2
DASHED3
 70
    64
  3
------  ------  ------  ------  
 72
    65
 73
     2
 40
5.0
 49
3.75
 49
-1.25
  0
LTYPE
  2
CENTER1
 70
    64
  3
----- - ----- - ----- - ----- - 
 72
    65
 73
     4
 40
10.0
 49
6.25
 49
-1.25
 49
1.25
 49
-1.25
  0
LTYPE
  2
CENTER2
 70
    64
  3
----------  --  ----------  --  
 72
    65
 73
     4
 40
20.0
 49
12.5
 49
-2.5
 49
2.5
 49
-2.5
  0
LTYPE
  2
PHANTOM1
 70
    64
  3
--- - - --- - - --- - - --- - - 
 72
    65
 73
     6
 40
10.0
 49
3.25
 49
-1.25
 49
1.25
 49
-1.25
 49
1.25
 49
-1.25
  0
LTYPE
  2
PHANTOM2
 70
    64
  3
--------  -  -  --------  -  -  
 72
    65
 73
     6
 40
20.0
 49
10.0
 49
-2.5
 49
1.25
 49
-2.5
 49
1.25
 49
-2.5
  0
LTYPE
  2
DOT
 70
    64
  3
-   -   -   -   -   -   -   -   
 72
    65
 73
     2
 40
2.5
 49
0.625
 49
-1.875
  0
LTYPE
  2
DUMMY
 70
    64
  3
ダミー
 72
    65
 73
     0
 40
0.0
  0
LTYPE
  2
RAND1
 70
    64
  3
ランダム線1
 72
    65
 73
     4
 40
10.0
 49
1.0
 49
-2.0
 49
3.0
 49
-4.0
  0
LTYPE
  2
RAND2
 70
    64
  3
ランダム線2
 72
    65
 73
     4
 40
14.0
 49
2.0
 49
-3.0
 49
4.0
 49
-5.0
  0
LTYPE
  2
RAND3
 70
    64
  3
ランダム線3
 72
    65
 73
     4
 40
18.0
 49
3.0
 49
-4.0
 49
5.0
 49
-6.0
  0
LTYPE
  2
RAND4
 70
    64
  3
ランダム線4
 72
    65
 73
     4
 40
22.0
 49
4.0
 49
-5.0
 49
6.0
 49
-7.0
  0
LTYPE
  2
RAND5
 70
    64
  3
ランダム線5
 72
    65
 73
     4
 40
26.0
 49
5.0
 49
-6.0
 49
7.0
 49
-8.0
  0
LTYPE
  2
LONG1
 70
    64
  3
----------  --  ----------  --  
 72
    65
 73
     4
 40
40.0
 49
32.5
 49
-2.5
 49
2.5
 49
-2.5
  0
LTYPE
  2
LONG2
 70
    64
  3
--------  -  -  --------  -  -  
 72
    65
 73
     6
 40
40.0
 49
30.0
 49
-2.5
 49
1.25
 49
-2.5
 49
1.25
 49
-2.5
  0
LTYPE
  2
LONG3
 70
    64
  3
+++++++++++++++..+++++++++++++++
 72
    65
 73
     2
 40
40.0
 49
37.5
 49
-2.5
  0
LTYPE
  2
LONG4
 70
    64
  3
+++++++++++++++..+++++++++++++++
 72
    65
 73
     2
 40
80.0
 49
75.0
 49
-5.0
  0
LTYPE
  2
LONG5
 70
    64
  3
----------  --  ----------  --  
 72
    65
 73
     4
 40
60.0
 49
37.5
 49
-7.5
 49
7.5
 49
-7.5
  0
LTYPE
  2
dashed
 70
   64
  3
-------   -------------   ------
 72
   65
 73
    2
 40
7.5
 49
6
 49
-1.5
  0
LTYPE
  2
dashed_spaced
 70
   64
  3
----        --------        ----
 72
   65
 73
    2
 40
12
 49
6
 49
-6
  0
LTYPE
  2
long_dashed_dotted
 70
   64
  3
------------- --- --------------
 72
   65
 73
    4
 40
15.25
 49
12
 49
-1.5
 49
0.25
 49
-1.5
  0
LTYPE
  2
long_dashed_double-dotted
 70
   64
  3
----------- --- --- ------------
 72
   65
 73
    6
 40
17
 49
12
 49
-1.5
 49
0.25
 49
-1.5
 49
0.25
 49
-1.5
  0
LTYPE
  2
long_dashed_triplicate-dotted
 70
   64
  3
--------- --- --- --- ----------
 72
   65
 73
    8
 40
18.75
 49
12
 49
-1.5
 49
0.25
 49
-1.5
 49
0.25
 49
-1.5
 49
0.25
 49
-1.5
  0
LTYPE
  2
dotted
 70
   64
  3
   -       -       -       -    
 72
   65
 73
    2
 40
1.75
 49
0.25
 49
-1.5
  0
LTYPE
  2
chain
 70
   64
  3
-------------- -- --------------
 72
   65
 73
    4
 40
18.5
 49
12
 49
-1.5
 49
3.5
 49
-1.5
  0
LTYPE
  2
chain_double_dash
 70
   64
  3
------------ -- -- -------------
 72
   65
 73
    6
 40
23.5
 49
12
 49
-1.5
 49
3.5
 49
-1.5
 49
3.5
 49
-1.5
  0
LTYPE
  2
dashed_dotted
 70
   64
  3
-----------     -     ----------
 72
   65
 73
    4
 40
9.25
 49
6
 49
-1.5
 49
0.25
 49
-1.5
  0
LTYPE
  2
double-dashed_dotted
 70
   64
  3
------   -----------   -   -----
 72
   65
 73
    6
 40
16.75
 49
6
 49
-1.5
 49
6
 49
-1.5
 49
0.25
 49
-1.5
  0
LTYPE
  2
dashed_double-dotted
 70
   64
  3
---------    -    -    ---------
 72
   65
 73
    6
 40
11
 49
6
 49
-1.5
 49
0.25
 49
-1.5
 49
0.25
 49
-1.5
  0
LTYPE
  2
double-dashed_double-dotted
 70
   64
  3
-----   ---------   -   -   ----
 72
   65
 73
    8
 40
18.5
 49
6
 49
-1.5
 49
6
 49
-1.5
 49
0.25
 49
-1.5
 49
0.25
 49
-1.5
  0
LTYPE
  2
dashed_triplicate-dotted
 70
   64
  3
-------    -    -    -    ------
 72
   65
 73
    8
 40
12.75
 49
6
 49
-1.5
 49
0.25
 49
-1.5
 49
0.25
 49
-1.5
 49
0.25
 49
-1.5
  0
LTYPE
  2
double-dashed_triplicate-dotted
 70
   64
  3
-----  ---------  -  -  -  -----
 72
   65
 73
   10
 40
20.25
 49
6
 49
-1.5
 49
6
 49
-1.5
 49
0.25
 49
-1.5
 49
0.25
 49
-1.5
 49
0.25
 49
-1.5
  0
LTYPE
  2
undefined
 70
   64
  3
--------------------------------
 72
   65
 73
    0
 40
0
  0
ENDTAB
  0
TABLE
  2
STYLE
  5
3
100
AcDbSymbolTable
 70
     1
  0
STYLE
  5
10
100
AcDbSymbolTableRecord
100
AcDbTextStyleTableRecord
  2
STANDARD
 70
     0
 40
0.0
 41
1.0
 50
0.0
 71
     0
 42
0.2
  3
txt
  4
bigfont.shx
  0
STYLE
  5
26
100
AcDbSymbolTableRecord
100
AcDbTextStyleTableRecord
  2
TATEGAKI
 70
    68
 40
0.0
 41
1.0
 50
0.0
 71
     0
 42
1.0
  3
txt
  4
bigfont.shx
  0
ENDTAB
  0
TABLE
  2
LAYER
 70
    5
  0
LAYER
  2
_0-0_
 70
   64
 62
    7
  6
CONTINUOUS
  0
LAYER
  2
_0-1_
 70
   64
 62
    7
  6
CONTINUOUS
  0
LAYER
  2
_0-7_
 70
   64
 62
    7
  6
CONTINUOUS
  0
LAYER
  2
_f-f_ADD_LINE
 70
   64
 62
    7
  6
CONTINUOUS
  0
LAYER
  2
ADD_LINE
 70
   64
 62
    7
  6
CONTINUOUS
  0
ENDTAB
  0
ENDSEC
  0
SECTION
  2
BLOCKS
  0
ENDSEC
  0
SECTION
  2
ENTITIES
  0
LINE
  8
_0-0_
  6
CONTINUOUS
 62
    7
 10
6.5506765857428491
 20
61.259733873206017
 11
6.5506765857428491
 21
85.200853873205972
  0
LINE
  8
_0-0_
  6
CONTINUOUS
 62
    7
 10
6.8435665857425647
 20
85.907963873205802
 11
13.165896585742985
 21
92.230293873205767
  0
LINE
  8
_0-0_
  6
CONTINUOUS
 62
    7
 10
14.580116585743099
 20
92.230293873205767
 11
31.257786585742679
 21
75.55262387320596
  0
LINE
  8
_0-0_
  6
CONTINUOUS
 62
    7
 10
31.550676585742849
 20
74.845513873205903
 11
31.550676585742849
 21
61.259733873206017
  0
LINE
  8
_0-0_
  6
CONTINUOUS
 62
    7
 10
30.550676585742849
 20
60.259733873206017
 11
7.5506765857428491
 21
60.259733873206017
  0
LINE
  8
_0-0_
  6
CONTINUOUS
 62
    7
 10
16.802346585742953
 20
70.762343873206021
 11
17.816426585742875
 21
70.762343873206021
  0
LINE
  8
_0-0_
  6
CONTINUOUS
 62
    7
 10
17.816426585742875
 20
71.757093873205861
 11
16.802346585742953
 21
71.757093873205861
  0
LINE
  8
_0-0_
  6
CONTINUOUS
 62
    7
 10
18.553266585742904
 20
72.49393387320589
 11
18.553266585742904
 21
73.508043873205963
  0
LINE
  8
_0-0_
  6
CONTINUOUS
 62
    7
 10
19.548066585742845
 20
73.508043873205963
 11
19.548066585742845
 21
72.49393387320589
  0
LINE
  8
_0-0_
  6
CONTINUOUS
 62
    7
 10
20.284906585742874
 20
71.757093873205861
 11
21.298946585742897
 21
71.757093873205861
  0
LINE
  8
_0-0_
  6
CONTINUOUS
 62
    7
 10
21.298946585742897
 20
70.762343873206021
 11
20.284906585742874
 21
70.762343873206021
  0
LINE
  8
_0-0_
  6
CONTINUOUS
 62
    7
 10
19.548066585742845
 20
70.025503873205992
 11
19.548066585742845
 21
69.011443873206019
  0
LINE
  8
_0-0_
  6
CONTINUOUS
 62
    7
 10
18.553266585742904
 20
69.011443873206019
 11
18.553266585742904
 21
70.025503873205992
  0
ARC
  8
_0-0_
  6
CONTINUOUS
 62
    7
 10
7.5506765857428491
 20
85.200853873205972
 40
1
 50
135
 51
180
  0
ARC
  8
_0-0_
  6
CONTINUOUS
 62
    7
 10
13.873006585742814
 20
91.523183873205937
 40
1
 50
45
 51
135
  0
ARC
  8
_0-0_
  6
CONTINUOUS
 62
    7
 10
7.5506765857428491
 20
61.259733873206017
 40
1
 50
180
 51
270
  0
ARC
  8
_0-0_
  6
CONTINUOUS
 62
    7
 10
30.550676585742849
 20
61.259733873206017
 40
1
 50
270
 51
0
  0
ARC
  8
_0-0_
  6
CONTINUOUS
 62
    7
 10
30.550676585742849
 20
74.845513873205903
 40
1
 50
0
 51
45
  0
CIRCLE
  8
_0-0_
  6
CONTINUOUS
 62
    7
 10
19.050676585742849
 20
71.259733873206017
 40
3.5499999999999998
  0
ARC
  8
_0-0_
  6
CONTINUOUS
 62
    7
 10
17.816426585742875
 20
72.49393387320589
 40
0.7368479999999999
 50
270
 51
0
  0
ARC
  8
_0-0_
  6
CONTINUOUS
 62
    7
 10
20.284906585742874
 20
72.49393387320589
 40
0.7368479999999999
 50
180
 51
270
  0
ARC
  8
_0-0_
  6
CONTINUOUS
 62
    7
 10
20.284906585742874
 20
70.025503873205992
 40
0.7368479999999999
 50
90
 51
180
  0
ARC
  8
_0-0_
  6
CONTINUOUS
 62
    7
 10
17.816426585742875
 20
70.025503873205992
 40
0.7368479999999999
 50
0
 51
90
  0
ARC
  8
_0-0_
  6
CONTINUOUS
 62
    7
 10
19.050686585743051
 20
71.259743873205764
 40
2.3026499999999999
 50
347.52571999999998
 51
12.474273000000045
  0
ARC
  8
_0-0_
  6
CONTINUOUS
 62
    7
 10
19.050686585743051
 20
71.259743873205764
 40
2.3026499999999999
 50
77.525817000000018
 51
102.47418000000005
  0
ARC
  8
_0-0_
  6
CONTINUOUS
 62
    7
 10
19.050686585743051
 20
71.259743873205764
 40
2.3026499999999999
 50
167.52571999999995
 51
192.47426999999996
  0
ARC
  8
_0-0_
  6
CONTINUOUS
 62
    7
 10
19.050686585743051
 20
71.259743873205764
 40
2.3026499999999999
 50
257.52580999999998
 51
282.47417999999999
  0
LINE
  8
_0-1_
  6
CONTINUOUS
 62
    7
 10
175.72269849771845
 20
75.259733873206017
 11
200.72269849771845
 21
75.259733873206017
  0
LINE
  8
_0-0_
  6
CONTINUOUS
 62
    7
 10
175.72269849771845
 20
60.259733873206017
 11
200.72269849771845
 21
60.259733873206017
  0
LINE
  8
_0-0_
  6
CONTINUOUS
 62
    7
 10
200.72269849771845
 20
60.259733873206017
 11
200.72269849771845
 21
92.937403398352501
  0
LINE
  8
_0-0_
  6
CONTINUOUS
 62
    7
 10
200.72269849771845
 20
92.937403398352501
 11
175.72269849771845
 21
92.937403398352501
  0
LINE
  8
_0-0_
  6
CONTINUOUS
 62
    7
 10
175.72269849771845
 20
92.937403398352501
 11
175.72269849771845
 21
60.259733873206017
  0
LINE
  8
_0-0_
  6
CONTINUOUS
 62
    7
 10
178.72269849771845
 20
60.259733873206017
 11
178.72269849771845
 21
92.937403398352501
  0
LINE
  8
_0-0_
  6
CONTINUOUS
 62
    7
 10
178.72269849771845
 20
86.644152360754845
 11
197.72269849771845
 21
86.644152360754845
  0
LINE
  8
_0-0_
  6
CONTINUOUS
 62
    7
 10
197.72269849771845
 20
85.371361451941368
 11
178.72269849771845
 21
85.371361451941368
  0
LINE
  8
_0-0_
  6
CONTINUOUS
 62
    7
 10
178.72269849771845
 20
81.552984910803673
 11
197.72269849771845
 21
81.552984910803673
  0
LINE
  8
_0-0_
  6
CONTINUOUS
 62
    7
 10
197.72269849771845
 20
92.937403398352501
 11
197.72269849771845
 21
60.259733873206017
  0
CIRCLE
  8
_0-0_
  6
CONTINUOUS
 62
    7
 10
188.22269849771845
 20
70.759733873206017
 40
2.25
  0
CIRCLE
  8
_0-0_
  6
CONTINUOUS
 62
    7
 10
188.22269849771845
 20
70.759733873206017
 40
4
  0
LINE
  8
_0-1_
  6
CONTINUOUS
 62
    7
 10
149.22415181821935
 20
75.259733873206017
 11
109.22415181821935
 21
75.259733873206017
  0
LINE
  8
_0-0_
  6
CONTINUOUS
 62
    7
 10
109.22415181821935
 20
60.797996142059731
 11
149.22415181821935
 21
60.797996142059731
  0
LINE
  8
_0-0_
  6
CONTINUOUS
 62
    7
 10
149.22415181821935
 20
60.797996142059731
 11
149.22415181821935
 21
92.937403398352501
  0
LINE
  8
_0-0_
  6
CONTINUOUS
 62
    7
 10
149.22415181821935
 20
92.937403398352501
 11
109.22415181821935
 21
92.937403398352501
  0
LINE
  8
_0-0_
  6
CONTINUOUS
 62
    7
 10
109.22415181821935
 20
92.937403398352501
 11
109.22415181821935
 21
60.797996142059731
  0
LINE
  8
_0-0_
  6
CONTINUOUS
 62
    7
 10
112.22415181821935
 20
60.797996142059731
 11
112.22415181821935
 21
92.937403398352501
  0
LINE
  8
_0-0_
  6
CONTINUOUS
 62
    7
 10
112.22415181821935
 20
86.644152360754845
 11
146.22415181821935
 21
86.644152360754845
  0
LINE
  8
_0-0_
  6
CONTINUOUS
 62
    7
 10
146.22415181821935
 20
85.371361451941368
 11
112.22415181821935
 21
85.371361451941368
  0
LINE
  8
_0-0_
  6
CONTINUOUS
 62
    7
 10
112.22415181821935
 20
81.552984910803673
 11
146.22415181821935
 21
81.552984910803673
  0
LINE
  8
_0-0_
  6
CONTINUOUS
 62
    7
 10
146.22415181821935
 20
92.937403398352501
 11
146.22415181821935
 21
60.797996142059731
  0
CIRCLE
  8
_0-0_
  6
CONTINUOUS
 62
    7
 10
121.72415181821935
 20
71.297996142059731
 40
2.25
  0
CIRCLE
  8
_0-0_
  6
CONTINUOUS
 62
    7
 10
121.72415181821935
 20
71.297996142059731
 40
4
  0
CIRCLE
  8
_0-0_
  6
CONTINUOUS
 62
    7
 10
136.72415181821935
 20
71.297996142059731
 40
2.25
  0
CIRCLE
  8
_0-0_
  6
CONTINUOUS
 62
    7
 10
136.72415181821935
 20
71.297996142059731
 40
4
  0
LINE
  8
_0-0_
  6
CONTINUOUS
 62
    7
 10
86.474815094059466
 20
61.259733873206017
 11
86.474815094059466
 21
75.259733873206017
  0
LINE
  8
_0-0_
  6
CONTINUOUS
 62
    7
 10
86.474815094059466
 20
75.259733873206017
 11
80.181564056461866
 21
81.552984910803673
  0
LINE
  8
_0-0_
  6
CONTINUOUS
 62
    7
 10
80.181564056461866
 20
81.552984910803673
 11
78.90877314764839
 21
80.280192094641563
  0
LINE
  8
_0-0_
  6
CONTINUOUS
 62
    7
 10
78.90877314764839
 20
80.280192094641563
 11
82.044295990055616
 21
77.144669252234337
  0
LINE
  8
_0-0_
  6
CONTINUOUS
 62
    7
 10
81.674268447941358
 20
76.29138632376754
 11
76.504609787052686
 21
76.461815553503868
  0
LINE
  8
_0-0_
  6
CONTINUOUS
 62
    7
 10
76.504609787052686
 20
76.461815553503868
 11
69.645673477238233
 21
83.320751863318321
  0
LINE
  8
_0-0_
  6
CONTINUOUS
 62
    7
 10
69.645673477238233
 20
83.320751863318321
 11
69.645673477238233
 21
85.017807679968712
  0
LINE
  8
_0-0_
  6
CONTINUOUS
 62
    7
 10
69.645673477238233
 20
85.017807679968712
 11
71.908415519779737
 21
87.280548768835899
  0
LINE
  8
_0-0_
  6
CONTINUOUS
 62
    7
 10
71.908415519779737
 20
87.280548768835899
 11
73.817603790348585
 21
85.371361451941368
  0
LINE
  8
_0-0_
  6
CONTINUOUS
 62
    7
 10
73.817603790348585
 20
85.371361451941368
 11
75.090395652836378
 21
86.644152360754845
  0
LINE
  8
_0-0_
  6
CONTINUOUS
 62
    7
 10
75.090395652836378
 20
86.644152360754845
 11
69.504252159184034
 21
92.230295854407188
  0
LINE
  8
_0-0_
  6
CONTINUOUS
 62
    7
 10
68.067746508589607
 20
92.252665287735965
 11
61.474815094059522
 21
85.659733873205994
  0
LINE
  8
_0-0_
  6
CONTINUOUS
 62
    7
 10
62.474815094059522
 20
60.259733873206017
 11
70.374814712589796
 21
60.259733873206017
  0
LINE
  8
_0-0_
  6
CONTINUOUS
 62
    7
 10
70.374814712589796
 20
60.259733873206017
 11
70.374814712589796
 21
62.059733825522301
  0
LINE
  8
_0-0_
  6
CONTINUOUS
 62
    7
 10
70.374814712589796
 20
62.059733825522301
 11
65.940515720432813
 21
62.059733825522301
  0
LINE
  8
_0-0_
  6
CONTINUOUS
 62
    7
 10
65.598803722446974
 20
62.924744563895104
 11
69.374815189426954
 21
66.459733682471153
  0
LINE
  8
_0-0_
  6
CONTINUOUS
 62
    7
 10
69.374815189426954
 20
66.459733682471153
 11
78.574815475529249
 21
66.459733682471153
  0
LINE
  8
_0-0_
  6
CONTINUOUS
 62
    7
 10
78.574815475529249
 20
66.459733682471153
 11
82.350825988834913
 21
62.924744563895104
  0
LINE
  8
_0-0_
  6
CONTINUOUS
 62
    7
 10
82.00911494452339
 20
62.059733825522301
 11
77.574815475529249
 21
62.059733825522301
  0
LINE
  8
_0-0_
  6
CONTINUOUS
 62
    7
 10
77.574815475529249
 20
62.059733825522301
 11
77.574815475529249
 21
60.259733873206017
  0
LINE
  8
_0-0_
  6
CONTINUOUS
 62
    7
 10
77.574815475529249
 20
60.259733873206017
 11
85.474815094059466
 21
60.259733873206017
  0
LINE
  8
_0-0_
  6
CONTINUOUS
 62
    7
 10
85.074815475529192
 20
63.445376115637657
 11
85.074815475529192
 21
74.65973349173629
  0
LINE
  8
_0-0_
  6
CONTINUOUS
 62
    7
 10
85.074815475529192
 20
74.65973349173629
 11
80.274814331120069
 21
74.65973349173629
  0
LINE
  8
_0-0_
  6
CONTINUOUS
 62
    7
 10
80.274814331120069
 20
66.78599663336837
 11
84.233102523869093
 21
63.080365377264854
  0
LINE
  8
_0-0_
  6
CONTINUOUS
 62
    7
 10
78.874814712589796
 20
67.859733777838585
 11
69.074814998692091
 21
67.859733777838585
  0
LINE
  8
_0-0_
  6
CONTINUOUS
 62
    7
 10
69.074814998692091
 20
74.65973349173629
 11
78.874814712589796
 21
74.65973349173629
  0
LINE
  8
_0-0_
  6
CONTINUOUS
 62
    7
 10
67.674814903324659
 20
68.159733968573448
 11
64.139825784748609
 21
64.383722501593468
  0
LINE
  8
_0-0_
  6
CONTINUOUS
 62
    7
 10
67.674814903324659
 20
77.859734254675743
 11
66.474815094059522
 21
79.059733110266563
  0
LINE
  8
_0-0_
  6
CONTINUOUS
 62
    7
 10
66.474815094059522
 20
79.059733110266563
 11
63.274815046375807
 21
79.059733110266563
  0
LINE
  8
_0-0_
  6
CONTINUOUS
 62
    7
 10
63.274815046375807
 20
79.059733110266563
 11
63.274815046375807
 21
76.359734254675743
  0
LINE
  8
_0-0_
  6
CONTINUOUS
 62
    7
 10
62.874815070217664
 20
80.45973463614547
 11
62.874815070217664
 21
85.03517408927047
  0
LINE
  8
_0-0_
  6
CONTINUOUS
 62
    7
 10
62.874815070217664
 20
85.03517408927047
 11
68.797145568913038
 21
90.957504945593712
  0
LINE
  8
_0-0_
  6
CONTINUOUS
 62
    7
 10
68.797145568913038
 20
90.957504945593712
 11
71.201308929508741
 21
88.553341584998009
  0
LINE
  8
_0-0_
  6
CONTINUOUS
 62
    7
 10
71.201308929508741
 20
88.553341584998009
 11
68.24567385870796
 21
85.597706514197228
  0
LINE
  8
_0-0_
  6
CONTINUOUS
 62
    7
 10
68.24567385870796
 20
85.597706514197228
 11
68.24567385870796
 21
82.740853029089806
  0
LINE
  8
_0-0_
  6
CONTINUOUS
 62
    7
 10
68.24567385870796
 20
82.740853029089806
 11
74.073239051884229
 21
76.91328688223922
  0
LINE
  8
_0-0_
  6
CONTINUOUS
 62
    7
 10
73.719685279911573
 20
76.05973406394088
 11
69.074814998692091
 21
76.05973406394088
  0
LINE
  8
_0-0_
  6
CONTINUOUS
 62
    7
 10
69.074814998692091
 20
76.05973406394088
 11
69.074814998692091
 21
78.439633088904259
  0
LINE
  8
_0-0_
  6
CONTINUOUS
 62
    7
 10
69.074814998692091
 20
78.439633088904259
 11
67.054713928288038
 21
80.45973463614547
  0
LINE
  8
_0-0_
  6
CONTINUOUS
 62
    7
 10
67.054713928288038
 20
80.45973463614547
 11
62.874815070217664
 21
80.45973463614547
  0
ARC
  8
_0-0_
  6
CONTINUOUS
 62
    7
 10
84.574815475529249
 20
63.445376115637657
 40
0.5
 50
226.88818359374997
 51
0
  0
ARC
  8
_0-0_
  6
CONTINUOUS
 62
    7
 10
81.69074221808296
 20
76.791115480261681
 40
0.4999999999999997
 50
268.11180114746094
 51
45
  0
ARC
  8
_0-0_
  6
CONTINUOUS
 62
    7
 10
85.474815094059466
 20
61.259733873206017
 40
1
 50
270
 51
0
  0
ARC
  8
_0-0_
  6
CONTINUOUS
 62
    7
 10
62.474815094059522
 20
61.259733873206017
 40
1
 50
180
 51
270
  0
ARC
  8
_0-0_
  6
CONTINUOUS
 62
    7
 10
68.797145568913038
 20
91.523190217810509
 40
1
 50
44.999984741210959
 51
134.99998474121097
  0
ARC
  8
_0-0_
  6
CONTINUOUS
 62
    7
 10
63.774815046375807
 20
64.725434499579308
 40
0.4999999999999997
 50
180
 51
316.88818359374994
  0
ARC
  8
_0-0_
  6
CONTINUOUS
 62
    7
 10
65.940515720432813
 20
62.559733825522301
 40
0.5
 50
133.11180114746099
 51
270.00000000000006
  0
ARC
  8
_0-0_
  6
CONTINUOUS
 62
    7
 10
82.00911494452339
 20
62.559733825522301
 40
0.5
 50
270
 51
46.888183593750021
  0
ARC
  8
_0-0_
  6
CONTINUOUS
 62
    7
 10
73.719685279911573
 20
76.559733110266563
 40
0.5
 50
270
 51
44.99998474121093
  0
LINE
  8
_0-0_
  6
DASHED2
 62
    7
 10
80.302867735864083
 20
66.759733873206017
 11
80.074814331120024
 21
66.759733873206017
  0
LINE
  8
_0-0_
  6
CONTINUOUS
 62
    7
 10
80.074814331120024
 20
74.759733873206017
 11
86.474815094059466
 21
74.759733873206017
  0
LINE
  8
_0-0_
  6
CONTINUOUS
 62
    7
 10
80.074814331120024
 20
66.759733873206017
 11
80.074814331120024
 21
74.759733873206017
  0
LINE
  8
_0-0_
  6
CONTINUOUS
 62
    7
 10
78.874814712589796
 20
73.009733873206017
 11
80.074814331120024
 21
73.009733873206017
  0
LINE
  8
_0-0_
  6
CONTINUOUS
 62
    7
 10
80.074814331120024
 20
68.509733873206017
 11
78.874814712589796
 21
68.509733873206017
  0
LINE
  8
_0-0_
  6
CONTINUOUS
 62
    7
 10
85.074815475529192
 20
66.759733873206017
 11
86.474815094059466
 21
66.759733873206017
  0
LINE
  8
_0-0_
  6
CONTINUOUS
 62
    7
 10
69.074814998692091
 20
68.509733873206017
 11
67.674814903324659
 21
68.509733873206017
  0
LINE
  8
_0-0_
  6
CONTINUOUS
 62
    7
 10
67.674814903324659
 20
73.009733873206017
 11
69.074814998692091
 21
73.009733873206017
  0
LINE
  8
_0-0_
  6
CONTINUOUS
 62
    7
 10
63.274815046375807
 20
68.509733873236257
 11
61.474815094059522
 21
68.509733873236257
  0
LINE
  8
_0-0_
  6
CONTINUOUS
 62
    7
 10
83.574814331120024
 20
71.926400500136253
 11
80.074814331120024
 21
71.926400500136253
  0
LINE
  8
_0-0_
  6
CONTINUOUS
 62
    7
 10
83.574814331120024
 20
72.509733873206017
 11
80.074814331120024
 21
72.509733873206017
  0
LINE
  8
_0-0_
  6
CONTINUOUS
 62
    7
 10
83.574814331120024
 20
73.09306712706649
 11
80.074814331120024
 21
73.09306712706649
  0
LINE
  8
_0-0_
  6
CONTINUOUS
 62
    7
 10
83.574814331120024
 20
73.676400619345543
 11
80.074814331120024
 21
73.676400619345543
  0
LINE
  8
_0-0_
  6
CONTINUOUS
 62
    7
 10
83.574814331120024
 20
67.259733873206017
 11
80.074814331120024
 21
67.259733873206017
  0
LINE
  8
_0-0_
  6
CONTINUOUS
 62
    7
 10
83.574814331120024
 20
67.259733873206017
 11
84.074814331120024
 21
67.759733873206017
  0
LINE
  8
_0-0_
  6
CONTINUOUS
 62
    7
 10
84.074814331120024
 20
73.759733873206017
 11
84.074814331120024
 21
67.759733873206017
  0
LINE
  8
_0-0_
  6
CONTINUOUS
 62
    7
 10
83.574814331120024
 20
74.259733873206017
 11
80.074814331120024
 21
74.259733873206017
  0
LINE
  8
_0-0_
  6
CONTINUOUS
 62
    7
 10
84.074814331120024
 20
73.759733873206017
 11
83.574814331120024
 21
74.259733873206017
  0
LINE
  8
_0-0_
  6
CONTINUOUS
 62
    7
 10
83.574814331120024
 20
67.259733873206017
 11
83.574814331120024
 21
74.259733873206017
  0
LINE
  8
_0-0_
  6
CONTINUOUS
 62
    7
 10
80.274814331120069
 20
74.65973349173629
 11
80.274814331120069
 21
74.259733873206017
  0
LINE
  8
_0-0_
  6
CONTINUOUS
 62
    7
 10
80.274814331120069
 20
67.259733873206017
 11
80.274814331120069
 21
66.78599663336837
  0
LINE
  8
_0-0_
  6
CONTINUOUS
 62
    7
 10
78.874814712589796
 20
74.65973349173629
 11
78.874814712589796
 21
72.759733873206017
  0
LINE
  8
_0-0_
  6
CONTINUOUS
 62
    7
 10
78.874814712589796
 20
68.759733873206017
 11
78.874814712589796
 21
67.859733777838585
  0
LINE
  8
_0-0_
  6
CONTINUOUS
 62
    7
 10
55.074814331120024
 20
72.459733920889732
 11
55.074814331120024
 21
69.059733825522301
  0
LINE
  8
_0-0_
  6
CONTINUOUS
 62
    7
 10
55.374814521854887
 20
68.759733873206017
 11
55.074814331120024
 21
69.059733825522301
  0
LINE
  8
_0-0_
  6
CONTINUOUS
 62
    7
 10
55.074814331120024
 20
72.459733920889732
 11
55.374814521854887
 21
72.759733873206017
  0
LINE
  8
_0-0_
  6
CONTINUOUS
 62
    7
 10
69.074814998692091
 20
67.859733777838585
 11
69.074814998692091
 21
68.759733873206017
  0
LINE
  8
_0-0_
  6
CONTINUOUS
 62
    7
 10
69.074814998692091
 20
72.759733873206017
 11
69.074814998692091
 21
74.65973349173629
  0
LINE
  8
_0-0_
  6
CONTINUOUS
 62
    7
 10
67.674814903324659
 20
68.159733968573448
 11
67.674814903324659
 21
68.759733873206017
  0
LINE
  8
_0-0_
  6
CONTINUOUS
 62
    7
 10
67.674814903324659
 20
72.759733873206017
 11
67.674814903324659
 21
77.859734254675743
  0
LINE
  8
_0-0_
  6
CONTINUOUS
 62
    7
 10
61.474815094059522
 20
68.759733873206017
 11
61.474815094059522
 21
61.259733873206017
  0
LINE
  8
_0-0_
  6
CONTINUOUS
 62
    7
 10
63.274815046375807
 20
64.725434499579308
 11
63.274815046375807
 21
68.759733873206017
  0
LINE
  8
_0-0_
  6
CONTINUOUS
 62
    7
 10
61.474815094059522
 20
85.659733873205994
 11
61.474815094059522
 21
76.359734254675743
  0
LINE
  8
_0-0_
  6
CONTINUOUS
 62
    7
 10
63.274815046375807
 20
76.359734254675743
 11
61.474815094059522
 21
76.359734254675743
  0
LINE
  8
_0-0_
  6
CONTINUOUS
 62
    7
 10
54.274818075208145
 20
67.259769574246604
 11
54.274792113066155
 21
74.259604369986448
  0
LINE
  8
_0-0_
  6
CONTINUOUS
 62
    7
 10
57.8748150940595
 20
75.847142412817504
 11
60.874803520267392
 21
75.5847117237318
  0
LINE
  8
_0-0_
  6
CONTINUOUS
 62
    7
 10
54.274792113066155
 20
74.259604369986448
 11
56.1100570782354
 21
77.438449351506335
  0
LINE
  8
_0-0_
  6
CONTINUOUS
 62
    7
 10
57.8748150940595
 20
77.759687845131396
 11
57.8748150940595
 21
75.847142412817504
  0
LINE
  8
_0-0_
  6
CONTINUOUS
 62
    7
 10
56.1100570782354
 20
77.438449351506335
 11
57.8748150940595
 21
77.759687845131396
  0
LINE
  8
_0-0_
  6
CONTINUOUS
 62
    7
 10
57.8748150940595
 20
65.672252065372561
 11
60.874836667844988
 21
65.934756022718432
  0
LINE
  8
_0-0_
  6
CONTINUOUS
 62
    7
 10
54.274792113066155
 20
67.259851520276754
 11
56.1100570782354
 21
64.081006538756867
  0
LINE
  8
_0-0_
  6
CONTINUOUS
 62
    7
 10
57.8748150940595
 20
63.759768045131807
 11
57.8748150940595
 21
65.672313477445698
  0
LINE
  8
_0-0_
  6
CONTINUOUS
 62
    7
 10
56.1100570782354
 20
64.081006538756867
 11
57.8748150940595
 21
63.759768045131807
  0
LINE
  8
_0-0_
  6
CONTINUOUS
 62
    7
 10
54.274797676033359
 20
72.759733873206017
 11
80.074814331120024
 21
72.759733873206017
  0
LINE
  8
_0-0_
  6
CONTINUOUS
 62
    7
 10
54.27481251189306
 20
68.759733873206017
 11
80.074814331120024
 21
68.759733873206017
  0
LINE
  8
_0-0_
  6
CONTINUOUS
 62
    7
 10
60.874803520267392
 20
75.5847117237318
 11
60.874813224060404
 21
72.759733873206017
  0
LINE
  8
_0-0_
  6
CONTINUOUS
 62
    7
 10
60.874826964051977
 20
68.759733873206017
 11
60.874836667844988
 21
65.934756022718432
  0
LINE
  8
_0-0_
  6
CONTINUOUS
 62
    7
 10
86.474815094059466
 20
7.9246072421481699
 11
86.474815094059466
 21
21.92460724214817
  0
LINE
  8
_0-0_
  6
CONTINUOUS
 62
    7
 10
86.474815094059466
 20
21.92460724214817
 11
80.181564056461866
 21
28.217858279745826
  0
LINE
  8
_0-0_
  6
CONTINUOUS
 62
    7
 10
80.181564056461866
 20
28.217858279745826
 11
78.90877314764839
 21
26.945065463583717
  0
LINE
  8
_0-0_
  6
CONTINUOUS
 62
    7
 10
78.90877314764839
 20
26.945065463583717
 11
82.044295990055616
 21
23.80954262117649
  0
LINE
  8
_0-0_
  6
CONTINUOUS
 62
    7
 10
81.674268447941358
 20
22.956259692709693
 11
76.504609787052686
 21
23.126688922446021
  0
LINE
  8
_0-0_
  6
CONTINUOUS
 62
    7
 10
76.504609787052686
 20
23.126688922446021
 11
69.645673477238233
 21
29.985625232260475
  0
LINE
  8
_0-0_
  6
CONTINUOUS
 62
    7
 10
69.645673477238233
 20
29.985625232260475
 11
69.645673477238233
 21
31.682681048910865
  0
LINE
  8
_0-0_
  6
CONTINUOUS
 62
    7
 10
69.645673477238233
 20
31.682681048910865
 11
71.908415519779737
 21
33.945422137778053
  0
LINE
  8
_0-0_
  6
CONTINUOUS
 62
    7
 10
71.908415519779737
 20
33.945422137778053
 11
73.817603790348585
 21
32.036234820883521
  0
LINE
  8
_0-0_
  6
CONTINUOUS
 62
    7
 10
73.817603790348585
 20
32.036234820883521
 11
75.090395652836378
 21
33.309025729696998
  0
LINE
  8
_0-0_
  6
CONTINUOUS
 62
    7
 10
75.090395652836378
 20
33.309025729696998
 11
69.504252159184034
 21
38.895169223349342
  0
LINE
  8
_0-0_
  6
CONTINUOUS
 62
    7
 10
68.067746508589607
 20
38.917538656678119
 11
61.474815094059522
 21
32.324607242148147
  0
LINE
  8
_0-0_
  6
CONTINUOUS
 62
    7
 10
62.474815094059522
 20
6.9246072421481699
 11
70.374814712589796
 21
6.9246072421481699
  0
LINE
  8
_0-0_
  6
CONTINUOUS
 62
    7
 10
70.374814712589796
 20
6.9246072421481699
 11
70.374814712589796
 21
8.7246071944644541
  0
LINE
  8
_0-0_
  6
CONTINUOUS
 62
    7
 10
70.374814712589796
 20
8.7246071944644541
 11
65.940515720432813
 21
8.7246071944644541
  0
LINE
  8
_0-0_
  6
CONTINUOUS
 62
    7
 10
65.598803722446974
 20
9.5896179328372568
 11
69.374815189426954
 21
13.124607051413307
  0
LINE
  8
_0-0_
  6
CONTINUOUS
 62
    7
 10
69.374815189426954
 20
13.124607051413307
 11
78.574815475529249
 21
13.124607051413307
  0
LINE
  8
_0-0_
  6
CONTINUOUS
 62
    7
 10
78.574815475529249
 20
13.124607051413307
 11
82.350825988834913
 21
9.5896179328372568
  0
LINE
  8
_0-0_
  6
CONTINUOUS
 62
    7
 10
82.00911494452339
 20
8.7246071944644541
 11
77.574815475529249
 21
8.7246071944644541
  0
LINE
  8
_0-0_
  6
CONTINUOUS
 62
    7
 10
77.574815475529249
 20
8.7246071944644541
 11
77.574815475529249
 21
6.9246072421481699
  0
LINE
  8
_0-0_
  6
CONTINUOUS
 62
    7
 10
77.574815475529249
 20
6.9246072421481699
 11
85.474815094059466
 21
6.9246072421481699
  0
LINE
  8
_0-0_
  6
CONTINUOUS
 62
    7
 10
85.074815475529192
 20
10.110249484579811
 11
85.074815475529192
 21
21.324606860678443
  0
LINE
  8
_0-0_
  6
CONTINUOUS
 62
    7
 10
85.074815475529192
 20
21.324606860678443
 11
80.274814331120069
 21
21.324606860678443
  0
LINE
  8
_0-0_
  6
CONTINUOUS
 62
    7
 10
80.274814331120069
 20
13.450870002310523
 11
84.233102523869093
 21
9.7452387462070078
  0
LINE
  8
_0-0_
  6
CONTINUOUS
 62
    7
 10
78.874814712589796
 20
14.524607146780738
 11
69.074814998692091
 21
14.524607146780738
  0
LINE
  8
_0-0_
  6
CONTINUOUS
 62
    7
 10
69.074814998692091
 20
21.324606860678443
 11
78.874814712589796
 21
21.324606860678443
  0
LINE
  8
_0-0_
  6
CONTINUOUS
 62
    7
 10
67.674814903324659
 20
14.824607337515602
 11
64.139825784748609
 21
11.048595870535621
  0
LINE
  8
_0-0_
  6
CONTINUOUS
 62
    7
 10
67.674814903324659
 20
24.524607623617896
 11
66.474815094059522
 21
25.724606479208717
  0
LINE
  8
_0-0_
  6
CONTINUOUS
 62
    7
 10
66.474815094059522
 20
25.724606479208717
 11
63.274815046375807
 21
25.724606479208717
  0
LINE
  8
_0-0_
  6
CONTINUOUS
 62
    7
 10
63.274815046375807
 20
25.724606479208717
 11
63.274815046375807
 21
23.024607623617896
  0
LINE
  8
_0-0_
  6
CONTINUOUS
 62
    7
 10
62.874815070217664
 20
27.124608005087623
 11
62.874815070217664
 21
31.700047458212623
  0
LINE
  8
_0-0_
  6
CONTINUOUS
 62
    7
 10
62.874815070217664
 20
31.700047458212623
 11
68.797145568913038
 21
37.622378314535865
  0
LINE
  8
_0-0_
  6
CONTINUOUS
 62
    7
 10
68.797145568913038
 20
37.622378314535865
 11
71.201308929508741
 21
35.218214953940162
  0
LINE
  8
_0-0_
  6
CONTINUOUS
 62
    7
 10
71.201308929508741
 20
35.218214953940162
 11
68.24567385870796
 21
32.262579883139381
  0
LINE
  8
_0-0_
  6
CONTINUOUS
 62
    7
 10
68.24567385870796
 20
32.262579883139381
 11
68.24567385870796
 21
29.405726398031959
  0
LINE
  8
_0-0_
  6
CONTINUOUS
 62
    7
 10
68.24567385870796
 20
29.405726398031959
 11
74.073239051884229
 21
23.578160251181373
  0
LINE
  8
_0-0_
  6
CONTINUOUS
 62
    7
 10
73.719685279911573
 20
22.724607432883033
 11
69.074814998692091
 21
22.724607432883033
  0
LINE
  8
_0-0_
  6
CONTINUOUS
 62
    7
 10
69.074814998692091
 20
22.724607432883033
 11
69.074814998692091
 21
25.104506457846412
  0
LINE
  8
_0-0_
  6
CONTINUOUS
 62
    7
 10
69.074814998692091
 20
25.104506457846412
 11
67.054713928288038
 21
27.124608005087623
  0
LINE
  8
_0-0_
  6
CONTINUOUS
 62
    7
 10
67.054713928288038
 20
27.124608005087623
 11
62.874815070217664
 21
27.124608005087623
  0
ARC
  8
_0-0_
  6
CONTINUOUS
 62
    7
 10
84.574815475529249
 20
10.110249484579811
 40
0.5
 50
226.88818359374997
 51
0
  0
ARC
  8
_0-0_
  6
CONTINUOUS
 62
    7
 10
81.69074221808296
 20
23.455988849203834
 40
0.4999999999999997
 50
268.11180114746094
 51
45
  0
ARC
  8
_0-0_
  6
CONTINUOUS
 62
    7
 10
85.474815094059466
 20
7.9246072421481699
 40
1
 50
270
 51
0
  0
ARC
  8
_0-0_
  6
CONTINUOUS
 62
    7
 10
62.474815094059522
 20
7.9246072421481699
 40
1
 50
180
 51
270
  0
ARC
  8
_0-0_
  6
CONTINUOUS
 62
    7
 10
68.797145568913038
 20
38.188063586752662
 40
1
 50
44.999984741210959
 51
134.99998474121097
  0
ARC
  8
_0-0_
  6
CONTINUOUS
 62
    7
 10
63.774815046375807
 20
11.390307868521461
 40
0.4999999999999997
 50
180
 51
316.88818359374994
  0
ARC
  8
_0-0_
  6
CONTINUOUS
 62
    7
 10
65.940515720432813
 20
9.2246071944644541
 40
0.5
 50
133.11180114746099
 51
270.00000000000006
  0
ARC
  8
_0-0_
  6
CONTINUOUS
 62
    7
 10
82.00911494452339
 20
9.2246071944644541
 40
0.5
 50
270
 51
46.888183593750021
  0
ARC
  8
_0-0_
  6
CONTINUOUS
 62
    7
 10
73.719685279911573
 20
23.224606479208717
 40
0.5
 50
270
 51
44.99998474121093
  0
LINE
  8
_0-0_
  6
DASHED2
 62
    7
 10
80.302867735864083
 20
13.42460724214817
 11
80.074814331120024
 21
13.42460724214817
  0
LINE
  8
_0-0_
  6
CONTINUOUS
 62
    7
 10
80.074814331120024
 20
21.42460724214817
 11
86.474815094059466
 21
21.42460724214817
  0
LINE
  8
_0-0_
  6
CONTINUOUS
 62
    7
 10
80.074814331120024
 20
13.42460724214817
 11
80.074814331120024
 21
21.42460724214817
  0
LINE
  8
_0-0_
  6
CONTINUOUS
 62
    7
 10
78.874814712589796
 20
19.67460724214817
 11
80.074814331120024
 21
19.67460724214817
  0
LINE
  8
_0-0_
  6
CONTINUOUS
 62
    7
 10
80.074814331120024
 20
15.17460724214817
 11
78.874814712589796
 21
15.17460724214817
  0
LINE
  8
_0-0_
  6
CONTINUOUS
 62
    7
 10
85.074815475529192
 20
13.42460724214817
 11
86.474815094059466
 21
13.42460724214817
  0
LINE
  8
_0-0_
  6
CONTINUOUS
 62
    7
 10
69.074814998692091
 20
15.17460724214817
 11
67.674814903324659
 21
15.17460724214817
  0
LINE
  8
_0-0_
  6
CONTINUOUS
 62
    7
 10
67.674814903324659
 20
19.67460724214817
 11
69.074814998692091
 21
19.67460724214817
  0
LINE
  8
_0-0_
  6
CONTINUOUS
 62
    7
 10
63.274815046375807
 20
15.174607242178411
 11
61.474815094059522
 21
15.174607242178411
  0
LINE
  8
_0-0_
  6
CONTINUOUS
 62
    7
 10
83.574814331120024
 20
18.591273869078407
 11
80.074814331120024
 21
18.591273869078407
  0
LINE
  8
_0-0_
  6
CONTINUOUS
 62
    7
 10
83.574814331120024
 20
19.17460724214817
 11
80.074814331120024
 21
19.17460724214817
  0
LINE
  8
_0-0_
  6
CONTINUOUS
 62
    7
 10
83.574814331120024
 20
19.757940496008644
 11
80.074814331120024
 21
19.757940496008644
  0
LINE
  8
_0-0_
  6
CONTINUOUS
 62
    7
 10
83.574814331120024
 20
20.341273988287696
 11
80.074814331120024
 21
20.341273988287696
  0
LINE
  8
_0-0_
  6
CONTINUOUS
 62
    7
 10
83.574814331120024
 20
13.92460724214817
 11
80.074814331120024
 21
13.92460724214817
  0
LINE
  8
_0-0_
  6
CONTINUOUS
 62
    7
 10
83.574814331120024
 20
13.92460724214817
 11
84.074814331120024
 21
14.42460724214817
  0
LINE
  8
_0-0_
  6
CONTINUOUS
 62
    7
 10
84.074814331120024
 20
20.42460724214817
 11
84.074814331120024
 21
14.42460724214817
  0
LINE
  8
_0-0_
  6
CONTINUOUS
 62
    7
 10
83.574814331120024
 20
20.92460724214817
 11
80.074814331120024
 21
20.92460724214817
  0
LINE
  8
_0-0_
  6
CONTINUOUS
 62
    7
 10
84.074814331120024
 20
20.42460724214817
 11
83.574814331120024
 21
20.92460724214817
  0
LINE
  8
_0-0_
  6
CONTINUOUS
 62
    7
 10
83.574814331120024
 20
13.92460724214817
 11
83.574814331120024
 21
20.92460724214817
  0
LINE
  8
_0-0_
  6
CONTINUOUS
 62
    7
 10
80.274814331120069
 20
21.324606860678443
 11
80.274814331120069
 21
20.92460724214817
  0
LINE
  8
_0-0_
  6
CONTINUOUS
 62
    7
 10
80.274814331120069
 20
13.92460724214817
 11
80.274814331120069
 21
13.450870002310523
  0
LINE
  8
_0-0_
  6
CONTINUOUS
 62
    7
 10
78.874814712589796
 20
21.324606860678443
 11
78.874814712589796
 21
19.42460724214817
  0
LINE
  8
_0-0_
  6
CONTINUOUS
 62
    7
 10
78.874814712589796
 20
15.42460724214817
 11
78.874814712589796
 21
14.524607146780738
  0
LINE
  8
_0-0_
  6
CONTINUOUS
 62
    7
 10
69.074814998692091
 20
14.524607146780738
 11
69.074814998692091
 21
15.42460724214817
  0
LINE
  8
_0-0_
  6
CONTINUOUS
 62
    7
 10
69.074814998692091
 20
19.42460724214817
 11
69.074814998692091
 21
21.324606860678443
  0
LINE
  8
_0-0_
  6
CONTINUOUS
 62
    7
 10
67.674814903324659
 20
14.824607337515602
 11
67.674814903324659
 21
15.42460724214817
  0
LINE
  8
_0-0_
  6
CONTINUOUS
 62
    7
 10
67.674814903324659
 20
19.42460724214817
 11
67.674814903324659
 21
24.524607623617896
  0
LINE
  8
_0-0_
  6
CONTINUOUS
 62
    7
 10
61.474815094059522
 20
15.42460724214817
 11
61.474815094059522
 21
7.9246072421481699
  0
LINE
  8
_0-0_
  6
CONTINUOUS
 62
    7
 10
63.274815046375807
 20
11.390307868521461
 11
63.274815046375807
 21
15.42460724214817
  0
LINE
  8
_0-0_
  6
CONTINUOUS
 62
    7
 10
61.474815094059522
 20
32.324607242148147
 11
61.474815094059522
 21
23.024607623617896
  0
LINE
  8
_0-0_
  6
CONTINUOUS
 62
    7
 10
63.274815046375807
 20
23.024607623617896
 11
61.474815094059522
 21
23.024607623617896
  0
LINE
  8
_0-0_
  6
CONTINUOUS
 62
    7
 10
58.374814521854887
 20
15.42460724214817
 11
58.074814331120024
 21
15.724607194464454
  0
LINE
  8
_0-0_
  6
CONTINUOUS
 62
    7
 10
58.074814331120024
 20
19.124607289831886
 11
58.374814521854887
 21
19.42460724214817
  0
LINE
  8
_0-0_
  6
CONTINUOUS
 62
    7
 10
58.074814331120024
 20
19.124607289831886
 11
58.074814331120024
 21
15.724607194464454
  0
LINE
  8
_0-0_
  6
CONTINUOUS
 62
    7
 10
56.813415094059337
 20
14.269556242147985
 11
56.495425094059556
 21
15.143220242148175
  0
LINE
  8
_0-0_
  6
CONTINUOUS
 62
    7
 10
56.374815094059386
 20
15.82726024214827
 11
56.374815094059386
 21
19.021953242148186
  0
LINE
  8
_0-0_
  6
CONTINUOUS
 62
    7
 10
56.495425094059556
 20
19.705993242148281
 11
56.813415094059337
 21
20.579657242148016
  0
ARC
  8
_0-0_
  6
CONTINUOUS
 62
    7
 10
58.374815094059386
 20
15.82726024214827
 40
2
 50
180
 51
200.00000000000003
  0
ARC
  8
_0-0_
  6
CONTINUOUS
 62
    7
 10
58.374815094059386
 20
19.021953242148186
 40
2
 50
160
 51
180
  0
ARC
  8
_0-0_
  6
CONTINUOUS
 62
    7
 10
59.162645094059599
 20
15.124607242147988
 40
2.5
 50
200
 51
281.82177200542145
  0
LINE
  8
_0-0_
  6
CONTINUOUS
 62
    7
 10
59.674815094059568
 20
13.853069335355769
 11
59.674815094059568
 21
12.677633214680611
  0
ARC
  8
_0-0_
  6
CONTINUOUS
 62
    7
 10
59.162645094059599
 20
19.724607242147897
 40
2.5
 50
78.178227994578535
 51
159.99999999999997
  0
LINE
  8
_0-0_
  6
CONTINUOUS
 62
    7
 10
59.674815094059568
 20
22.171581269615274
 11
59.674815094059568
 21
20.996144148940175
  0
LINE
  8
_0-0_
  6
CONTINUOUS
 62
    7
 10
60.874815094059386
 20
20.674608335355856
 11
59.674815094059568
 21
20.996144148940175
  0
LINE
  8
_0-0_
  6
CONTINUOUS
 62
    7
 10
59.674815094059568
 20
13.853069335355769
 11
60.874815094059386
 21
14.174605148940202
  0
LINE
  8
_0-0_
  6
CONTINUOUS
 62
    7
 10
252.27013136462512
 20
60.259733873206017
 11
229.27013136462512
 21
60.259733873206017
  0
LINE
  8
_0-0_
  6
CONTINUOUS
 62
    7
 10
228.27013136462512
 20
61.259733873206017
 11
228.27013136462512
 21
74.845513873205903
  0
LINE
  8
_0-0_
  6
CONTINUOUS
 62
    7
 10
228.56302136462483
 20
75.55262387320596
 11
245.24069136462487
 21
92.230293873205767
  0
LINE
  8
_0-0_
  6
CONTINUOUS
 62
    7
 10
246.65491136462498
 20
92.230293873205767
 11
252.97724136462494
 21
85.907963873205802
  0
LINE
  8
_0-0_
  6
CONTINUOUS
 62
    7
 10
253.27013136462512
 20
85.200853873205972
 11
253.27013136462512
 21
61.259733873206017
  0
LINE
  8
_0-0_
  6
CONTINUOUS
 62
    7
 10
243.01846136462501
 20
70.762343873206021
 11
242.00437136462534
 21
70.762343873206021
  0
LINE
  8
_0-0_
  6
CONTINUOUS
 62
    7
 10
242.00437136462534
 20
71.757093873205861
 11
243.01846136462501
 21
71.757093873205861
  0
LINE
  8
_0-0_
  6
CONTINUOUS
 62
    7
 10
241.26753136462486
 20
72.49393387320589
 11
241.26753136462486
 21
73.508043873205963
  0
LINE
  8
_0-0_
  6
CONTINUOUS
 62
    7
 10
240.27274136462512
 20
73.508043873205963
 11
240.27274136462512
 21
72.49393387320589
  0
LINE
  8
_0-0_
  6
CONTINUOUS
 62
    7
 10
239.53590136462509
 20
71.757093873205861
 11
238.52186136462507
 21
71.757093873205861
  0
LINE
  8
_0-0_
  6
CONTINUOUS
 62
    7
 10
238.52186136462507
 20
70.762343873206021
 11
239.53590136462509
 21
70.762343873206021
  0
LINE
  8
_0-0_
  6
CONTINUOUS
 62
    7
 10
240.27274136462512
 20
70.025503873205992
 11
240.27274136462512
 21
69.011443873206019
  0
LINE
  8
_0-0_
  6
CONTINUOUS
 62
    7
 10
241.26753136462486
 20
69.011443873206019
 11
241.26753136462486
 21
70.025503873205992
  0
ARC
  8
_0-0_
  6
CONTINUOUS
 62
    7
 10
252.27013136462512
 20
85.200853873205972
 40
1
 50
0
 51
45
  0
ARC
  8
_0-0_
  6
CONTINUOUS
 62
    7
 10
245.94780136462515
 20
91.523183873205937
 40
1
 50
45
 51
135
  0
ARC
  8
_0-0_
  6
CONTINUOUS
 62
    7
 10
252.27013136462512
 20
61.259733873206017
 40
1
 50
270
 51
0
  0
ARC
  8
_0-0_
  6
CONTINUOUS
 62
    7
 10
229.27013136462512
 20
61.259733873206017
 40
1
 50
180
 51
270
  0
ARC
  8
_0-0_
  6
CONTINUOUS
 62
    7
 10
229.27013136462512
 20
74.845513873205903
 40
1
 50
135
 51
180
  0
CIRCLE
  8
_0-0_
  6
CONTINUOUS
 62
    7
 10
240.77013136462512
 20
71.259733873206017
 40
3.5499999999999998
  0
ARC
  8
_0-0_
  6
CONTINUOUS
 62
    7
 10
242.00437136462534
 20
72.49393387320589
 40
0.7368479999999999
 50
180
 51
270
  0
ARC
  8
_0-0_
  6
CONTINUOUS
 62
    7
 10
239.53590136462509
 20
72.49393387320589
 40
0.7368479999999999
 50
270
 51
0
  0
ARC
  8
_0-0_
  6
CONTINUOUS
 62
    7
 10
239.53590136462509
 20
70.025503873205992
 40
0.7368479999999999
 50
0
 51
90
  0
ARC
  8
_0-0_
  6
CONTINUOUS
 62
    7
 10
242.00437136462534
 20
70.025503873205992
 40
0.7368479999999999
 50
90
 51
180
  0
ARC
  8
_0-0_
  6
CONTINUOUS
 62
    7
 10
240.77011136462517
 20
71.259743873205764
 40
2.3026499999999999
 50
167.52571999999995
 51
192.47427999999994
  0
ARC
  8
_0-0_
  6
CONTINUOUS
 62
    7
 10
240.77011136462517
 20
71.259743873205764
 40
2.3026499999999999
 50
77.525819999999996
 51
102.47418
  0
ARC
  8
_0-0_
  6
CONTINUOUS
 62
    7
 10
240.77011136462517
 20
71.259743873205764
 40
2.3026499999999999
 50
347.52573000000001
 51
12.474280000000038
  0
ARC
  8
_0-0_
  6
CONTINUOUS
 62
    7
 10
240.77011136462517
 20
71.259743873205764
 40
2.3026499999999999
 50
257.52582000000001
 51
282.47419000000002
  0
LINE
  8
_0-0_
  6
CONTINUOUS
 62
    7
 10
60.874815094059386
 20
20.674608335355856
 11
60.874815094059386
 21
19.42460724214817
  0
LINE
  8
_0-0_
  6
CONTINUOUS
 62
    7
 10
60.874815094059386
 20
15.42460724214817
 11
60.874815094059386
 21
14.174605148940202
  0
LINE
  8
_0-0_
  6
CONTINUOUS
 62
    7
 10
56.415766917958535
 20
19.42460724214817
 11
80.074814331120024
 21
19.42460724214817
  0
LINE
  8
_0-0_
  6
CONTINUOUS
 62
    7
 10
56.415766712423192
 20
15.42460724214817
 11
80.074814331120024
 21
15.42460724214817
  0
LINE
  8
_0-1_
  6
CONTINUOUS
 62
  152
 10
8.5506765857428491
 20
62.559733873205744
 11
8.5506765857428491
 21
64.959733873205835
  0
LINE
  8
_0-1_
  6
CONTINUOUS
 62
  152
 10
8.850676585743031
 20
65.259733873206017
 11
16.250676585742667
 21
65.259733873206017
  0
LINE
  8
_0-1_
  6
CONTINUOUS
 62
  152
 10
16.550676585742849
 20
64.959733873205835
 11
16.550676585742849
 21
62.559733873205744
  0
LINE
  8
_0-1_
  6
CONTINUOUS
 62
  152
 10
16.250676585742667
 20
62.259733873206017
 11
8.850676585743031
 21
62.259733873206017
  0
LINE
  8
_0-1_
  6
CONTINUOUS
 62
  152
 10
9.0853465857428546
 20
62.769343873205628
 11
9.0853465857428546
 21
64.810903873205746
  0
LINE
  8
_0-1_
  6
CONTINUOUS
 62
  152
 10
9.0853465857428546
 20
64.810903873205746
 11
9.5944565857428188
 21
64.810903873205746
  0
LINE
  8
_0-1_
  6
CONTINUOUS
 62
  152
 10
9.5944565857428188
 20
64.810903873205746
 11
9.5944565857428188
 21
63.133293873206014
  0
LINE
  8
_0-1_
  6
CONTINUOUS
 62
  152
 10
9.5944565857428188
 20
63.133293873206014
 11
10.514686585742538
 21
63.133293873206014
  0
LINE
  8
_0-1_
  6
CONTINUOUS
 62
  152
 10
10.514686585742538
 20
63.133293873206014
 11
10.514686585742538
 21
62.769343873205628
  0
LINE
  8
_0-1_
  6
CONTINUOUS
 62
  152
 10
10.514686585742538
 20
62.769343873205628
 11
9.0853465857428546
 21
62.769343873205628
  0
LINE
  8
_0-1_
  6
CONTINUOUS
 62
  152
 10
10.907486585742618
 20
62.769343873205628
 11
10.907486585742618
 21
64.810903873205746
  0
LINE
  8
_0-1_
  6
CONTINUOUS
 62
  152
 10
10.907486585742618
 20
64.810903873205746
 11
12.337196585742504
 21
64.810903873205746
  0
LINE
  8
_0-1_
  6
CONTINUOUS
 62
  152
 10
12.337196585742504
 20
64.810903873205746
 11
12.337196585742504
 21
64.446943873206067
  0
LINE
  8
_0-1_
  6
CONTINUOUS
 62
  152
 10
12.337196585742504
 20
64.446943873206067
 11
11.414786585742831
 21
64.446943873206067
  0
LINE
  8
_0-1_
  6
CONTINUOUS
 62
  152
 10
11.414786585742831
 20
64.446943873206067
 11
11.414786585742831
 21
63.973503873205857
  0
LINE
  8
_0-1_
  6
CONTINUOUS
 62
  152
 10
11.414786585742831
 20
63.973503873205857
 11
12.249236585742665
 21
63.973503873205857
  0
LINE
  8
_0-1_
  6
CONTINUOUS
 62
  152
 10
12.249236585742665
 20
63.973503873205857
 11
12.249236585742665
 21
63.63184387320581
  0
LINE
  8
_0-1_
  6
CONTINUOUS
 62
  152
 10
12.249236585742665
 20
63.63184387320581
 11
11.414786585742831
 21
63.63184387320581
  0
LINE
  8
_0-1_
  6
CONTINUOUS
 62
  152
 10
11.414786585742831
 20
63.63184387320581
 11
11.414786585742831
 21
63.133293873206014
  0
LINE
  8
_0-1_
  6
CONTINUOUS
 62
  152
 10
11.414786585742831
 20
63.133293873206014
 11
12.337196585742504
 21
63.133293873206014
  0
LINE
  8
_0-1_
  6
CONTINUOUS
 62
  152
 10
12.337196585742504
 20
63.133293873206014
 11
12.337196585742504
 21
62.769343873205628
  0
LINE
  8
_0-1_
  6
CONTINUOUS
 62
  152
 10
12.337196585742504
 20
62.769343873205628
 11
10.907486585742618
 21
62.769343873205628
  0
LINE
  8
_0-1_
  6
CONTINUOUS
 62
  152
 10
13.643176585743049
 20
63.465523873205996
 11
14.174166585742796
 21
63.465523873205996
  0
LINE
  8
_0-1_
  6
CONTINUOUS
 62
  152
 10
14.160746585742572
 20
64.201183873205821
 11
13.640646585742843
 21
64.201183873205821
  0
LINE
  8
_0-1_
  6
CENTER2
 62
  152
 10
19.050686585743051
 20
67.009743873205764
 11
19.050686585743051
 21
75.509733873206017
  0
LINE
  8
_0-1_
  6
CENTER2
 62
  152
 10
14.800716585742748
 20
71.259743873205764
 11
23.300706585742546
 21
71.259743873205764
  0
ARC
  8
_0-1_
  6
CONTINUOUS
 62
  152
 10
15.109196585742893
 20
63.790123873205914
 40
2.3989862999999998
 50
164.21600000000004
 51
195.78399000000002
  0
ARC
  8
_0-1_
  6
CONTINUOUS
 62
  152
 10
19.346366585742771
 20
63.790123873205914
 40
6.0927388999999996
 50
176.78918999999999
 51
183.21080000000001
  0
ARC
  8
_0-1_
  6
CONTINUOUS
 62
  152
 10
13.341286585742864
 20
63.324963873205718
 40
0.5721789
 50
199.11812000000006
 51
253.77089000000001
  0
ARC
  8
_0-1_
  6
CONTINUOUS
 62
  152
 10
13.453216585742894
 20
63.844463873206053
 40
1.1029028999999999
 50
255.73070000000004
 51
284.26929000000007
  0
ARC
  8
_0-1_
  6
CONTINUOUS
 62
  152
 10
13.565146585742468
 20
63.324963873205718
 40
0.5721789
 50
286.22910000000002
 51
340.88186999999999
  0
ARC
  8
_0-1_
  6
CONTINUOUS
 62
  152
 10
11.797236585742894
 20
63.790123873205914
 40
2.3989862999999998
 50
344.21599999999995
 51
352.22374999999994
  0
ARC
  8
_0-1_
  6
CONTINUOUS
 62
  152
 10
13.453216585742894
 20
63.257473873205811
 40
0.1658629
 50
198.78093000000001
 51
341.21906000000001
  0
ARC
  8
_0-1_
  6
CONTINUOUS
 62
  152
 10
12.717006585742865
 20
63.449363873205868
 40
0.9263072999999999
 50
344.64474000000007
 51
1.0000756000000433
  0
ARC
  8
_0-1_
  6
CONTINUOUS
 62
  152
 10
14.189426585742922
 20
63.449363873205868
 40
0.9263072999999999
 50
179.28076999999999
 51
195.35525000000001
  0
ARC
  8
_0-1_
  6
CONTINUOUS
 62
  152
 10
13.453216585742894
 20
64.322773873206017
 40
0.1658629
 50
18.780933999999998
 51
161.21906000000001
  0
ARC
  8
_0-1_
  6
CONTINUOUS
 62
  152
 10
14.189426585742922
 20
64.13088387320596
 40
0.9263072999999999
 50
164.64474000000004
 51
180.71922000000004
  0
ARC
  8
_0-1_
  6
CONTINUOUS
 62
  152
 10
12.717006585742865
 20
64.13088387320596
 40
0.9263072999999999
 50
4.3528099999999998
 51
15.355258000000001
  0
ARC
  8
_0-1_
  6
CONTINUOUS
 62
  152
 10
13.565146585742468
 20
64.255273873205908
 40
0.5721789
 50
19.118120000000001
 51
73.770895999999965
  0
ARC
  8
_0-1_
  6
CONTINUOUS
 62
  152
 10
11.797236585742894
 20
63.790123873205914
 40
2.3989862999999998
 50
9.8663227000000013
 51
15.783997000000001
  0
ARC
  8
_0-1_
  6
CONTINUOUS
 62
  152
 10
13.453216585742894
 20
63.735773873206028
 40
1.1029028999999999
 50
75.730706999999995
 51
104.26929
  0
ARC
  8
_0-1_
  6
CONTINUOUS
 62
  152
 10
13.341286585742864
 20
64.255273873205908
 40
0.5721789
 50
106.2291
 51
160.88186999999999
  0
ARC
  8
_0-1_
  6
CONTINUOUS
 62
  152
 10
16.898486585742603
 20
63.790123873205914
 40
2.3989862999999998
 50
164.21600000000004
 51
195.78399000000002
  0
ARC
  8
_0-1_
  6
CONTINUOUS
 62
  152
 10
21.135656585742481
 20
63.790123873205914
 40
6.0927388999999996
 50
176.78918999999999
 51
183.21080000000001
  0
ARC
  8
_0-1_
  6
CONTINUOUS
 62
  152
 10
9.3493565857427257
 20
63.790123873205914
 40
6.0927388999999996
 50
356.78919000000002
 51
3.2108098999999948
  0
ARC
  8
_0-1_
  6
CONTINUOUS
 62
  152
 10
15.242506585743058
 20
63.257473873205811
 40
0.1658629
 50
198.78093000000001
 51
341.21906000000001
  0
ARC
  8
_0-1_
  6
CONTINUOUS
 62
  152
 10
15.242506585743058
 20
63.844463873206053
 40
1.1029028999999999
 50
255.73070000000004
 51
284.26929000000007
  0
ARC
  8
_0-1_
  6
CONTINUOUS
 62
  152
 10
15.354436585742633
 20
63.324963873205718
 40
0.5721789
 50
286.22910000000002
 51
340.88186999999999
  0
ARC
  8
_0-1_
  6
CONTINUOUS
 62
  152
 10
15.130576585742574
 20
63.324963873205718
 40
0.5721789
 50
199.11812000000006
 51
253.77089000000001
  0
ARC
  8
_0-1_
  6
CONTINUOUS
 62
  152
 10
13.586526585742604
 20
63.790123873205914
 40
2.3989862999999998
 50
344.21599999999995
 51
15.783997000000026
  0
ARC
  8
_0-1_
  6
CONTINUOUS
 62
  152
 10
14.50629658574303
 20
63.449363873205868
 40
0.9263072999999999
 50
344.64474000000007
 51
0.719224299999991
  0
ARC
  8
_0-1_
  6
CONTINUOUS
 62
  152
 10
15.978716585743086
 20
63.449363873205868
 40
0.9263072999999999
 50
179.28076999999999
 51
195.35525000000001
  0
ARC
  8
_0-1_
  6
CONTINUOUS
 62
  152
 10
15.978716585743086
 20
64.13088387320596
 40
0.9263072999999999
 50
164.64474000000004
 51
180.71922000000004
  0
ARC
  8
_0-1_
  6
CONTINUOUS
 62
  152
 10
15.242506585743058
 20
64.322773873206017
 40
0.1658629
 50
18.780933999999998
 51
161.21906000000001
  0
ARC
  8
_0-1_
  6
CONTINUOUS
 62
  152
 10
14.50629658574303
 20
64.13088387320596
 40
0.9263072999999999
 50
359.28076999999996
 51
15.355257999999957
  0
ARC
  8
_0-1_
  6
CONTINUOUS
 62
  152
 10
15.242506585743058
 20
63.735773873206028
 40
1.1029028999999999
 50
75.730706999999995
 51
104.26929
  0
ARC
  8
_0-1_
  6
CONTINUOUS
 62
  152
 10
15.130576585742574
 20
64.255273873205908
 40
0.5721789
 50
106.2291
 51
160.88186999999999
  0
ARC
  8
_0-1_
  6
CONTINUOUS
 62
  152
 10
15.354436585742633
 20
64.255273873205908
 40
0.5721789
 50
19.118120000000001
 51
73.770895999999965
  0
ARC
  8
_0-1_
  6
CONTINUOUS
 62
  152
 10
8.850676585743031
 20
62.559733873205744
 40
0.2999999999999998
 50
180
 51
270
  0
ARC
  8
_0-1_
  6
CONTINUOUS
 62
  152
 10
8.850676585743031
 20
64.959733873205835
 40
0.2999999999999998
 50
90
 51
180
  0
ARC
  8
_0-1_
  6
CONTINUOUS
 62
  152
 10
16.250676585742667
 20
64.959733873205835
 40
0.2999999999999998
 50
0
 51
90
  0
ARC
  8
_0-1_
  6
CONTINUOUS
 62
  152
 10
16.250676585742667
 20
62.559733873205744
 40
0.2999999999999998
 50
270
 51
0
  0
LINE
  8
_0-1_
  6
CENTER1
 62
  152
 10
200.72269849771845
 20
70.759733873206017
 11
175.72269849771845
 21
70.759733873206017
  0
LINE
  8
_0-1_
  6
CENTER1
 62
  152
 10
188.22269849771845
 20
60.259733873206017
 11
188.22269849771845
 21
81.552984910803673
  0
LINE
  8
_0-1_
  6
CENTER1
 62
  152
 10
109.22415181821935
 20
71.297996142059731
 11
149.22415181821935
 21
71.297996142059731
  0
LINE
  8
_0-1_
  6
CENTER1
 62
  152
 10
121.72415181821935
 20
81.552984910803673
 11
121.72415181821935
 21
60.797996142059731
  0
LINE
  8
_0-1_
  6
CENTER1
 62
  152
 10
136.72415181821935
 20
60.797996142059731
 11
136.72415181821935
 21
81.552984910803673
  0
LINE
  8
_0-1_
  6
CENTER1
 62
  152
 10
86.474815094059466
 20
70.759733873206017
 11
54.009979704991565
 21
70.759733873206017
  0
LINE
  8
ADD_LINE
  6
DOT
 62
  152
 10
80.074814331120024
 20
70.759733873206017
 11
79.367707549933471
 21
71.466840654392684
  0
LINE
  8
ADD_LINE
  6
DOT
 62
  152
 10
80.074814331120024
 20
70.759733873206017
 11
79.367707549933471
 21
70.05262709201935
  0
LINE
  8
ADD_LINE
  6
DOT
 62
  152
 10
61.474814998672969
 20
70.759733873206017
 11
60.767708217505401
 21
70.052627092038449
  0
LINE
  8
ADD_LINE
  6
DOT
 62
  152
 10
60.767708217505401
 20
71.466840654411783
 11
61.474814998692068
 21
70.759733873225116
  0
LINE
  8
ADD_LINE
  6
DOT
 62
  152
 10
80.074814331120024
 20
17.42460724214817
 11
79.367707549933471
 21
18.131714023334837
  0
LINE
  8
ADD_LINE
  6
DOT
 62
  152
 10
80.074814331120024
 20
17.42460724214817
 11
79.367707549933471
 21
16.717500460961503
  0
LINE
  8
ADD_LINE
  6
DOT
 62
  152
 10
61.474814998672969
 20
17.42460724214817
 11
60.767708217505401
 21
16.717500460980602
  0
LINE
  8
ADD_LINE
  6
DOT
 62
  152
 10
60.767708217505401
 20
18.131714023353936
 11
61.474814998692068
 21
17.424607242167269
  0
LINE
  8
_0-1_
  6
CENTER1
 62
  152
 10
86.474815094059466
 20
17.42460724214817
 11
57.009979704991565
 21
17.42460724214817
  0
LINE
  8
ADD_LINE
  6
DOT
 62
  152
 10
57.009979704991565
 20
17.42460724214817
 11
56.302872923823998
 21
16.717500460980602
  0
LINE
  8
ADD_LINE
  6
DOT
 62
  152
 10
56.302872923823998
 20
18.131714023353936
 11
57.009979705010664
 21
17.424607242167269
  0
LINE
  8
_0-1_
  6
CENTER2
 62
  152
 10
236.52010136462496
 20
71.259743873205764
 11
245.02009136462522
 21
71.259743873205764
  0
LINE
  8
_0-1_
  6
CONTINUOUS
 62
  152
 10
245.62694136462534
 20
64.810903873205746
 11
247.05666136462497
 21
64.810903873205746
  0
LINE
  8
_0-1_
  6
CONTINUOUS
 62
  152
 10
247.05666136462497
 20
64.810903873205746
 11
247.05666136462497
 21
64.446943873206067
  0
LINE
  8
_0-1_
  6
CONTINUOUS
 62
  152
 10
247.05666136462497
 20
64.446943873206067
 11
246.1342413646251
 21
64.446943873206067
  0
LINE
  8
_0-1_
  6
CONTINUOUS
 62
  152
 10
246.1342413646251
 20
64.446943873206067
 11
246.1342413646251
 21
63.973503873205857
  0
LINE
  8
_0-1_
  6
CONTINUOUS
 62
  152
 10
246.1342413646251
 20
63.973503873205857
 11
246.96869136462539
 21
63.973503873205857
  0
LINE
  8
_0-1_
  6
CONTINUOUS
 62
  152
 10
246.96869136462539
 20
63.973503873205857
 11
246.96869136462539
 21
63.63184387320581
  0
LINE
  8
_0-1_
  6
CONTINUOUS
 62
  152
 10
246.96869136462539
 20
63.63184387320581
 11
246.1342413646251
 21
63.63184387320581
  0
LINE
  8
_0-1_
  6
CONTINUOUS
 62
  152
 10
246.1342413646251
 20
63.63184387320581
 11
246.1342413646251
 21
63.133293873206014
  0
LINE
  8
_0-1_
  6
CONTINUOUS
 62
  152
 10
246.1342413646251
 20
63.133293873206014
 11
247.05666136462497
 21
63.133293873206014
  0
LINE
  8
_0-1_
  6
CONTINUOUS
 62
  152
 10
247.05666136462497
 20
63.133293873206014
 11
247.05666136462497
 21
62.769343873205628
  0
LINE
  8
_0-1_
  6
CONTINUOUS
 62
  152
 10
247.05666136462497
 20
62.769343873205628
 11
245.62694136462534
 21
62.769343873205628
  0
LINE
  8
_0-1_
  6
CONTINUOUS
 62
  152
 10
245.62694136462534
 20
62.769343873205628
 11
245.62694136462534
 21
64.810903873205746
  0
LINE
  8
_0-1_
  6
CONTINUOUS
 62
  152
 10
244.31391136462508
 20
64.810903873205746
 11
243.80480136462512
 21
64.810903873205746
  0
LINE
  8
_0-1_
  6
CONTINUOUS
 62
  152
 10
243.80480136462512
 20
64.810903873205746
 11
243.80480136462512
 21
62.769343873205628
  0
LINE
  8
_0-1_
  6
CONTINUOUS
 62
  152
 10
243.80480136462512
 20
62.769343873205628
 11
245.2341413646248
 21
62.769343873205628
  0
LINE
  8
_0-1_
  6
CONTINUOUS
 62
  152
 10
245.2341413646248
 20
62.769343873205628
 11
245.2341413646248
 21
63.133293873206014
  0
LINE
  8
_0-1_
  6
CONTINUOUS
 62
  152
 10
245.2341413646248
 20
63.133293873206014
 11
244.31391136462508
 21
63.133293873206014
  0
LINE
  8
_0-1_
  6
CONTINUOUS
 62
  152
 10
244.31391136462508
 20
63.133293873206014
 11
244.31391136462508
 21
64.810903873205746
  0
LINE
  8
_0-1_
  6
CONTINUOUS
 62
  152
 10
243.27013136462512
 20
64.959733873205835
 11
243.27013136462512
 21
62.559733873205744
  0
LINE
  8
_0-1_
  6
CONTINUOUS
 62
  152
 10
243.57013136462484
 20
62.259733873206017
 11
250.97013136462493
 21
62.259733873206017
  0
LINE
  8
_0-1_
  6
CONTINUOUS
 62
  152
 10
251.27013136462512
 20
62.559733873205744
 11
251.27013136462512
 21
64.959733873205835
  0
LINE
  8
_0-1_
  6
CONTINUOUS
 62
  152
 10
250.97013136462493
 20
65.259733873206017
 11
243.57013136462484
 21
65.259733873206017
  0
LINE
  8
_0-1_
  6
CENTER2
 62
  152
 10
240.77011136462517
 20
67.009743873205764
 11
240.77011136462517
 21
75.509733873206017
  0
LINE
  8
_0-1_
  6
CONTINUOUS
 62
  152
 10
248.36010136462511
 20
64.201183873205821
 11
248.88020136462529
 21
64.201183873205821
  0
LINE
  8
_0-1_
  6
CONTINUOUS
 62
  152
 10
248.89362136462506
 20
63.465523873205996
 11
248.36263136462486
 21
63.465523873205996
  0
ARC
  8
_0-1_
  6
CONTINUOUS
 62
  152
 10
249.82865136462516
 20
63.790123873205914
 40
2.3989862999999998
 50
164.21600000000004
 51
195.78399000000002
  0
ARC
  8
_0-1_
  6
CONTINUOUS
 62
  152
 10
254.06582136462504
 20
63.790123873205914
 40
6.0927388999999996
 50
176.78918999999999
 51
183.21080000000001
  0
ARC
  8
_0-1_
  6
CONTINUOUS
 62
  152
 10
248.06074136462513
 20
63.324963873205718
 40
0.5721789
 50
199.11812000000006
 51
253.77089000000001
  0
ARC
  8
_0-1_
  6
CONTINUOUS
 62
  152
 10
248.17267136462516
 20
63.844463873206053
 40
1.1029028999999999
 50
255.73070000000004
 51
284.26929000000007
  0
ARC
  8
_0-1_
  6
CONTINUOUS
 62
  152
 10
248.28460136462519
 20
63.324963873205718
 40
0.5721789
 50
286.22910000000002
 51
340.88186999999999
  0
ARC
  8
_0-1_
  6
CONTINUOUS
 62
  152
 10
246.51669136462516
 20
63.790123873205914
 40
2.3989862999999998
 50
344.21599999999995
 51
352.22374999999994
  0
ARC
  8
_0-1_
  6
CONTINUOUS
 62
  152
 10
248.17267136462516
 20
63.257473873205811
 40
0.1658629
 50
198.78093000000001
 51
341.21906000000001
  0
ARC
  8
_0-1_
  6
CONTINUOUS
 62
  152
 10
247.43646136462513
 20
63.449363873205868
 40
0.9263072999999999
 50
344.64474000000007
 51
1.0000756000000433
  0
ARC
  8
_0-1_
  6
CONTINUOUS
 62
  152
 10
248.90888136462519
 20
63.449363873205868
 40
0.9263072999999999
 50
179.28076999999999
 51
195.35525000000001
  0
ARC
  8
_0-1_
  6
CONTINUOUS
 62
  152
 10
248.17267136462516
 20
64.322773873206017
 40
0.1658629
 50
18.780933999999998
 51
161.21906000000001
  0
ARC
  8
_0-1_
  6
CONTINUOUS
 62
  152
 10
248.90888136462519
 20
64.13088387320596
 40
0.9263072999999999
 50
164.64474000000004
 51
180.71922000000004
  0
ARC
  8
_0-1_
  6
CONTINUOUS
 62
  152
 10
247.43646136462513
 20
64.13088387320596
 40
0.9263072999999999
 50
4.3528099999999998
 51
15.355258000000001
  0
ARC
  8
_0-1_
  6
CONTINUOUS
 62
  152
 10
248.28460136462519
 20
64.255273873205908
 40
0.5721789
 50
19.118120000000001
 51
73.770895999999965
  0
ARC
  8
_0-1_
  6
CONTINUOUS
 62
  152
 10
246.51669136462516
 20
63.790123873205914
 40
2.3989862999999998
 50
9.8663227000000013
 51
15.783997000000001
  0
ARC
  8
_0-1_
  6
CONTINUOUS
 62
  152
 10
248.17267136462516
 20
63.735773873206028
 40
1.1029028999999999
 50
75.730706999999995
 51
104.26929
  0
ARC
  8
_0-1_
  6
CONTINUOUS
 62
  152
 10
248.06074136462513
 20
64.255273873205908
 40
0.5721789
 50
106.2291
 51
160.88186999999999
  0
ARC
  8
_0-1_
  6
CONTINUOUS
 62
  152
 10
251.61794136462532
 20
63.790123873205914
 40
2.3989862999999998
 50
164.21600000000004
 51
195.78399000000002
  0
ARC
  8
_0-1_
  6
CONTINUOUS
 62
  152
 10
255.8551113646252
 20
63.790123873205914
 40
6.0927388999999996
 50
176.78918999999999
 51
183.21080000000001
  0
ARC
  8
_0-1_
  6
CONTINUOUS
 62
  152
 10
244.06881136462499
 20
63.790123873205914
 40
6.0927388999999996
 50
356.78919000000002
 51
3.2108098999999948
  0
ARC
  8
_0-1_
  6
CONTINUOUS
 62
  152
 10
249.96196136462487
 20
63.257473873205811
 40
0.1658629
 50
198.78093000000001
 51
341.21906000000001
  0
ARC
  8
_0-1_
  6
CONTINUOUS
 62
  152
 10
249.96196136462487
 20
63.844463873206053
 40
1.1029028999999999
 50
255.73070000000004
 51
284.26929000000007
  0
ARC
  8
_0-1_
  6
CONTINUOUS
 62
  152
 10
250.07389136462535
 20
63.324963873205718
 40
0.5721789
 50
286.22910000000002
 51
340.88186999999999
  0
ARC
  8
_0-1_
  6
CONTINUOUS
 62
  152
 10
249.85003136462484
 20
63.324963873205718
 40
0.5721789
 50
199.11812000000006
 51
253.77089000000001
  0
ARC
  8
_0-1_
  6
CONTINUOUS
 62
  152
 10
248.30598136462487
 20
63.790123873205914
 40
2.3989862999999998
 50
344.21599999999995
 51
15.783997000000026
  0
ARC
  8
_0-1_
  6
CONTINUOUS
 62
  152
 10
249.22575136462484
 20
63.449363873205868
 40
0.9263072999999999
 50
344.64474000000007
 51
0.719224299999991
  0
ARC
  8
_0-1_
  6
CONTINUOUS
 62
  152
 10
250.6981713646249
 20
63.449363873205868
 40
0.9263072999999999
 50
179.28076999999999
 51
195.35525000000001
  0
ARC
  8
_0-1_
  6
CONTINUOUS
 62
  152
 10
250.6981713646249
 20
64.13088387320596
 40
0.9263072999999999
 50
164.64474000000004
 51
180.71922000000004
  0
ARC
  8
_0-1_
  6
CONTINUOUS
 62
  152
 10
249.96196136462487
 20
64.322773873206017
 40
0.1658629
 50
18.780933999999998
 51
161.21906000000001
  0
ARC
  8
_0-1_
  6
CONTINUOUS
 62
  152
 10
249.22575136462484
 20
64.13088387320596
 40
0.9263072999999999
 50
359.28076999999996
 51
15.355257999999957
  0
ARC
  8
_0-1_
  6
CONTINUOUS
 62
  152
 10
249.96196136462487
 20
63.735773873206028
 40
1.1029028999999999
 50
75.730706999999995
 51
104.26929
  0
ARC
  8
_0-1_
  6
CONTINUOUS
 62
  152
 10
249.85003136462484
 20
64.255273873205908
 40
0.5721789
 50
106.2291
 51
160.88186999999999
  0
ARC
  8
_0-1_
  6
CONTINUOUS
 62
  152
 10
250.07389136462535
 20
64.255273873205908
 40
0.5721789
 50
19.118120000000001
 51
73.770895999999965
  0
ARC
  8
_0-1_
  6
CONTINUOUS
 62
  152
 10
243.57013136462484
 20
62.559733873205744
 40
0.2999999999999998
 50
180
 51
270
  0
ARC
  8
_0-1_
  6
CONTINUOUS
 62
  152
 10
243.57013136462484
 20
64.959733873205835
 40
0.2999999999999998
 50
90
 51
180
  0
ARC
  8
_0-1_
  6
CONTINUOUS
 62
  152
 10
250.97013136462493
 20
64.959733873205835
 40
0.2999999999999998
 50
0
 51
90
  0
ARC
  8
_0-1_
  6
CONTINUOUS
 62
  152
 10
250.97013136462493
 20
62.559733873205744
 40
0.2999999999999998
 50
270
 51
0
  0
TEXT
  8
_0-7_
 62
    7
 10
56.460167187009574
 20
43.516359127662099
 40
4.3000000000000114
 41
0.744186046511626
 50
0
  1
PB22
  0
TEXT
  8
_0-7_
 62
    7
 10
56.460167187009574
 20
96.851485758719946
 40
4.3000000000000114
 41
0.744186046511626
 50
0
  1
PB24
  0
TEXT
  8
_0-7_
 62
    7
 10
109.22415181821935
 20
96.851485758719946
 40
4.3000000000000114
 41
0.744186046511626
 50
0
  1
L40
  0
TEXT
  8
_0-7_
 62
    7
 10
175.72269849771845
 20
96.851485758719946
 40
4.3000000000000114
 41
0.744186046511626
 50
0
  1
L25
  0
LINE
  8
_0-0_
  6
CONTINUOUS
 62
  152
 10
55.374814521854887
 20
68.759733873206017
 11
55.374814521854887
 21
72.759733873206017
  0
LINE
  8
_0-0_
  6
CONTINUOUS
 62
  152
 10
80.074814331120024
 20
69.059733825522301
 11
54.274811399203827
 21
69.059733825522301
  0
LINE
  8
_0-0_
  6
CONTINUOUS
 62
  152
 10
80.074814331120024
 20
72.459733920889732
 11
54.274798788722592
 21
72.459733920889732
  0
LINE
  8
_0-0_
  6
CONTINUOUS
 62
  152
 10
58.374814521854887
 20
15.42460724214817
 11
58.374814521854887
 21
19.42460724214817
  0
LINE
  8
_0-0_
  6
CONTINUOUS
 62
  152
 10
80.074814331120024
 20
19.124607289831886
 11
56.377451294824368
 21
19.124607289831886
  0
LINE
  8
_0-0_
  6
CONTINUOUS
 62
  152
 10
80.074814331120024
 20
15.724607194464454
 11
56.37745124342996
 21
15.724607194464454
  0
ENDSEC
  0
EOF
