  0
SECTION
  2
HEADER
  9
$ACADVER
  1
AC1009
  9
$INSBASE
 10
0
 20
0
 30
0
  9
$EXTMIN
 10
0
 20
0
  9
$EXTMAX
 10
1189
 20
841
  9
$LIMMIN
 10
0
 20
0
  9
$LIMMAX
 10
1189
 20
841
  9
$LTSCALE
 40
1
  0
ENDSEC
  0
SECTION
  2
TABLES
  0
TABLE
  2
LTYPE
 70
     9
  0
LTYPE
  2
CONTINUOUS
 70
    64
  3
実線
 72
    65
 73
     0
 40
0.0
  0
LTYPE
  2
DASHED1
 70
    64
  3
--  --  --  --  --  --  --  --  
 72
    65
 73
     2
 40
2.5
 49
1.25
 49
-1.25
  0
LTYPE
  2
DASHED2
 70
    64
  3
----    ----    ----    ----    
 72
    65
 73
     2
 40
5.0
 49
2.5
 49
-2.5
  0
LTYPE
  2
DASHED3
 70
    64
  3
------  ------  ------  ------  
 72
    65
 73
     2
 40
5.0
 49
3.75
 49
-1.25
  0
LTYPE
  2
CENTER1
 70
    64
  3
----- - ----- - ----- - ----- - 
 72
    65
 73
     4
 40
10.0
 49
6.25
 49
-1.25
 49
1.25
 49
-1.25
  0
LTYPE
  2
CENTER2
 70
    64
  3
----------  --  ----------  --  
 72
    65
 73
     4
 40
20.0
 49
12.5
 49
-2.5
 49
2.5
 49
-2.5
  0
LTYPE
  2
PHANTOM1
 70
    64
  3
--- - - --- - - --- - - --- - - 
 72
    65
 73
     6
 40
10.0
 49
3.25
 49
-1.25
 49
1.25
 49
-1.25
 49
1.25
 49
-1.25
  0
LTYPE
  2
PHANTOM2
 70
    64
  3
--------  -  -  --------  -  -  
 72
    65
 73
     6
 40
20.0
 49
10.0
 49
-2.5
 49
1.25
 49
-2.5
 49
1.25
 49
-2.5
  0
LTYPE
  2
DOT
 70
    64
  3
-   -   -   -   -   -   -   -   
 72
    65
 73
     2
 40
2.5
 49
0.625
 49
-1.875
  0
LTYPE
  2
DUMMY
 70
    64
  3
ダミー
 72
    65
 73
     0
 40
0.0
  0
LTYPE
  2
RAND1
 70
    64
  3
ランダム線1
 72
    65
 73
     4
 40
10.0
 49
1.0
 49
-2.0
 49
3.0
 49
-4.0
  0
LTYPE
  2
RAND2
 70
    64
  3
ランダム線2
 72
    65
 73
     4
 40
14.0
 49
2.0
 49
-3.0
 49
4.0
 49
-5.0
  0
LTYPE
  2
RAND3
 70
    64
  3
ランダム線3
 72
    65
 73
     4
 40
18.0
 49
3.0
 49
-4.0
 49
5.0
 49
-6.0
  0
LTYPE
  2
RAND4
 70
    64
  3
ランダム線4
 72
    65
 73
     4
 40
22.0
 49
4.0
 49
-5.0
 49
6.0
 49
-7.0
  0
LTYPE
  2
RAND5
 70
    64
  3
ランダム線5
 72
    65
 73
     4
 40
26.0
 49
5.0
 49
-6.0
 49
7.0
 49
-8.0
  0
LTYPE
  2
LONG1
 70
    64
  3
----------  --  ----------  --  
 72
    65
 73
     4
 40
40.0
 49
32.5
 49
-2.5
 49
2.5
 49
-2.5
  0
LTYPE
  2
LONG2
 70
    64
  3
--------  -  -  --------  -  -  
 72
    65
 73
     6
 40
40.0
 49
30.0
 49
-2.5
 49
1.25
 49
-2.5
 49
1.25
 49
-2.5
  0
LTYPE
  2
LONG3
 70
    64
  3
+++++++++++++++..+++++++++++++++
 72
    65
 73
     2
 40
40.0
 49
37.5
 49
-2.5
  0
LTYPE
  2
LONG4
 70
    64
  3
+++++++++++++++..+++++++++++++++
 72
    65
 73
     2
 40
80.0
 49
75.0
 49
-5.0
  0
LTYPE
  2
LONG5
 70
    64
  3
----------  --  ----------  --  
 72
    65
 73
     4
 40
60.0
 49
37.5
 49
-7.5
 49
7.5
 49
-7.5
  0
LTYPE
  2
dashed
 70
   64
  3
-------   -------------   ------
 72
   65
 73
    2
 40
7.5
 49
6
 49
-1.5
  0
LTYPE
  2
dashed_spaced
 70
   64
  3
----        --------        ----
 72
   65
 73
    2
 40
12
 49
6
 49
-6
  0
LTYPE
  2
long_dashed_dotted
 70
   64
  3
------------- --- --------------
 72
   65
 73
    4
 40
15.25
 49
12
 49
-1.5
 49
0.25
 49
-1.5
  0
LTYPE
  2
long_dashed_double-dotted
 70
   64
  3
----------- --- --- ------------
 72
   65
 73
    6
 40
17
 49
12
 49
-1.5
 49
0.25
 49
-1.5
 49
0.25
 49
-1.5
  0
LTYPE
  2
long_dashed_triplicate-dotted
 70
   64
  3
--------- --- --- --- ----------
 72
   65
 73
    8
 40
18.75
 49
12
 49
-1.5
 49
0.25
 49
-1.5
 49
0.25
 49
-1.5
 49
0.25
 49
-1.5
  0
LTYPE
  2
dotted
 70
   64
  3
   -       -       -       -    
 72
   65
 73
    2
 40
1.75
 49
0.25
 49
-1.5
  0
LTYPE
  2
chain
 70
   64
  3
-------------- -- --------------
 72
   65
 73
    4
 40
18.5
 49
12
 49
-1.5
 49
3.5
 49
-1.5
  0
LTYPE
  2
chain_double_dash
 70
   64
  3
------------ -- -- -------------
 72
   65
 73
    6
 40
23.5
 49
12
 49
-1.5
 49
3.5
 49
-1.5
 49
3.5
 49
-1.5
  0
LTYPE
  2
dashed_dotted
 70
   64
  3
-----------     -     ----------
 72
   65
 73
    4
 40
9.25
 49
6
 49
-1.5
 49
0.25
 49
-1.5
  0
LTYPE
  2
double-dashed_dotted
 70
   64
  3
------   -----------   -   -----
 72
   65
 73
    6
 40
16.75
 49
6
 49
-1.5
 49
6
 49
-1.5
 49
0.25
 49
-1.5
  0
LTYPE
  2
dashed_double-dotted
 70
   64
  3
---------    -    -    ---------
 72
   65
 73
    6
 40
11
 49
6
 49
-1.5
 49
0.25
 49
-1.5
 49
0.25
 49
-1.5
  0
LTYPE
  2
double-dashed_double-dotted
 70
   64
  3
-----   ---------   -   -   ----
 72
   65
 73
    8
 40
18.5
 49
6
 49
-1.5
 49
6
 49
-1.5
 49
0.25
 49
-1.5
 49
0.25
 49
-1.5
  0
LTYPE
  2
dashed_triplicate-dotted
 70
   64
  3
-------    -    -    -    ------
 72
   65
 73
    8
 40
12.75
 49
6
 49
-1.5
 49
0.25
 49
-1.5
 49
0.25
 49
-1.5
 49
0.25
 49
-1.5
  0
LTYPE
  2
double-dashed_triplicate-dotted
 70
   64
  3
-----  ---------  -  -  -  -----
 72
   65
 73
   10
 40
20.25
 49
6
 49
-1.5
 49
6
 49
-1.5
 49
0.25
 49
-1.5
 49
0.25
 49
-1.5
 49
0.25
 49
-1.5
  0
LTYPE
  2
undefined
 70
   64
  3
--------------------------------
 72
   65
 73
    0
 40
0
  0
ENDTAB
  0
TABLE
  2
STYLE
  5
3
100
AcDbSymbolTable
 70
     1
  0
STYLE
  5
10
100
AcDbSymbolTableRecord
100
AcDbTextStyleTableRecord
  2
STANDARD
 70
     0
 40
0.0
 41
1.0
 50
0.0
 71
     0
 42
0.2
  3
txt
  4
bigfont.shx
  0
STYLE
  5
26
100
AcDbSymbolTableRecord
100
AcDbTextStyleTableRecord
  2
TATEGAKI
 70
    68
 40
0.0
 41
1.0
 50
0.0
 71
     0
 42
1.0
  3
txt
  4
bigfont.shx
  0
ENDTAB
  0
TABLE
  2
LAYER
 70
    4
  0
LAYER
  2
_0-0_
 70
   64
 62
    7
  6
CONTINUOUS
  0
LAYER
  2
_0-1_
 70
   64
 62
    7
  6
CONTINUOUS
  0
LAYER
  2
_0-8_
 70
   64
 62
    7
  6
CONTINUOUS
  0
LAYER
  2
ADD_LINE
 70
   64
 62
    7
  6
CONTINUOUS
  0
ENDTAB
  0
ENDSEC
  0
SECTION
  2
BLOCKS
  0
ENDSEC
  0
SECTION
  2
ENTITIES
  0
LINE
  8
_0-0_
  6
CONTINUOUS
 62
    7
 10
81.88057421251176
 20
88.182386093264711
 11
83.38057421251176
 21
89.048411497049244
  0
LINE
  8
_0-0_
  6
CONTINUOUS
 62
    7
 10
83.63057421251176
 20
89.481424198941284
 11
83.63057421251176
 21
89.89274906434656
  0
LINE
  8
_0-0_
  6
CONTINUOUS
 62
    7
 10
84.13057421251176
 20
90.39274906434656
 11
85.496599616296749
 21
90.39274906434656
  0
LINE
  8
_0-0_
  6
CONTINUOUS
 62
    7
 10
85.746599616296749
 20
90.3257617662386
 11
87.13057421251176
 21
89.526723660562027
  0
LINE
  8
_0-0_
  6
CONTINUOUS
 62
    7
 10
87.63057421251176
 20
88.660698256777493
 11
87.63057421251176
 21
78.724799871915536
  0
LINE
  8
_0-0_
  6
CONTINUOUS
 62
    7
 10
87.13057421251176
 20
77.858774468131003
 11
85.746599616296749
 21
77.05973636245443
  0
LINE
  8
_0-0_
  6
CONTINUOUS
 62
    7
 10
85.496599616296749
 20
76.992749064346469
 11
84.13057421251176
 21
76.992749064346469
  0
LINE
  8
_0-0_
  6
CONTINUOUS
 62
    7
 10
83.63057421251176
 20
77.492749064346469
 11
83.63057421251176
 21
77.904073929751746
  0
LINE
  8
_0-0_
  6
CONTINUOUS
 62
    7
 10
83.38057421251176
 20
78.337086631643785
 11
81.88057421251176
 21
79.203112035428319
  0
LINE
  8
_0-0_
  6
CONTINUOUS
 62
    7
 10
81.63057421251176
 20
79.636124737320358
 11
81.63057421251176
 21
87.749373391372217
  0
ARC
  8
_0-0_
  6
CONTINUOUS
 62
    7
 10
86.63057421251176
 20
88.660698256777493
 40
1
 50
0
 51
59.999999999999957
  0
ARC
  8
_0-0_
  6
CONTINUOUS
 62
    7
 10
86.63057421251176
 20
78.724799871915536
 40
1
 50
299.99999999999989
 51
0.0000000000000254
  0
ARC
  8
_0-0_
  6
CONTINUOUS
 62
    7
 10
85.496599616296749
 20
77.492749064346469
 40
0.5
 50
270
 51
299.99999999999994
  0
ARC
  8
_0-0_
  6
CONTINUOUS
 62
    7
 10
84.13057421251176
 20
77.492749064346469
 40
0.5
 50
180
 51
270
  0
ARC
  8
_0-0_
  6
CONTINUOUS
 62
    7
 10
83.13057421251176
 20
77.904073929751746
 40
0.5
 50
0
 51
60.000000000000036
  0
ARC
  8
_0-0_
  6
CONTINUOUS
 62
    7
 10
82.13057421251176
 20
79.636124737320358
 40
0.5
 50
179.99999999999997
 51
240.00000000000003
  0
ARC
  8
_0-0_
  6
CONTINUOUS
 62
    7
 10
84.13057421251176
 20
89.89274906434656
 40
0.5
 50
90
 51
180
  0
ARC
  8
_0-0_
  6
CONTINUOUS
 62
    7
 10
85.496599616296749
 20
89.89274906434656
 40
0.5
 50
59.999999999999986
 51
90
  0
ARC
  8
_0-0_
  6
CONTINUOUS
 62
    7
 10
83.13057421251176
 20
89.481424198941284
 40
0.5
 50
300.00000000000017
 51
0
  0
ARC
  8
_0-0_
  6
CONTINUOUS
 62
    7
 10
82.13057421251176
 20
87.749373391372217
 40
0.5
 50
120.00000000000001
 51
180
  0
LINE
  8
_0-0_
  6
CONTINUOUS
 62
    7
 10
53.351395853653003
 20
76.992749064346469
 11
53.351395853653003
 21
90.39274906434656
  0
LINE
  8
_0-0_
  6
CONTINUOUS
 62
    7
 10
21.351395853653003
 20
90.39274906434656
 11
21.351395853653003
 21
76.992749064346469
  0
LINE
  8
_0-0_
  6
CONTINUOUS
 62
    7
 10
81.88057421251176
 20
129.92480985717918
 11
83.38057421251176
 21
130.79083526096372
  0
LINE
  8
_0-0_
  6
CONTINUOUS
 62
    7
 10
83.63057421251176
 20
131.22384796285576
 11
83.63057421251176
 21
131.63517282826103
  0
LINE
  8
_0-0_
  6
CONTINUOUS
 62
    7
 10
84.13057421251176
 20
132.13517282826103
 11
85.496599616296749
 21
132.13517282826103
  0
LINE
  8
_0-0_
  6
CONTINUOUS
 62
    7
 10
85.746599616296749
 20
132.06818553015307
 11
87.13057421251176
 21
131.2691474244765
  0
LINE
  8
_0-0_
  6
CONTINUOUS
 62
    7
 10
87.63057421251176
 20
130.40312202069197
 11
87.63057421251176
 21
120.46722363583001
  0
LINE
  8
_0-0_
  6
CONTINUOUS
 62
    7
 10
87.13057421251176
 20
119.60119823204548
 11
85.746599616296749
 21
118.8021601263689
  0
LINE
  8
_0-0_
  6
CONTINUOUS
 62
    7
 10
85.496599616296749
 20
118.73517282826094
 11
84.13057421251176
 21
118.73517282826094
  0
LINE
  8
_0-0_
  6
CONTINUOUS
 62
    7
 10
83.63057421251176
 20
119.23517282826094
 11
83.63057421251176
 21
119.64649769366622
  0
LINE
  8
_0-0_
  6
CONTINUOUS
 62
    7
 10
83.38057421251176
 20
120.07951039555826
 11
81.88057421251176
 21
120.94553579934279
  0
LINE
  8
_0-0_
  6
CONTINUOUS
 62
    7
 10
81.63057421251176
 20
121.37854850123483
 11
81.63057421251176
 21
129.49179715528669
  0
ARC
  8
_0-0_
  6
CONTINUOUS
 62
    7
 10
86.63057421251176
 20
130.40312202069197
 40
1
 50
0
 51
59.999999999999957
  0
ARC
  8
_0-0_
  6
CONTINUOUS
 62
    7
 10
86.63057421251176
 20
120.46722363583001
 40
1
 50
299.99999999999989
 51
0.0000000000000254
  0
ARC
  8
_0-0_
  6
CONTINUOUS
 62
    7
 10
85.496599616296749
 20
119.23517282826094
 40
0.5
 50
270
 51
299.99999999999994
  0
ARC
  8
_0-0_
  6
CONTINUOUS
 62
    7
 10
84.13057421251176
 20
119.23517282826094
 40
0.5
 50
180
 51
270
  0
ARC
  8
_0-0_
  6
CONTINUOUS
 62
    7
 10
83.13057421251176
 20
119.64649769366622
 40
0.5
 50
0
 51
60.000000000000036
  0
ARC
  8
_0-0_
  6
CONTINUOUS
 62
    7
 10
82.13057421251176
 20
121.37854850123483
 40
0.5
 50
179.99999999999997
 51
240.00000000000003
  0
ARC
  8
_0-0_
  6
CONTINUOUS
 62
    7
 10
84.13057421251176
 20
131.63517282826103
 40
0.5
 50
90
 51
180
  0
ARC
  8
_0-0_
  6
CONTINUOUS
 62
    7
 10
85.496599616296749
 20
131.63517282826103
 40
0.5
 50
59.999999999999986
 51
90
  0
ARC
  8
_0-0_
  6
CONTINUOUS
 62
    7
 10
83.13057421251176
 20
131.22384796285576
 40
0.5
 50
300.00000000000017
 51
0
  0
ARC
  8
_0-0_
  6
CONTINUOUS
 62
    7
 10
82.13057421251176
 20
129.49179715528669
 40
0.5
 50
120.00000000000001
 51
180
  0
LINE
  8
_0-0_
  6
CONTINUOUS
 62
    7
 10
53.351395853653003
 20
118.73517282826094
 11
53.351395853653003
 21
132.13517282826103
  0
LINE
  8
_0-0_
  6
CONTINUOUS
 62
    7
 10
21.351395853653003
 20
132.13517282826103
 11
21.351395853653003
 21
118.73517282826094
  0
LINE
  8
_0-0_
  6
CONTINUOUS
 62
    7
 10
81.88057421251176
 20
169.80610644690645
 11
83.38057421251176
 21
170.67213185069099
  0
LINE
  8
_0-0_
  6
CONTINUOUS
 62
    7
 10
83.63057421251176
 20
171.10514455258303
 11
83.63057421251176
 21
171.5164694179883
  0
LINE
  8
_0-0_
  6
CONTINUOUS
 62
    7
 10
84.13057421251176
 20
172.0164694179883
 11
85.496599616296749
 21
172.0164694179883
  0
LINE
  8
_0-0_
  6
CONTINUOUS
 62
    7
 10
85.746599616296749
 20
171.94948211988034
 11
87.13057421251176
 21
171.15044401420377
  0
LINE
  8
_0-0_
  6
CONTINUOUS
 62
    7
 10
87.63057421251176
 20
170.28441861041924
 11
87.63057421251176
 21
160.34852022555731
  0
LINE
  8
_0-0_
  6
CONTINUOUS
 62
    7
 10
87.13057421251176
 20
159.48249482177278
 11
85.746599616296749
 21
158.6834567160962
  0
LINE
  8
_0-0_
  6
CONTINUOUS
 62
    7
 10
85.496599616296749
 20
158.61646941798824
 11
84.13057421251176
 21
158.61646941798824
  0
LINE
  8
_0-0_
  6
CONTINUOUS
 62
    7
 10
83.63057421251176
 20
159.11646941798824
 11
83.63057421251176
 21
159.52779428339352
  0
LINE
  8
_0-0_
  6
CONTINUOUS
 62
    7
 10
83.38057421251176
 20
159.96080698528556
 11
81.88057421251176
 21
160.82683238907009
  0
LINE
  8
_0-0_
  6
CONTINUOUS
 62
    7
 10
81.63057421251176
 20
161.25984509096213
 11
81.63057421251176
 21
169.37309374501396
  0
ARC
  8
_0-0_
  6
CONTINUOUS
 62
    7
 10
86.63057421251176
 20
170.28441861041924
 40
1
 50
0
 51
59.999999999999957
  0
ARC
  8
_0-0_
  6
CONTINUOUS
 62
    7
 10
86.63057421251176
 20
160.34852022555731
 40
1
 50
299.99999999999989
 51
0.0000000000000254
  0
ARC
  8
_0-0_
  6
CONTINUOUS
 62
    7
 10
85.496599616296749
 20
159.11646941798824
 40
0.5
 50
270
 51
299.99999999999994
  0
ARC
  8
_0-0_
  6
CONTINUOUS
 62
    7
 10
84.13057421251176
 20
159.11646941798824
 40
0.5
 50
180
 51
270
  0
ARC
  8
_0-0_
  6
CONTINUOUS
 62
    7
 10
83.13057421251176
 20
159.52779428339352
 40
0.5
 50
0
 51
60.000000000000036
  0
ARC
  8
_0-0_
  6
CONTINUOUS
 62
    7
 10
82.13057421251176
 20
161.25984509096213
 40
0.5
 50
179.99999999999997
 51
240.00000000000003
  0
ARC
  8
_0-0_
  6
CONTINUOUS
 62
    7
 10
84.13057421251176
 20
171.5164694179883
 40
0.5
 50
90
 51
180
  0
ARC
  8
_0-0_
  6
CONTINUOUS
 62
    7
 10
85.496599616296749
 20
171.5164694179883
 40
0.5
 50
59.999999999999986
 51
90
  0
ARC
  8
_0-0_
  6
CONTINUOUS
 62
    7
 10
83.13057421251176
 20
171.10514455258303
 40
0.5
 50
300.00000000000017
 51
0
  0
ARC
  8
_0-0_
  6
CONTINUOUS
 62
    7
 10
82.13057421251176
 20
169.37309374501396
 40
0.5
 50
120.00000000000001
 51
180
  0
LINE
  8
_0-0_
  6
CONTINUOUS
 62
    7
 10
53.351395853653003
 20
158.61646941798824
 11
53.351395853653003
 21
172.0164694179883
  0
LINE
  8
_0-0_
  6
CONTINUOUS
 62
    7
 10
21.351395853653003
 20
172.0164694179883
 11
21.351395853653003
 21
158.61646941798824
  0
LINE
  8
_0-0_
  6
CONTINUOUS
 62
    7
 10
81.88057421251176
 20
42.98358329157378
 11
83.38057421251176
 21
43.849608695358313
  0
LINE
  8
_0-0_
  6
CONTINUOUS
 62
    7
 10
83.63057421251176
 20
44.282621397250352
 11
83.63057421251176
 21
44.693946262655629
  0
LINE
  8
_0-0_
  6
CONTINUOUS
 62
    7
 10
84.13057421251176
 20
45.193946262655629
 11
85.496599616296749
 21
45.193946262655629
  0
LINE
  8
_0-0_
  6
CONTINUOUS
 62
    7
 10
85.746599616296749
 20
45.126958964547669
 11
87.13057421251176
 21
44.327920858871096
  0
LINE
  8
_0-0_
  6
CONTINUOUS
 62
    7
 10
87.63057421251176
 20
43.461895455086562
 11
87.63057421251176
 21
33.525997070224605
  0
LINE
  8
_0-0_
  6
CONTINUOUS
 62
    7
 10
87.13057421251176
 20
32.659971666440072
 11
85.746599616296749
 21
31.860933560763499
  0
LINE
  8
_0-0_
  6
CONTINUOUS
 62
    7
 10
85.496599616296749
 20
31.793946262655538
 11
84.13057421251176
 21
31.793946262655538
  0
LINE
  8
_0-0_
  6
CONTINUOUS
 62
    7
 10
83.63057421251176
 20
32.293946262655538
 11
83.63057421251176
 21
32.705271128060815
  0
LINE
  8
_0-0_
  6
CONTINUOUS
 62
    7
 10
83.38057421251176
 20
33.138283829952854
 11
81.88057421251176
 21
34.004309233737388
  0
LINE
  8
_0-0_
  6
CONTINUOUS
 62
    7
 10
81.63057421251176
 20
34.437321935629427
 11
81.63057421251176
 21
42.550570589681286
  0
ARC
  8
_0-0_
  6
CONTINUOUS
 62
    7
 10
86.63057421251176
 20
43.461895455086562
 40
1
 50
0
 51
59.999999999999957
  0
ARC
  8
_0-0_
  6
CONTINUOUS
 62
    7
 10
86.63057421251176
 20
33.525997070224605
 40
1
 50
299.99999999999989
 51
0.0000000000000254
  0
ARC
  8
_0-0_
  6
CONTINUOUS
 62
    7
 10
85.496599616296749
 20
32.293946262655538
 40
0.5
 50
270
 51
299.99999999999994
  0
ARC
  8
_0-0_
  6
CONTINUOUS
 62
    7
 10
84.13057421251176
 20
32.293946262655538
 40
0.5
 50
180
 51
270
  0
ARC
  8
_0-0_
  6
CONTINUOUS
 62
    7
 10
83.13057421251176
 20
32.705271128060815
 40
0.5
 50
0
 51
60.000000000000036
  0
ARC
  8
_0-0_
  6
CONTINUOUS
 62
    7
 10
82.13057421251176
 20
34.437321935629427
 40
0.5
 50
179.99999999999997
 51
240.00000000000003
  0
ARC
  8
_0-0_
  6
CONTINUOUS
 62
    7
 10
84.13057421251176
 20
44.693946262655629
 40
0.5
 50
90
 51
180
  0
ARC
  8
_0-0_
  6
CONTINUOUS
 62
    7
 10
85.496599616296749
 20
44.693946262655629
 40
0.5
 50
59.999999999999986
 51
90
  0
ARC
  8
_0-0_
  6
CONTINUOUS
 62
    7
 10
83.13057421251176
 20
44.282621397250352
 40
0.5
 50
300.00000000000017
 51
0
  0
ARC
  8
_0-0_
  6
CONTINUOUS
 62
    7
 10
82.13057421251176
 20
42.550570589681286
 40
0.5
 50
120.00000000000001
 51
180
  0
LINE
  8
_0-0_
  6
CONTINUOUS
 62
    7
 10
53.351395853653003
 20
31.793946262655538
 11
53.351395853653003
 21
45.193946262655629
  0
LINE
  8
_0-0_
  6
CONTINUOUS
 62
    7
 10
21.351395853653003
 20
45.193946262655629
 11
21.351395853653003
 21
31.793946262655538
  0
CIRCLE
  8
_0-0_
  6
CONTINUOUS
 62
    7
 10
47.351395853653003
 20
38.493946262655356
 40
2.5499999523162842
  0
CIRCLE
  8
_0-0_
  6
CONTINUOUS
 62
    7
 10
37.351395853653003
 20
38.493946262655356
 40
2.5499999523162842
  0
CIRCLE
  8
_0-0_
  6
CONTINUOUS
 62
    7
 10
27.351395853653003
 20
38.493946262655356
 40
2.5499999523162842
  0
CIRCLE
  8
_0-8_
  6
CONTINUOUS
 62
    7
 10
27.351395853653003
 20
83.692749064346742
 40
2.1500000953674316
  0
CIRCLE
  8
_0-8_
  6
CONTINUOUS
 62
    7
 10
37.351395853653003
 20
83.692749064346742
 40
2.1500000953674316
  0
CIRCLE
  8
_0-8_
  6
CONTINUOUS
 62
    7
 10
47.351395853653003
 20
83.692749064346742
 40
2.1500000953674316
  0
CIRCLE
  8
_0-8_
  6
CONTINUOUS
 62
    7
 10
27.351395853653003
 20
125.43517282826076
 40
1.7000000476837158
  0
CIRCLE
  8
_0-8_
  6
CONTINUOUS
 62
    7
 10
37.351395853653003
 20
125.43517282826076
 40
1.7000000476837158
  0
CIRCLE
  8
_0-8_
  6
CONTINUOUS
 62
    7
 10
47.351395853653003
 20
125.43517282826076
 40
1.7000000476837158
  0
LINE
  8
_0-0_
  6
CONTINUOUS
 62
    7
 10
53.351395853653003
 20
45.193946262655629
 11
31.247862188212139
 21
45.193946262655629
  0
LINE
  8
_0-0_
  6
CONTINUOUS
 62
    7
 10
30.37772347815303
 20
45.193946262655629
 11
21.351395853653003
 21
45.193946262655629
  0
LINE
  8
_0-0_
  6
CONTINUOUS
 62
    7
 10
21.351395853653003
 20
43.993946262655356
 11
30.699262509070422
 21
43.993946262655356
  0
LINE
  8
_0-0_
  6
CONTINUOUS
 62
    7
 10
31.569401219129531
 20
43.993946262655356
 11
53.351395853653003
 21
43.993946262655356
  0
LINE
  8
_0-0_
  6
CONTINUOUS
 62
    7
 10
53.351395853653003
 20
42.839245724655541
 11
31.878802295786386
 21
42.839245724655541
  0
LINE
  8
_0-0_
  6
CONTINUOUS
 62
    7
 10
31.008663585727277
 20
42.839245724655541
 11
21.351395853653003
 21
42.839245724655541
  0
LINE
  8
_0-0_
  6
CONTINUOUS
 62
    7
 10
53.351395853653003
 20
34.148646800655627
 11
34.207441259214988
 21
34.148646800655627
  0
LINE
  8
_0-0_
  6
CONTINUOUS
 62
    7
 10
33.337302549155879
 20
34.148646800655627
 11
21.351395853653003
 21
34.148646800655627
  0
LINE
  8
_0-0_
  6
CONTINUOUS
 62
    7
 10
21.351395853653003
 20
32.993946262655356
 11
33.646703625812847
 21
32.993946262655356
  0
LINE
  8
_0-0_
  6
CONTINUOUS
 62
    7
 10
34.516842335871956
 20
32.993946262655356
 11
53.351395853653003
 21
32.993946262655356
  0
LINE
  8
_0-0_
  6
CONTINUOUS
 62
    7
 10
21.351395853653003
 20
31.793946262655538
 11
33.968242656730126
 21
31.793946262655538
  0
LINE
  8
_0-0_
  6
CONTINUOUS
 62
    7
 10
34.838381366789235
 20
31.793946262655538
 11
53.351395853653003
 21
31.793946262655538
  0
LINE
  8
_0-0_
  6
CONTINUOUS
 62
    7
 10
53.351395853653003
 20
172.0164694179883
 11
31.247862188212139
 21
172.0164694179883
  0
LINE
  8
_0-0_
  6
CONTINUOUS
 62
    7
 10
30.37772347815303
 20
172.0164694179883
 11
21.351395853653003
 21
172.0164694179883
  0
LINE
  8
_0-0_
  6
CONTINUOUS
 62
    7
 10
21.351395853653003
 20
170.81646941798803
 11
30.699262509070422
 21
170.81646941798803
  0
LINE
  8
_0-0_
  6
CONTINUOUS
 62
    7
 10
31.569401219129531
 20
170.81646941798803
 11
53.351395853653003
 21
170.81646941798803
  0
LINE
  8
_0-0_
  6
CONTINUOUS
 62
    7
 10
53.351395853653003
 20
169.66176887998822
 11
31.878802295786386
 21
169.66176887998822
  0
LINE
  8
_0-0_
  6
CONTINUOUS
 62
    7
 10
31.008663585727277
 20
169.66176887998822
 11
21.351395853653003
 21
169.66176887998822
  0
LINE
  8
_0-0_
  6
CONTINUOUS
 62
    7
 10
53.351395853653003
 20
160.97116995598833
 11
34.207441259214988
 21
160.97116995598833
  0
LINE
  8
_0-0_
  6
CONTINUOUS
 62
    7
 10
33.337302549155879
 20
160.97116995598833
 11
21.351395853653003
 21
160.97116995598833
  0
LINE
  8
_0-0_
  6
CONTINUOUS
 62
    7
 10
21.351395853653003
 20
159.81646941798806
 11
33.646703625812847
 21
159.81646941798806
  0
LINE
  8
_0-0_
  6
CONTINUOUS
 62
    7
 10
34.516842335871956
 20
159.81646941798806
 11
53.351395853653003
 21
159.81646941798806
  0
LINE
  8
_0-0_
  6
CONTINUOUS
 62
    7
 10
21.351395853653003
 20
158.61646941798824
 11
33.968242656730126
 21
158.61646941798824
  0
LINE
  8
_0-0_
  6
CONTINUOUS
 62
    7
 10
34.838381366789235
 20
158.61646941798824
 11
53.351395853653003
 21
158.61646941798824
  0
LINE
  8
_0-0_
  6
CONTINUOUS
 62
    7
 10
53.351395853653003
 20
132.13517282826103
 11
31.247862188212139
 21
132.13517282826103
  0
LINE
  8
_0-0_
  6
CONTINUOUS
 62
    7
 10
30.37772347815303
 20
132.13517282826103
 11
21.351395853653003
 21
132.13517282826103
  0
LINE
  8
_0-0_
  6
CONTINUOUS
 62
    7
 10
21.351395853653003
 20
130.93517282826076
 11
30.699262509070422
 21
130.93517282826076
  0
LINE
  8
_0-0_
  6
CONTINUOUS
 62
    7
 10
31.569401219129531
 20
130.93517282826076
 11
53.351395853653003
 21
130.93517282826076
  0
LINE
  8
_0-0_
  6
CONTINUOUS
 62
    7
 10
53.351395853653003
 20
129.78047229026095
 11
31.878802295786386
 21
129.78047229026095
  0
LINE
  8
_0-0_
  6
CONTINUOUS
 62
    7
 10
31.008663585727277
 20
129.78047229026095
 11
21.351395853653003
 21
129.78047229026095
  0
LINE
  8
_0-0_
  6
CONTINUOUS
 62
    7
 10
53.351395853653003
 20
121.08987336626103
 11
34.207441259214988
 21
121.08987336626103
  0
LINE
  8
_0-0_
  6
CONTINUOUS
 62
    7
 10
33.337302549155879
 20
121.08987336626103
 11
21.351395853653003
 21
121.08987336626103
  0
LINE
  8
_0-0_
  6
CONTINUOUS
 62
    7
 10
21.351395853653003
 20
119.93517282826076
 11
33.646703625812847
 21
119.93517282826076
  0
LINE
  8
_0-0_
  6
CONTINUOUS
 62
    7
 10
34.516842335871956
 20
119.93517282826076
 11
53.351395853653003
 21
119.93517282826076
  0
LINE
  8
_0-0_
  6
CONTINUOUS
 62
    7
 10
21.351395853653003
 20
118.73517282826094
 11
33.968242656730126
 21
118.73517282826094
  0
LINE
  8
_0-0_
  6
CONTINUOUS
 62
    7
 10
34.838381366789235
 20
118.73517282826094
 11
53.351395853653003
 21
118.73517282826094
  0
LINE
  8
_0-0_
  6
CONTINUOUS
 62
    7
 10
53.351395853653003
 20
90.39274906434656
 11
31.247862188212139
 21
90.39274906434656
  0
LINE
  8
_0-0_
  6
CONTINUOUS
 62
    7
 10
30.37772347815303
 20
90.39274906434656
 11
21.351395853653003
 21
90.39274906434656
  0
LINE
  8
_0-0_
  6
CONTINUOUS
 62
    7
 10
21.351395853653003
 20
89.192749064346287
 11
30.699262509070422
 21
89.192749064346287
  0
LINE
  8
_0-0_
  6
CONTINUOUS
 62
    7
 10
31.569401219129531
 20
89.192749064346287
 11
53.351395853653003
 21
89.192749064346287
  0
LINE
  8
_0-0_
  6
CONTINUOUS
 62
    7
 10
53.351395853653003
 20
88.038048526346472
 11
31.878802295786386
 21
88.038048526346472
  0
LINE
  8
_0-0_
  6
CONTINUOUS
 62
    7
 10
31.008663585727277
 20
88.038048526346472
 11
21.351395853653003
 21
88.038048526346472
  0
LINE
  8
_0-0_
  6
CONTINUOUS
 62
    7
 10
53.351395853653003
 20
79.347449602346558
 11
34.207441259214988
 21
79.347449602346558
  0
LINE
  8
_0-0_
  6
CONTINUOUS
 62
    7
 10
33.337302549155879
 20
79.347449602346558
 11
21.351395853653003
 21
79.347449602346558
  0
LINE
  8
_0-0_
  6
CONTINUOUS
 62
    7
 10
21.351395853653003
 20
78.192749064346287
 11
33.646703625812847
 21
78.192749064346287
  0
LINE
  8
_0-0_
  6
CONTINUOUS
 62
    7
 10
34.516842335871956
 20
78.192749064346287
 11
53.351395853653003
 21
78.192749064346287
  0
LINE
  8
_0-0_
  6
CONTINUOUS
 62
    7
 10
21.351395853653003
 20
76.992749064346469
 11
33.968242656730126
 21
76.992749064346469
  0
LINE
  8
_0-0_
  6
CONTINUOUS
 62
    7
 10
34.838381366789235
 20
76.992749064346469
 11
53.351395853653003
 21
76.992749064346469
  0
LINE
  8
_0-8_
  6
CONTINUOUS
 62
    7
 10
21.351395853653003
 20
14.976958697816826
 11
21.351395853653003
 21
8.9769586978168263
  0
LINE
  8
_0-8_
  6
CONTINUOUS
 62
    7
 10
53.351395853653003
 20
14.976958697816826
 11
53.351395853653003
 21
8.9769586978168263
  0
LINE
  8
_0-8_
  6
CONTINUOUS
 62
    7
 10
53.351395853653003
 20
8.9769586978168263
 11
37.452965771282834
 21
8.9769586978168263
  0
LINE
  8
_0-8_
  6
CONTINUOUS
 62
    7
 10
36.582827061223725
 20
8.9769586978168263
 11
21.351395853653003
 21
8.9769586978168263
  0
LINE
  8
_0-8_
  6
CONTINUOUS
 62
    7
 10
53.351395853653003
 20
12.976958697816826
 11
36.381169001558419
 21
12.976958697816826
  0
LINE
  8
_0-8_
  6
CONTINUOUS
 62
    7
 10
35.51103029149931
 20
12.976958697816826
 11
21.351395853653003
 21
12.976958697816826
  0
LINE
  8
_0-8_
  6
CONTINUOUS
 62
    7
 10
53.351395853653003
 20
14.976958697816826
 11
35.845270616696098
 21
14.976958697816826
  0
LINE
  8
_0-8_
  6
CONTINUOUS
 62
    7
 10
34.975131906636989
 20
14.976958697816826
 11
21.351395853653003
 21
14.976958697816826
  0
LINE
  8
_0-1_
  6
CENTER1
 62
  152
 10
81.104114507070676
 20
83.692749064346287
 11
88.279117031406145
 21
83.692749064346287
  0
LINE
  8
_0-1_
  6
CENTER1
 62
  152
 10
21.351395853653003
 20
83.692749064346287
 11
53.351395853653003
 21
83.692749064346287
  0
LINE
  8
_0-1_
  6
CENTER1
 62
  152
 10
47.351395853653003
 20
79.347449602346558
 11
47.351395853653003
 21
88.038048526346472
  0
LINE
  8
_0-1_
  6
CENTER1
 62
  152
 10
37.351395853653003
 20
88.038048526346472
 11
37.351395853653003
 21
79.347449602346558
  0
LINE
  8
_0-1_
  6
CENTER1
 62
  152
 10
27.351395853653003
 20
79.347449602346558
 11
27.351395853653003
 21
88.038048526346472
  0
LINE
  8
_0-1_
  6
CENTER1
 62
  152
 10
81.104114507070676
 20
125.43517282826076
 11
88.279117031406145
 21
125.43517282826076
  0
LINE
  8
_0-1_
  6
CENTER1
 62
  152
 10
47.351395853653003
 20
121.08987336626103
 11
47.351395853653003
 21
129.78047229026095
  0
LINE
  8
_0-1_
  6
CENTER1
 62
  152
 10
37.351395853653003
 20
129.78047229026095
 11
37.351395853653003
 21
121.08987336626103
  0
LINE
  8
_0-1_
  6
CENTER1
 62
  152
 10
27.351395853653003
 20
121.08987336626103
 11
27.351395853653003
 21
129.78047229026095
  0
LINE
  8
_0-1_
  6
CENTER1
 62
  152
 10
81.104114507070676
 20
165.31646941798803
 11
88.279117031406145
 21
165.31646941798803
  0
LINE
  8
_0-1_
  6
CENTER1
 62
  152
 10
81.104114507070676
 20
38.493946262655356
 11
88.279117031406145
 21
38.493946262655356
  0
LINE
  8
_0-1_
  6
CENTER1
 62
  152
 10
47.351395853653003
 20
34.148646800655627
 11
47.351395853653003
 21
42.839245724655541
  0
LINE
  8
_0-1_
  6
CENTER1
 62
  152
 10
37.351395853653003
 20
42.839245724655541
 11
37.351395853653003
 21
34.148646800655627
  0
LINE
  8
_0-1_
  6
CENTER1
 62
  152
 10
27.351395853653003
 20
34.148646800655627
 11
27.351395853653003
 21
42.839245724655541
  0
CIRCLE
  8
_0-1_
  6
CONTINUOUS
 62
  152
 10
47.351395853653003
 20
38.493946262655356
 40
3
  0
CIRCLE
  8
_0-1_
  6
CONTINUOUS
 62
  152
 10
37.351395853653003
 20
38.493946262655356
 40
3
  0
CIRCLE
  8
_0-1_
  6
CONTINUOUS
 62
  152
 10
27.351395853653003
 20
38.493946262655356
 40
3
  0
CIRCLE
  8
_0-8_
  6
CONTINUOUS
 62
  152
 10
27.351395853653003
 20
83.692749064346742
 40
2.5
  0
CIRCLE
  8
_0-8_
  6
CONTINUOUS
 62
  152
 10
37.351395853653003
 20
83.692749064346742
 40
2.5
  0
CIRCLE
  8
_0-8_
  6
CONTINUOUS
 62
  152
 10
47.351395853653003
 20
83.692749064346742
 40
2.5
  0
CIRCLE
  8
_0-8_
  6
CONTINUOUS
 62
  152
 10
27.351395853653003
 20
125.43517282826076
 40
2
  0
CIRCLE
  8
_0-8_
  6
CONTINUOUS
 62
  152
 10
37.351395853653003
 20
125.43517282826076
 40
2
  0
CIRCLE
  8
_0-8_
  6
CONTINUOUS
 62
  152
 10
47.351395853653003
 20
125.43517282826076
 40
2
  0
LINE
  8
_0-1_
  6
PHANTOM1
 62
  152
 10
29.851723914562513
 20
47.157003358734528
 11
34.577124685790068
 21
29.521567594388216
  0
LINE
  8
_0-1_
  6
PHANTOM1
 62
  152
 10
30.721862624621622
 20
47.157003358734528
 11
35.447263395849177
 21
29.521567594388216
  0
LINE
  8
_0-1_
  6
CENTER1
 62
  152
 10
21.351395853653003
 20
38.493946262655356
 11
32.172983067441692
 21
38.493946262655356
  0
LINE
  8
_0-1_
  6
CENTER1
 62
  152
 10
33.043121777500801
 20
38.493946262655356
 11
53.351395853653003
 21
38.493946262655356
  0
LINE
  8
_0-1_
  6
PHANTOM1
 62
  152
 10
29.851723914562513
 20
92.355806160425459
 11
34.577124685790068
 21
74.720370396079147
  0
LINE
  8
_0-1_
  6
PHANTOM1
 62
  152
 10
30.721862624621622
 20
92.355806160425459
 11
35.447263395849177
 21
74.720370396079147
  0
LINE
  8
_0-1_
  6
PHANTOM1
 62
  152
 10
29.851723914562513
 20
134.09822992433993
 11
34.577124685790068
 21
116.46279415999362
  0
LINE
  8
_0-1_
  6
PHANTOM1
 62
  152
 10
30.721862624621622
 20
134.09822992433993
 11
35.447263395849177
 21
116.46279415999362
  0
LINE
  8
_0-1_
  6
PHANTOM1
 62
  152
 10
29.851723914562513
 20
173.9795265140672
 11
34.577124685790068
 21
156.34409074972086
  0
LINE
  8
_0-1_
  6
PHANTOM1
 62
  152
 10
30.721862624621622
 20
173.9795265140672
 11
35.447263395849177
 21
156.34409074972086
  0
LINE
  8
_0-1_
  6
CENTER1
 62
  152
 10
21.351395853653003
 20
125.43517282826076
 11
32.172983067441692
 21
125.43517282826076
  0
LINE
  8
_0-1_
  6
CENTER1
 62
  152
 10
33.043121777500801
 20
125.43517282826076
 11
53.351395853653003
 21
125.43517282826076
  0
TEXT
  8
_0-1_
 62
    7
 10
11.535137224480195
 20
174.59149191640063
 40
4.2999999999999998
 41
0.744186046511628
 50
0
  1
NTL
  0
TEXT
  8
_0-1_
 62
    7
 10
11.535137224480195
 20
134.71019532667333
 40
4.2999999999999998
 41
0.744186046511628
 50
0
  1
NTM4
  0
TEXT
  8
_0-1_
 62
    7
 10
11.535137224480195
 20
92.967771562758912
 40
4.2999999999999998
 41
0.744186046511628
 50
0
  1
NTM5
  0
TEXT
  8
_0-1_
 62
    7
 10
11.535137224480195
 20
47.768968761067981
 40
4.2999999999999998
 41
0.744186046511628
 50
0
  1
NTM6
  0
LINE
  8
_0-1_
  6
PHANTOM1
 62
  152
 10
34.66190202766893
 20
16.145948520573995
 11
36.855722739230941
 21
7.9584981623281692
  0
LINE
  8
_0-1_
  6
PHANTOM1
 62
  152
 10
35.532040737728039
 20
16.145948520573995
 11
37.725861449290051
 21
7.9584981623281692
  0
ENDSEC
  0
EOF
