  0
SECTION
  2
HEADER
  9
$ACADVER
  1
AC1009
  9
$INSBASE
 10
0
 20
0
 30
0
  9
$EXTMIN
 10
0
 20
0
  9
$EXTMAX
 10
1189
 20
841
  9
$LIMMIN
 10
0
 20
0
  9
$LIMMAX
 10
1189
 20
841
  9
$LTSCALE
 40
1
  0
ENDSEC
  0
SECTION
  2
TABLES
  0
TABLE
  2
LTYPE
 70
     9
  0
LTYPE
  2
CONTINUOUS
 70
    64
  3
実線
 72
    65
 73
     0
 40
0.0
  0
LTYPE
  2
DASHED1
 70
    64
  3
--  --  --  --  --  --  --  --  
 72
    65
 73
     2
 40
2.5
 49
1.25
 49
-1.25
  0
LTYPE
  2
DASHED2
 70
    64
  3
----    ----    ----    ----    
 72
    65
 73
     2
 40
5.0
 49
2.5
 49
-2.5
  0
LTYPE
  2
DASHED3
 70
    64
  3
------  ------  ------  ------  
 72
    65
 73
     2
 40
5.0
 49
3.75
 49
-1.25
  0
LTYPE
  2
CENTER1
 70
    64
  3
----- - ----- - ----- - ----- - 
 72
    65
 73
     4
 40
10.0
 49
6.25
 49
-1.25
 49
1.25
 49
-1.25
  0
LTYPE
  2
CENTER2
 70
    64
  3
----------  --  ----------  --  
 72
    65
 73
     4
 40
20.0
 49
12.5
 49
-2.5
 49
2.5
 49
-2.5
  0
LTYPE
  2
PHANTOM1
 70
    64
  3
--- - - --- - - --- - - --- - - 
 72
    65
 73
     6
 40
10.0
 49
3.25
 49
-1.25
 49
1.25
 49
-1.25
 49
1.25
 49
-1.25
  0
LTYPE
  2
PHANTOM2
 70
    64
  3
--------  -  -  --------  -  -  
 72
    65
 73
     6
 40
20.0
 49
10.0
 49
-2.5
 49
1.25
 49
-2.5
 49
1.25
 49
-2.5
  0
LTYPE
  2
DOT
 70
    64
  3
-   -   -   -   -   -   -   -   
 72
    65
 73
     2
 40
2.5
 49
0.625
 49
-1.875
  0
LTYPE
  2
DUMMY
 70
    64
  3
ダミー
 72
    65
 73
     0
 40
0.0
  0
LTYPE
  2
RAND1
 70
    64
  3
ランダム線1
 72
    65
 73
     4
 40
10.0
 49
1.0
 49
-2.0
 49
3.0
 49
-4.0
  0
LTYPE
  2
RAND2
 70
    64
  3
ランダム線2
 72
    65
 73
     4
 40
14.0
 49
2.0
 49
-3.0
 49
4.0
 49
-5.0
  0
LTYPE
  2
RAND3
 70
    64
  3
ランダム線3
 72
    65
 73
     4
 40
18.0
 49
3.0
 49
-4.0
 49
5.0
 49
-6.0
  0
LTYPE
  2
RAND4
 70
    64
  3
ランダム線4
 72
    65
 73
     4
 40
22.0
 49
4.0
 49
-5.0
 49
6.0
 49
-7.0
  0
LTYPE
  2
RAND5
 70
    64
  3
ランダム線5
 72
    65
 73
     4
 40
26.0
 49
5.0
 49
-6.0
 49
7.0
 49
-8.0
  0
LTYPE
  2
LONG1
 70
    64
  3
----------  --  ----------  --  
 72
    65
 73
     4
 40
40.0
 49
32.5
 49
-2.5
 49
2.5
 49
-2.5
  0
LTYPE
  2
LONG2
 70
    64
  3
--------  -  -  --------  -  -  
 72
    65
 73
     6
 40
40.0
 49
30.0
 49
-2.5
 49
1.25
 49
-2.5
 49
1.25
 49
-2.5
  0
LTYPE
  2
LONG3
 70
    64
  3
+++++++++++++++..+++++++++++++++
 72
    65
 73
     2
 40
40.0
 49
37.5
 49
-2.5
  0
LTYPE
  2
LONG4
 70
    64
  3
+++++++++++++++..+++++++++++++++
 72
    65
 73
     2
 40
80.0
 49
75.0
 49
-5.0
  0
LTYPE
  2
LONG5
 70
    64
  3
----------  --  ----------  --  
 72
    65
 73
     4
 40
60.0
 49
37.5
 49
-7.5
 49
7.5
 49
-7.5
  0
LTYPE
  2
dashed
 70
   64
  3
-------   -------------   ------
 72
   65
 73
    2
 40
7.5
 49
6
 49
-1.5
  0
LTYPE
  2
dashed_spaced
 70
   64
  3
----        --------        ----
 72
   65
 73
    2
 40
12
 49
6
 49
-6
  0
LTYPE
  2
long_dashed_dotted
 70
   64
  3
------------- --- --------------
 72
   65
 73
    4
 40
15.25
 49
12
 49
-1.5
 49
0.25
 49
-1.5
  0
LTYPE
  2
long_dashed_double-dotted
 70
   64
  3
----------- --- --- ------------
 72
   65
 73
    6
 40
17
 49
12
 49
-1.5
 49
0.25
 49
-1.5
 49
0.25
 49
-1.5
  0
LTYPE
  2
long_dashed_triplicate-dotted
 70
   64
  3
--------- --- --- --- ----------
 72
   65
 73
    8
 40
18.75
 49
12
 49
-1.5
 49
0.25
 49
-1.5
 49
0.25
 49
-1.5
 49
0.25
 49
-1.5
  0
LTYPE
  2
dotted
 70
   64
  3
   -       -       -       -    
 72
   65
 73
    2
 40
1.75
 49
0.25
 49
-1.5
  0
LTYPE
  2
chain
 70
   64
  3
-------------- -- --------------
 72
   65
 73
    4
 40
18.5
 49
12
 49
-1.5
 49
3.5
 49
-1.5
  0
LTYPE
  2
chain_double_dash
 70
   64
  3
------------ -- -- -------------
 72
   65
 73
    6
 40
23.5
 49
12
 49
-1.5
 49
3.5
 49
-1.5
 49
3.5
 49
-1.5
  0
LTYPE
  2
dashed_dotted
 70
   64
  3
-----------     -     ----------
 72
   65
 73
    4
 40
9.25
 49
6
 49
-1.5
 49
0.25
 49
-1.5
  0
LTYPE
  2
double-dashed_dotted
 70
   64
  3
------   -----------   -   -----
 72
   65
 73
    6
 40
16.75
 49
6
 49
-1.5
 49
6
 49
-1.5
 49
0.25
 49
-1.5
  0
LTYPE
  2
dashed_double-dotted
 70
   64
  3
---------    -    -    ---------
 72
   65
 73
    6
 40
11
 49
6
 49
-1.5
 49
0.25
 49
-1.5
 49
0.25
 49
-1.5
  0
LTYPE
  2
double-dashed_double-dotted
 70
   64
  3
-----   ---------   -   -   ----
 72
   65
 73
    8
 40
18.5
 49
6
 49
-1.5
 49
6
 49
-1.5
 49
0.25
 49
-1.5
 49
0.25
 49
-1.5
  0
LTYPE
  2
dashed_triplicate-dotted
 70
   64
  3
-------    -    -    -    ------
 72
   65
 73
    8
 40
12.75
 49
6
 49
-1.5
 49
0.25
 49
-1.5
 49
0.25
 49
-1.5
 49
0.25
 49
-1.5
  0
LTYPE
  2
double-dashed_triplicate-dotted
 70
   64
  3
-----  ---------  -  -  -  -----
 72
   65
 73
   10
 40
20.25
 49
6
 49
-1.5
 49
6
 49
-1.5
 49
0.25
 49
-1.5
 49
0.25
 49
-1.5
 49
0.25
 49
-1.5
  0
LTYPE
  2
undefined
 70
   64
  3
--------------------------------
 72
   65
 73
    0
 40
0
  0
ENDTAB
  0
TABLE
  2
STYLE
  5
3
100
AcDbSymbolTable
 70
     1
  0
STYLE
  5
10
100
AcDbSymbolTableRecord
100
AcDbTextStyleTableRecord
  2
STANDARD
 70
     0
 40
0.0
 41
1.0
 50
0.0
 71
     0
 42
0.2
  3
txt
  4
bigfont.shx
  0
STYLE
  5
26
100
AcDbSymbolTableRecord
100
AcDbTextStyleTableRecord
  2
TATEGAKI
 70
    68
 40
0.0
 41
1.0
 50
0.0
 71
     0
 42
1.0
  3
txt
  4
bigfont.shx
  0
ENDTAB
  0
TABLE
  2
LAYER
 70
    4
  0
LAYER
  2
_0-0_
 70
   64
 62
    7
  6
CONTINUOUS
  0
LAYER
  2
_0-1_
 70
   64
 62
    7
  6
CONTINUOUS
  0
LAYER
  2
_0-f_
 70
   64
 62
    7
  6
CONTINUOUS
  0
LAYER
  2
ADD_LINE
 70
   64
 62
    7
  6
CONTINUOUS
  0
ENDTAB
  0
ENDSEC
  0
SECTION
  2
BLOCKS
  0
ENDSEC
  0
SECTION
  2
ENTITIES
  0
TEXT
  8
_0-f_
 62
    7
 10
6.1960040801843661
 20
5.0249689551179131
 40
4.2999999999999998
 41
0.744186046511628
 50
0
  1
NS40A
  0
LINE
  8
_0-0_
  6
CONTINUOUS
 62
    7
 10
11.333258347369565
 20
39.646239827628904
 11
35.540486186502903
 21
39.646239827628904
  0
LINE
  8
_0-0_
  6
CONTINUOUS
 62
    7
 10
35.540486186502903
 20
39.646239827628904
 11
35.540486186502903
 21
40.246239827628813
  0
LINE
  8
_0-0_
  6
CONTINUOUS
 62
    7
 10
35.540486186502903
 20
40.246239827628813
 11
32.877311471900839
 21
41.146239827628904
  0
LINE
  8
_0-0_
  6
CONTINUOUS
 62
    7
 10
32.877311471900839
 20
41.146239827628904
 11
12.874119455264463
 21
41.146239827628904
  0
LINE
  8
_0-0_
  6
CONTINUOUS
 62
    7
 10
12.874119455264463
 20
41.146239827628904
 11
12.874119455264463
 21
41.446239827629086
  0
LINE
  8
_0-0_
  6
CONTINUOUS
 62
    7
 10
13.703439092148301
 20
41.446239827629086
 11
13.703439092148301
 21
50.246239827628813
  0
LINE
  8
_0-0_
  6
CONTINUOUS
 62
    7
 10
12.874119455264463
 20
50.246239827628813
 11
12.874119455264463
 21
50.546239827628995
  0
LINE
  8
_0-0_
  6
CONTINUOUS
 62
    7
 10
12.874119455264463
 20
50.546239827628995
 11
32.877311471900839
 21
50.546239827628995
  0
LINE
  8
_0-0_
  6
CONTINUOUS
 62
    7
 10
32.877311471900839
 20
50.546239827628995
 11
32.877311471900839
 21
41.146239827628904
  0
LINE
  8
_0-0_
  6
CONTINUOUS
 62
    7
 10
32.877311471900839
 20
41.446239827629086
 11
10.177249494451871
 21
41.446239827629086
  0
LINE
  8
_0-0_
  6
CONTINUOUS
 62
    7
 10
11.333258347369565
 20
41.446239827629086
 11
11.333258347369565
 21
39.646239827628904
  0
LINE
  8
_0-0_
  6
CONTINUOUS
 62
    7
 10
11.190867123585576
 20
43.446239827629086
 11
11.190867123585576
 21
48.246239827628813
  0
LINE
  8
_0-0_
  6
CONTINUOUS
 62
    7
 10
9.3637762083003508
 20
48.246239827628813
 11
9.3637762083003508
 21
43.446239827629086
  0
LINE
  8
_0-0_
  6
CONTINUOUS
 62
    7
 10
32.054460270348955
 20
44.846239827628949
 11
29.871741623894195
 21
44.846239827628949
  0
LINE
  8
_0-0_
  6
CONTINUOUS
 62
    7
 10
29.871741623894195
 20
44.846239827628949
 11
29.871741623894195
 21
46.846239827628949
  0
LINE
  8
_0-0_
  6
CONTINUOUS
 62
    7
 10
29.871741623894195
 20
46.846239827628949
 11
32.054460270348955
 21
46.846239827628949
  0
LINE
  8
_0-0_
  6
CONTINUOUS
 62
    7
 10
30.613658669779397
 20
46.846239827628949
 11
30.613658669779397
 21
50.246239827628813
  0
LINE
  8
_0-0_
  6
CONTINUOUS
 62
    7
 10
32.054460270348955
 20
50.246239827628813
 11
32.054460270348955
 21
41.446239827629086
  0
LINE
  8
_0-0_
  6
CONTINUOUS
 62
    7
 10
32.877311471900839
 20
41.446239827629086
 11
35.540486186502903
 21
40.246239827628813
  0
LINE
  8
_0-0_
  6
CONTINUOUS
 62
    7
 10
30.613658669779397
 20
41.446239827629086
 11
30.613658669779397
 21
44.846239827628949
  0
LINE
  8
_0-0_
  6
CONTINUOUS
 62
    7
 10
30.168822044516673
 20
44.846239827628949
 11
30.168822044516673
 21
46.846239827628949
  0
LINE
  8
_0-0_
  6
CONTINUOUS
 62
    7
 10
32.877311471900839
 20
50.246239827628813
 11
10.177249494451871
 21
50.246239827628813
  0
LINE
  8
_0-0_
  6
CONTINUOUS
 62
    7
 10
11.333258347369565
 20
50.246239827628813
 11
11.333258347369565
 21
52.046239827628995
  0
LINE
  8
_0-0_
  6
CONTINUOUS
 62
    7
 10
11.333258347369565
 20
52.046239827628995
 11
35.540486186502903
 21
52.046239827628995
  0
LINE
  8
_0-0_
  6
CONTINUOUS
 62
    7
 10
35.540486186502903
 20
52.046239827628995
 11
35.540486186502903
 21
51.446239827629086
  0
LINE
  8
_0-0_
  6
CONTINUOUS
 62
    7
 10
35.540486186502903
 20
51.446239827629086
 11
32.877311471900839
 21
50.546239827628995
  0
LINE
  8
_0-0_
  6
CONTINUOUS
 62
    7
 10
32.877311471900839
 20
50.246239827628813
 11
35.540486186502903
 21
51.446239827629086
  0
LINE
  8
_0-0_
  6
CONTINUOUS
 62
    7
 10
27.992993570996305
 20
20.164671843980329
 11
35.540486186502903
 21
16.29487138906228
  0
LINE
  8
_0-0_
  6
CONTINUOUS
 62
    7
 10
35.540486186502903
 20
16.29487138906228
 11
35.540486186502903
 21
16.094871389062234
  0
LINE
  8
_0-0_
  6
CONTINUOUS
 62
    7
 10
35.540486186502903
 20
16.094871389062234
 11
32.840486186503085
 21
16.094871389062234
  0
LINE
  8
_0-0_
  6
CONTINUOUS
 62
    7
 10
32.840486186503085
 20
16.094871389062234
 11
31.342733935642855
 21
16.199604429046019
  0
LINE
  8
_0-0_
  6
CONTINUOUS
 62
    7
 10
31.342733935642855
 20
16.199604429046019
 11
27.080492570667275
 21
18.384969081045199
  0
LINE
  8
_0-0_
  6
CONTINUOUS
 62
    7
 10
30.140486186502812
 20
20.094871389062234
 11
29.840486186502858
 21
20.094871389062234
  0
LINE
  8
_0-0_
  6
CONTINUOUS
 62
    7
 10
13.703439092148301
 20
17.34054300077895
 11
13.655120770516533
 21
16.418574501199544
  0
LINE
  8
_0-0_
  6
CONTINUOUS
 62
    7
 10
13.655120770516533
 20
16.418574501199544
 11
13.124478167473399
 21
16.182317192677999
  0
LINE
  8
_0-0_
  6
CONTINUOUS
 62
    7
 10
13.703439092148301
 20
17.34054300077895
 11
11.190867123585576
 21
22.983872039251935
  0
LINE
  8
_0-0_
  6
CONTINUOUS
 62
    7
 10
11.190867123585576
 20
22.983872039251935
 11
9.3637762083003508
 21
22.170398753100415
  0
LINE
  8
_0-0_
  6
CONTINUOUS
 62
    7
 10
9.3637762083003508
 20
22.170398753100415
 11
11.804196066755139
 21
16.689126007244738
  0
LINE
  8
_0-0_
  6
CONTINUOUS
 62
    7
 10
11.514166535136155
 20
17.34054300077895
 11
13.703439092148301
 21
17.34054300077895
  0
ARC
  8
_0-0_
  6
CONTINUOUS
 62
    7
 10
21.240486186502949
 20
6.9948713890620979
 40
12.800000000000001
 50
62.854577486365947
 51
126.07415324051182
  0
ARC
  8
_0-0_
  6
CONTINUOUS
 62
    7
 10
12.717741524397752
 20
17.095862650320612
 40
0.9999999999999996
 50
203.99999999999963
 51
294
  0
ARC
  8
_0-0_
  6
CONTINUOUS
 62
    7
 10
21.240486186502949
 20
6.9948713890620979
 40
14.800000000000001
 50
62.854577486365947
 51
124.4227825746209
  0
ARC
  8
_0-0_
  6
CONTINUOUS
 62
    7
 10
11.633258347369519
 20
41.146239827628904
 40
0.2999999999999998
 50
174.68431258116843
 51
180
  0
LINE
  8
_0-0_
  6
CONTINUOUS
 62
    7
 10
11.190867123585576
 20
43.446239827629086
 11
11.203225610666777
 21
43.098943472295218
  0
LINE
  8
_0-0_
  6
CONTINUOUS
 62
    7
 10
11.203225610666777
 20
43.098943472295218
 11
11.239925565534122
 21
42.762199540977747
  0
LINE
  8
_0-0_
  6
CONTINUOUS
 62
    7
 10
11.239925565534122
 20
42.762199540977747
 11
11.299851878629966
 21
42.446239827629086
  0
LINE
  8
_0-0_
  6
CONTINUOUS
 62
    7
 10
11.299851878629966
 20
42.446239827629086
 11
11.381183719254977
 21
42.160664608256013
  0
LINE
  8
_0-0_
  6
CONTINUOUS
 62
    7
 10
11.381183719254977
 20
42.160664608256013
 11
11.481449860587986
 21
41.914150941391142
  0
LINE
  8
_0-0_
  6
CONTINUOUS
 62
    7
 10
11.481449860587986
 20
41.914150941391142
 11
11.59760376666145
 21
41.714189020060189
  0
LINE
  8
_0-0_
  6
CONTINUOUS
 62
    7
 10
11.59760376666145
 20
41.714189020060189
 11
11.726116159816002
 21
41.566854586057275
  0
LINE
  8
_0-0_
  6
CONTINUOUS
 62
    7
 10
11.726116159816002
 20
41.566854586057275
 11
11.863082256016241
 21
41.476624321604675
  0
LINE
  8
_0-0_
  6
CONTINUOUS
 62
    7
 10
11.863082256016241
 20
41.476624321604675
 11
12.004340409737097
 21
41.446239827629086
  0
LINE
  8
_0-0_
  6
CONTINUOUS
 62
    7
 10
12.004340409737097
 20
50.246239827628813
 11
11.863082256016241
 21
50.215855333653224
  0
LINE
  8
_0-0_
  6
CONTINUOUS
 62
    7
 10
11.863082256016241
 20
50.215855333653224
 11
11.726116159816002
 21
50.125625069200623
  0
LINE
  8
_0-0_
  6
CONTINUOUS
 62
    7
 10
11.726116159816002
 20
50.125625069200623
 11
11.59760376666145
 21
49.978290635197709
  0
LINE
  8
_0-0_
  6
CONTINUOUS
 62
    7
 10
11.59760376666145
 20
49.978290635197709
 11
11.481449860587986
 21
49.778328713866756
  0
LINE
  8
_0-0_
  6
CONTINUOUS
 62
    7
 10
11.481449860587986
 20
49.778328713866756
 11
11.381183719254977
 21
49.531815047001885
  0
LINE
  8
_0-0_
  6
CONTINUOUS
 62
    7
 10
11.381183719254977
 20
49.531815047001885
 11
11.299851878629966
 21
49.246239827628813
  0
LINE
  8
_0-0_
  6
CONTINUOUS
 62
    7
 10
11.299851878629966
 20
49.246239827628813
 11
11.239925565534122
 21
48.930280114280151
  0
LINE
  8
_0-0_
  6
CONTINUOUS
 62
    7
 10
11.239925565534122
 20
48.930280114280151
 11
11.203225610666777
 21
48.59353618296268
  0
LINE
  8
_0-0_
  6
CONTINUOUS
 62
    7
 10
11.203225610666777
 20
48.59353618296268
 11
11.190867123585576
 21
48.246239827628813
  0
LINE
  8
_0-0_
  6
CONTINUOUS
 62
    7
 10
9.3637762083003508
 20
43.446239827629086
 11
9.3761346953815519
 21
43.098943472295218
  0
LINE
  8
_0-0_
  6
CONTINUOUS
 62
    7
 10
9.3761346953815519
 20
43.098943472295218
 11
9.4128346502488967
 21
42.762199540977747
  0
LINE
  8
_0-0_
  6
CONTINUOUS
 62
    7
 10
9.4128346502488967
 20
42.762199540977747
 11
9.47276096334474
 21
42.446239827629086
  0
LINE
  8
_0-0_
  6
CONTINUOUS
 62
    7
 10
9.47276096334474
 20
42.446239827629086
 11
9.5540928039697519
 21
42.160664608256013
  0
LINE
  8
_0-0_
  6
CONTINUOUS
 62
    7
 10
9.5540928039697519
 20
42.160664608256013
 11
9.6543589453027607
 21
41.914150941391142
  0
LINE
  8
_0-0_
  6
CONTINUOUS
 62
    7
 10
9.6543589453027607
 20
41.914150941391142
 11
9.7705128513762247
 21
41.714189020060189
  0
LINE
  8
_0-0_
  6
CONTINUOUS
 62
    7
 10
9.7705128513762247
 20
41.714189020060189
 11
9.899025244530776
 21
41.566854586057275
  0
LINE
  8
_0-0_
  6
CONTINUOUS
 62
    7
 10
9.899025244530776
 20
41.566854586057275
 11
10.035991340731016
 21
41.476624321604675
  0
LINE
  8
_0-0_
  6
CONTINUOUS
 62
    7
 10
10.035991340731016
 20
41.476624321604675
 11
10.177249494451871
 21
41.446239827629086
  0
LINE
  8
_0-0_
  6
CONTINUOUS
 62
    7
 10
10.177249494451871
 20
50.246239827628813
 11
10.035991340731016
 21
50.215855333653224
  0
LINE
  8
_0-0_
  6
CONTINUOUS
 62
    7
 10
10.035991340731016
 20
50.215855333653224
 11
9.899025244530776
 21
50.125625069200623
  0
LINE
  8
_0-0_
  6
CONTINUOUS
 62
    7
 10
9.899025244530776
 20
50.125625069200623
 11
9.7705128513762247
 21
49.978290635197709
  0
LINE
  8
_0-0_
  6
CONTINUOUS
 62
    7
 10
9.7705128513762247
 20
49.978290635197709
 11
9.6543589453027607
 21
49.778328713866756
  0
LINE
  8
_0-0_
  6
CONTINUOUS
 62
    7
 10
9.6543589453027607
 20
49.778328713866756
 11
9.5540928039697519
 21
49.531815047001885
  0
LINE
  8
_0-0_
  6
CONTINUOUS
 62
    7
 10
9.5540928039697519
 20
49.531815047001885
 11
9.47276096334474
 21
49.246239827628813
  0
LINE
  8
_0-0_
  6
CONTINUOUS
 62
    7
 10
9.47276096334474
 20
49.246239827628813
 11
9.4128346502488967
 21
48.930280114280151
  0
LINE
  8
_0-0_
  6
CONTINUOUS
 62
    7
 10
9.4128346502488967
 20
48.930280114280151
 11
9.3761346953815519
 21
48.59353618296268
  0
LINE
  8
_0-0_
  6
CONTINUOUS
 62
    7
 10
9.3761346953815519
 20
48.59353618296268
 11
9.3637762083003508
 21
48.246239827628813
  0
LINE
  8
_0-0_
  6
CONTINUOUS
 62
    7
 10
29.840486186397129
 20
20.094871389062234
 11
30.102519677154078
 21
19.083061632332203
  0
LINE
  8
_0-0_
  6
CONTINUOUS
 62
    7
 10
31.205024026723549
 20
18.517778292439004
 11
30.140486186502812
 21
20.094871389062234
  0
LINE
  8
_0-0_
  6
CONTINUOUS
 62
    7
 10
56.1849730126753
 20
40.996239827628926
 11
56.1849730126753
 21
39.496239827628926
  0
ARC
  8
_0-0_
  6
CONTINUOUS
 62
    7
 10
56.484973012675255
 20
40.996239827628926
 40
0.2999999999999998
 50
90
 51
180
  0
ARC
  8
_0-0_
  6
CONTINUOUS
 62
    7
 10
56.484973012675255
 20
50.396239827628904
 40
0.2999999999999998
 50
180
 51
270.00000000000023
  0
LINE
  8
_0-0_
  6
CONTINUOUS
 62
    7
 10
56.184973012675187
 20
51.89623982762896
 11
56.184973012675187
 21
50.396239827628904
  0
LINE
  8
_0-0_
  6
CONTINUOUS
 62
    7
 10
61.884972948918403
 20
39.496239827628983
 11
61.884972948918403
 21
51.89623982762896
  0
LINE
  8
_0-0_
  6
CONTINUOUS
 62
    7
 10
61.884972948918403
 20
39.496239827628983
 11
56.1849730126753
 21
39.496239827628983
  0
LINE
  8
_0-0_
  6
CONTINUOUS
 62
    7
 10
61.684972948918357
 20
39.496239827628983
 11
61.684972948918357
 21
40.141815528087818
  0
LINE
  8
_0-0_
  6
CONTINUOUS
 62
    7
 10
61.684972948918357
 20
40.141815528087818
 11
61.884972948918403
 21
40.096239827629006
  0
LINE
  8
_0-0_
  6
CONTINUOUS
 62
    7
 10
60.904465698518607
 20
40.996239827628983
 11
61.684972948918357
 21
40.141815528087818
  0
LINE
  8
_0-0_
  6
CONTINUOUS
 62
    7
 10
60.897374394898861
 20
41.296239827628938
 11
60.850559707975663
 21
41.290475411749924
  0
LINE
  8
_0-0_
  6
CONTINUOUS
 62
    7
 10
60.850559707975663
 20
41.290475411749924
 11
60.816075544904834
 21
41.27340368738237
  0
LINE
  8
_0-0_
  6
CONTINUOUS
 62
    7
 10
60.816075544904834
 20
41.27340368738237
 11
60.795247112734387
 21
41.245680711319721
  0
LINE
  8
_0-0_
  6
CONTINUOUS
 62
    7
 10
60.795247112734387
 20
41.245680711319721
 11
60.788874836431546
 21
41.208371861984915
  0
LINE
  8
_0-0_
  6
CONTINUOUS
 62
    7
 10
60.788874836431546
 20
41.208371861984915
 11
60.79720359900125
 21
41.162910897534857
  0
LINE
  8
_0-0_
  6
CONTINUOUS
 62
    7
 10
60.79720359900125
 20
41.162910897534857
 11
60.819913330768827
 21
41.11104485733847
  0
LINE
  8
_0-0_
  6
CONTINUOUS
 62
    7
 10
60.819913330768827
 20
41.11104485733847
 11
60.856131309478087
 21
41.054766924233775
  0
LINE
  8
_0-0_
  6
CONTINUOUS
 62
    7
 10
60.856131309478087
 20
41.054766924233775
 11
60.904465698518607
 21
40.996239827628983
  0
LINE
  8
_0-0_
  6
CONTINUOUS
 62
    7
 10
61.884972948918403
 20
41.296239827628938
 11
56.484973012675255
 21
41.296239827628938
  0
LINE
  8
_0-0_
  6
CONTINUOUS
 62
    7
 10
61.884972948918403
 20
51.296239827628995
 11
61.684972948918357
 21
51.250664127170182
  0
LINE
  8
_0-0_
  6
CONTINUOUS
 62
    7
 10
61.884972948918403
 20
50.096239827628949
 11
56.484973012675255
 21
50.096239827628949
  0
LINE
  8
_0-0_
  6
CONTINUOUS
 62
    7
 10
60.904465698518607
 20
50.39623982762896
 11
60.856131309478087
 21
50.337712731024112
  0
LINE
  8
_0-0_
  6
CONTINUOUS
 62
    7
 10
60.856131309478087
 20
50.337712731024112
 11
60.819913330768827
 21
50.281434797919417
  0
LINE
  8
_0-0_
  6
CONTINUOUS
 62
    7
 10
60.819913330768827
 20
50.281434797919417
 11
60.79720359900125
 21
50.229568757723086
  0
LINE
  8
_0-0_
  6
CONTINUOUS
 62
    7
 10
60.79720359900125
 20
50.229568757723086
 11
60.788874836431546
 21
50.184107793273029
  0
LINE
  8
_0-0_
  6
CONTINUOUS
 62
    7
 10
60.788874836431546
 20
50.184107793273029
 11
60.795247112734273
 21
50.146798943938222
  0
LINE
  8
_0-0_
  6
CONTINUOUS
 62
    7
 10
60.795247112734273
 20
50.146798943938222
 11
60.816075544904834
 21
50.119075967875574
  0
LINE
  8
_0-0_
  6
CONTINUOUS
 62
    7
 10
60.816075544904834
 20
50.119075967875574
 11
60.850559707975663
 21
50.10200424350802
  0
LINE
  8
_0-0_
  6
CONTINUOUS
 62
    7
 10
60.850559707975663
 20
50.10200424350802
 11
60.897374394898861
 21
50.096239827628949
  0
LINE
  8
_0-0_
  6
CONTINUOUS
 62
    7
 10
61.684972948918357
 20
51.250664127170182
 11
60.904465698518607
 21
50.39623982762896
  0
LINE
  8
_0-0_
  6
CONTINUOUS
 62
    7
 10
61.884972948918403
 20
51.89623982762896
 11
56.184973012675187
 21
51.89623982762896
  0
LINE
  8
_0-0_
  6
CONTINUOUS
 62
    7
 10
61.684972948918357
 20
51.250664127170182
 11
61.684972948918357
 21
51.89623982762896
  0
LINE
  8
_0-0_
  6
CONTINUOUS
 62
    7
 10
57.884972948918403
 20
46.696239827628972
 11
57.884972948918403
 21
44.696239827628915
  0
LINE
  8
_0-0_
  6
CONTINUOUS
 62
    7
 10
57.884972948918403
 20
46.696239827628972
 11
60.684972948918357
 21
46.696239827628972
  0
LINE
  8
_0-0_
  6
CONTINUOUS
 62
    7
 10
60.684972948918357
 20
46.696239827628972
 11
60.684972948918357
 21
50.096239827628949
  0
LINE
  8
_0-0_
  6
CONTINUOUS
 62
    7
 10
60.684972948918357
 20
44.696239827628972
 11
60.684972948918357
 21
41.296239827628938
  0
LINE
  8
_0-0_
  6
CONTINUOUS
 62
    7
 10
60.684972948918357
 20
44.696239827628915
 11
57.884972948918403
 21
44.696239827628915
  0
LINE
  8
_0-0_
  6
CONTINUOUS
 62
    7
 10
55.066300760277045
 20
43.296239827628938
 11
55.101407801947744
 21
42.906059172284415
  0
LINE
  8
_0-0_
  6
CONTINUOUS
 62
    7
 10
55.101407801947744
 20
42.906059172284415
 11
55.20537978295738
 21
42.530872941586949
  0
LINE
  8
_0-0_
  6
CONTINUOUS
 62
    7
 10
55.20537978295738
 20
42.530872941586949
 11
55.374221118150217
 21
42.185099332819561
  0
LINE
  8
_0-0_
  6
CONTINUOUS
 62
    7
 10
55.374221118150217
 20
42.185099332819561
 11
55.601443329322137
 21
41.882026232633109
  0
LINE
  8
_0-0_
  6
CONTINUOUS
 62
    7
 10
55.601443329322137
 20
41.882026232633109
 11
55.87831439381398
 21
41.633300570984488
  0
LINE
  8
_0-0_
  6
CONTINUOUS
 62
    7
 10
55.87831439381398
 20
41.633300570984488
 11
56.194194311265733
 21
41.448480736123429
  0
LINE
  8
_0-0_
  6
CONTINUOUS
 62
    7
 10
56.194194311265733
 20
41.448480736123429
 11
56.536943992886336
 21
41.334669251071432
  0
LINE
  8
_0-0_
  6
CONTINUOUS
 62
    7
 10
56.536943992886336
 20
41.334669251071432
 11
56.893391759855945
 21
41.296239827628938
  0
LINE
  8
_0-0_
  6
CONTINUOUS
 62
    7
 10
55.066300760277045
 20
43.296239827628938
 11
55.066300760277045
 21
48.39623982762896
  0
LINE
  8
_0-0_
  6
CONTINUOUS
 62
    7
 10
56.220050591076415
 20
50.255470120163636
 11
55.897727368208962
 21
50.07318323600839
  0
LINE
  8
_0-0_
  6
CONTINUOUS
 62
    7
 10
55.897727368208962
 20
50.07318323600839
 11
55.614661990085779
 21
49.824776492494152
  0
LINE
  8
_0-0_
  6
CONTINUOUS
 62
    7
 10
55.614661990085779
 20
49.824776492494152
 11
55.382015383722546
 21
49.520044268407389
  0
LINE
  8
_0-0_
  6
CONTINUOUS
 62
    7
 10
55.382015383722546
 20
49.520044268407389
 11
55.208960524675149
 21
49.171001788410933
  0
LINE
  8
_0-0_
  6
CONTINUOUS
 62
    7
 10
55.208960524675149
 20
49.171001788410933
 11
55.102320757657708
 21
48.791411377203701
  0
LINE
  8
_0-0_
  6
CONTINUOUS
 62
    7
 10
55.102320757657708
 20
48.791411377203701
 11
55.066300760277045
 21
48.39623982762896
  0
LINE
  8
_0-1_
  6
CENTER1
 62
  152
 10
6.3455708436454188
 20
45.846239827628949
 11
35.364521502983507
 21
45.846239827628949
  0
LINE
  8
_0-1_
  6
CENTER1
 62
  152
 10
21.240486186502949
 20
53.453898937826068
 11
21.240486186502949
 21
37.292560971088676
  0
LINE
  8
_0-1_
  6
CENTER1
 62
  152
 10
52.751250069996104
 20
45.846239827628949
 11
64.240002998185219
 21
45.846239827628949
  0
LINE
  8
_0-1_
  6
DASHED2
 62
  152
 10
30.576833384381416
 20
17.29487138906228
 11
32.017634984950973
 21
17.29487138906228
  0
LINE
  8
_0-1_
  6
DASHED2
 62
  152
 10
30.102519677154078
 20
19.083061632332203
 11
30.773705660355404
 21
16.491360379100854
  0
LINE
  8
_0-1_
  6
DASHED2
 62
  152
 10
32.840486186502858
 20
16.094871389062234
 11
31.205024026723549
 21
18.517778292439004
  0
LINE
  8
_0-1_
  6
DASHED2
 62
  152
 10
32.840486186502858
 20
17.655754593595418
 11
32.840486186502858
 21
16.094871389062234
  0
ARC
  8
_0-1_
  6
DASHED2
 62
  152
 10
21.240486186502949
 20
6.9948713890620979
 40
14.800000000000001
 50
124.4227825746209
 51
132.42393302943444
  0
ENDSEC
  0
EOF
