  0
SECTION
  2
HEADER
  9
$ACADVER
  1
AC1009
  9
$INSBASE
 10
0
 20
0
 30
0
  9
$EXTMIN
 10
0
 20
0
  9
$EXTMAX
 10
1189
 20
841
  9
$LIMMIN
 10
0
 20
0
  9
$LIMMAX
 10
1189
 20
841
  9
$LTSCALE
 40
1
  0
ENDSEC
  0
SECTION
  2
TABLES
  0
TABLE
  2
LTYPE
 70
     9
  0
LTYPE
  2
CONTINUOUS
 70
    64
  3
実線
 72
    65
 73
     0
 40
0.0
  0
LTYPE
  2
DASHED1
 70
    64
  3
--  --  --  --  --  --  --  --  
 72
    65
 73
     2
 40
2.5
 49
1.25
 49
-1.25
  0
LTYPE
  2
DASHED2
 70
    64
  3
----    ----    ----    ----    
 72
    65
 73
     2
 40
5.0
 49
2.5
 49
-2.5
  0
LTYPE
  2
DASHED3
 70
    64
  3
------  ------  ------  ------  
 72
    65
 73
     2
 40
5.0
 49
3.75
 49
-1.25
  0
LTYPE
  2
CENTER1
 70
    64
  3
----- - ----- - ----- - ----- - 
 72
    65
 73
     4
 40
10.0
 49
6.25
 49
-1.25
 49
1.25
 49
-1.25
  0
LTYPE
  2
CENTER2
 70
    64
  3
----------  --  ----------  --  
 72
    65
 73
     4
 40
20.0
 49
12.5
 49
-2.5
 49
2.5
 49
-2.5
  0
LTYPE
  2
PHANTOM1
 70
    64
  3
--- - - --- - - --- - - --- - - 
 72
    65
 73
     6
 40
10.0
 49
3.25
 49
-1.25
 49
1.25
 49
-1.25
 49
1.25
 49
-1.25
  0
LTYPE
  2
PHANTOM2
 70
    64
  3
--------  -  -  --------  -  -  
 72
    65
 73
     6
 40
20.0
 49
10.0
 49
-2.5
 49
1.25
 49
-2.5
 49
1.25
 49
-2.5
  0
LTYPE
  2
DOT
 70
    64
  3
-   -   -   -   -   -   -   -   
 72
    65
 73
     2
 40
2.5
 49
0.625
 49
-1.875
  0
LTYPE
  2
DUMMY
 70
    64
  3
ダミー
 72
    65
 73
     0
 40
0.0
  0
LTYPE
  2
RAND1
 70
    64
  3
ランダム線1
 72
    65
 73
     4
 40
10.0
 49
1.0
 49
-2.0
 49
3.0
 49
-4.0
  0
LTYPE
  2
RAND2
 70
    64
  3
ランダム線2
 72
    65
 73
     4
 40
14.0
 49
2.0
 49
-3.0
 49
4.0
 49
-5.0
  0
LTYPE
  2
RAND3
 70
    64
  3
ランダム線3
 72
    65
 73
     4
 40
18.0
 49
3.0
 49
-4.0
 49
5.0
 49
-6.0
  0
LTYPE
  2
RAND4
 70
    64
  3
ランダム線4
 72
    65
 73
     4
 40
22.0
 49
4.0
 49
-5.0
 49
6.0
 49
-7.0
  0
LTYPE
  2
RAND5
 70
    64
  3
ランダム線5
 72
    65
 73
     4
 40
26.0
 49
5.0
 49
-6.0
 49
7.0
 49
-8.0
  0
LTYPE
  2
LONG1
 70
    64
  3
----------  --  ----------  --  
 72
    65
 73
     4
 40
40.0
 49
32.5
 49
-2.5
 49
2.5
 49
-2.5
  0
LTYPE
  2
LONG2
 70
    64
  3
--------  -  -  --------  -  -  
 72
    65
 73
     6
 40
40.0
 49
30.0
 49
-2.5
 49
1.25
 49
-2.5
 49
1.25
 49
-2.5
  0
LTYPE
  2
LONG3
 70
    64
  3
+++++++++++++++..+++++++++++++++
 72
    65
 73
     2
 40
40.0
 49
37.5
 49
-2.5
  0
LTYPE
  2
LONG4
 70
    64
  3
+++++++++++++++..+++++++++++++++
 72
    65
 73
     2
 40
80.0
 49
75.0
 49
-5.0
  0
LTYPE
  2
LONG5
 70
    64
  3
----------  --  ----------  --  
 72
    65
 73
     4
 40
60.0
 49
37.5
 49
-7.5
 49
7.5
 49
-7.5
  0
LTYPE
  2
dashed
 70
   64
  3
-------   -------------   ------
 72
   65
 73
    2
 40
7.5
 49
6
 49
-1.5
  0
LTYPE
  2
dashed_spaced
 70
   64
  3
----        --------        ----
 72
   65
 73
    2
 40
12
 49
6
 49
-6
  0
LTYPE
  2
long_dashed_dotted
 70
   64
  3
------------- --- --------------
 72
   65
 73
    4
 40
15.25
 49
12
 49
-1.5
 49
0.25
 49
-1.5
  0
LTYPE
  2
long_dashed_double-dotted
 70
   64
  3
----------- --- --- ------------
 72
   65
 73
    6
 40
17
 49
12
 49
-1.5
 49
0.25
 49
-1.5
 49
0.25
 49
-1.5
  0
LTYPE
  2
long_dashed_triplicate-dotted
 70
   64
  3
--------- --- --- --- ----------
 72
   65
 73
    8
 40
18.75
 49
12
 49
-1.5
 49
0.25
 49
-1.5
 49
0.25
 49
-1.5
 49
0.25
 49
-1.5
  0
LTYPE
  2
dotted
 70
   64
  3
   -       -       -       -    
 72
   65
 73
    2
 40
1.75
 49
0.25
 49
-1.5
  0
LTYPE
  2
chain
 70
   64
  3
-------------- -- --------------
 72
   65
 73
    4
 40
18.5
 49
12
 49
-1.5
 49
3.5
 49
-1.5
  0
LTYPE
  2
chain_double_dash
 70
   64
  3
------------ -- -- -------------
 72
   65
 73
    6
 40
23.5
 49
12
 49
-1.5
 49
3.5
 49
-1.5
 49
3.5
 49
-1.5
  0
LTYPE
  2
dashed_dotted
 70
   64
  3
-----------     -     ----------
 72
   65
 73
    4
 40
9.25
 49
6
 49
-1.5
 49
0.25
 49
-1.5
  0
LTYPE
  2
double-dashed_dotted
 70
   64
  3
------   -----------   -   -----
 72
   65
 73
    6
 40
16.75
 49
6
 49
-1.5
 49
6
 49
-1.5
 49
0.25
 49
-1.5
  0
LTYPE
  2
dashed_double-dotted
 70
   64
  3
---------    -    -    ---------
 72
   65
 73
    6
 40
11
 49
6
 49
-1.5
 49
0.25
 49
-1.5
 49
0.25
 49
-1.5
  0
LTYPE
  2
double-dashed_double-dotted
 70
   64
  3
-----   ---------   -   -   ----
 72
   65
 73
    8
 40
18.5
 49
6
 49
-1.5
 49
6
 49
-1.5
 49
0.25
 49
-1.5
 49
0.25
 49
-1.5
  0
LTYPE
  2
dashed_triplicate-dotted
 70
   64
  3
-------    -    -    -    ------
 72
   65
 73
    8
 40
12.75
 49
6
 49
-1.5
 49
0.25
 49
-1.5
 49
0.25
 49
-1.5
 49
0.25
 49
-1.5
  0
LTYPE
  2
double-dashed_triplicate-dotted
 70
   64
  3
-----  ---------  -  -  -  -----
 72
   65
 73
   10
 40
20.25
 49
6
 49
-1.5
 49
6
 49
-1.5
 49
0.25
 49
-1.5
 49
0.25
 49
-1.5
 49
0.25
 49
-1.5
  0
LTYPE
  2
undefined
 70
   64
  3
--------------------------------
 72
   65
 73
    0
 40
0
  0
ENDTAB
  0
TABLE
  2
STYLE
  5
3
100
AcDbSymbolTable
 70
     1
  0
STYLE
  5
10
100
AcDbSymbolTableRecord
100
AcDbTextStyleTableRecord
  2
STANDARD
 70
     0
 40
0.0
 41
1.0
 50
0.0
 71
     0
 42
0.2
  3
txt
  4
bigfont.shx
  0
STYLE
  5
26
100
AcDbSymbolTableRecord
100
AcDbTextStyleTableRecord
  2
TATEGAKI
 70
    68
 40
0.0
 41
1.0
 50
0.0
 71
     0
 42
1.0
  3
txt
  4
bigfont.shx
  0
ENDTAB
  0
TABLE
  2
LAYER
 70
    3
  0
LAYER
  2
_0-0_
 70
   64
 62
    7
  6
CONTINUOUS
  0
LAYER
  2
_0-f_
 70
   64
 62
    7
  6
CONTINUOUS
  0
LAYER
  2
ADD_LINE
 70
   64
 62
    7
  6
CONTINUOUS
  0
ENDTAB
  0
ENDSEC
  0
SECTION
  2
BLOCKS
  0
ENDSEC
  0
SECTION
  2
ENTITIES
  0
TEXT
  8
_0-f_
 62
    7
 10
2.5393254792155631
 20
3.2136855590055688
 40
4.2999999999999998
 41
0.744186046511628
 50
0
  1
NS25
  0
LINE
  8
_0-0_
  6
DASHED2
 62
    7
 10
21.595340365149013
 20
13.479075104571791
 11
21.46328955758031
 21
13.555314673868338
  0
LINE
  8
_0-0_
  6
DASHED2
 62
    7
 10
21.46328955758031
 20
13.555314673868338
 11
20.165236054094066
 21
13.555314673868338
  0
LINE
  8
_0-0_
  6
CONTINUOUS
 62
    7
 10
8.0953403651492408
 20
15.855314673868122
 11
8.0953403651492408
 21
13.255314673868327
  0
LINE
  8
_0-0_
  6
CONTINUOUS
 62
    7
 10
8.0953403651492408
 20
13.255314673868327
 11
10.395340365149195
 21
12.804759323921871
  0
LINE
  8
_0-0_
  6
CONTINUOUS
 62
    7
 10
10.395340365149195
 20
12.804759323921871
 11
10.395340365149195
 21
12.355314673868349
  0
LINE
  8
_0-0_
  6
CONTINUOUS
 62
    7
 10
8.0953403651492408
 20
13.555314673868338
 11
20.165236054094066
 21
13.555314673868338
  0
LINE
  8
_0-0_
  6
CONTINUOUS
 62
    7
 10
20.212773681504814
 20
13.515425868240982
 11
21.595340365207221
 21
12.355314673868349
  0
LINE
  8
_0-0_
  6
CONTINUOUS
 62
    7
 10
21.595340365149013
 20
12.355314673868349
 11
21.595340365149013
 21
13.479075104571791
  0
LINE
  8
_0-0_
  6
CONTINUOUS
 62
    7
 10
21.595340365149013
 20
13.479075104571791
 11
23.19534036514915
 21
12.555314673868338
  0
LINE
  8
_0-0_
  6
CONTINUOUS
 62
    7
 10
23.19534036514915
 20
12.555314673868338
 11
23.19534036514915
 21
12.355314673868349
  0
LINE
  8
_0-0_
  6
CONTINUOUS
 62
    7
 10
23.19534036514915
 20
12.355314673868349
 11
6.6953403651491499
 21
12.355314673868349
  0
LINE
  8
_0-0_
  6
CONTINUOUS
 62
    7
 10
6.6953403651491499
 20
12.355314673868349
 11
6.6953403651491499
 21
15.855314673868122
  0
LINE
  8
_0-0_
  6
CONTINUOUS
 62
    7
 10
6.6953403651491499
 20
15.855314673868122
 11
8.0953403651492408
 21
15.855314673868122
  0
LINE
  8
_0-0_
  6
CONTINUOUS
 62
    7
 10
16.82503800212362
 20
15.471335974675014
 11
20.212773681504814
 21
13.515425868240982
  0
LINE
  8
_0-0_
  6
CONTINUOUS
 62
    7
 10
21.595340365149013
 20
13.479075104571791
 11
19.680229257351584
 21
15.086044128788103
  0
LINE
  8
_0-0_
  6
CONTINUOUS
 62
    7
 10
19.680229257351584
 20
15.086044128788103
 11
19.423114213476993
 21
14.779626351540514
  0
LINE
  8
_0-0_
  6
CONTINUOUS
 62
    7
 10
19.423114213476993
 20
14.779626351540514
 11
16.82503800212362
 21
16.279626351540514
  0
LINE
  8
_0-0_
  6
CONTINUOUS
 62
    7
 10
16.82503800212362
 20
16.279626351540514
 11
16.82503800212362
 21
15.471335974675014
  0
LINE
  8
_0-0_
  6
CONTINUOUS
 62
    7
 10
23.19534036514915
 20
35.398163751543279
 11
6.6953403651491499
 21
35.398163751543279
  0
LINE
  8
_0-0_
  6
CONTINUOUS
 62
    7
 10
6.6953403651491499
 20
35.398163751543279
 11
6.6953403651491499
 21
43.898163751543279
  0
LINE
  8
_0-0_
  6
CONTINUOUS
 62
    7
 10
6.6953403651491499
 20
43.898163751543279
 11
23.19534036514915
 21
43.898163751543279
  0
LINE
  8
_0-0_
  6
CONTINUOUS
 62
    7
 10
23.19534036514915
 20
43.898163751543279
 11
23.19534036514915
 21
35.398163751543279
  0
LINE
  8
_0-0_
  6
CONTINUOUS
 62
    7
 10
21.46328955758031
 20
35.398163751543279
 11
21.46328955758031
 21
36.698163751543234
  0
LINE
  8
_0-0_
  6
CONTINUOUS
 62
    7
 10
21.610291574149187
 20
36.698163751543234
 11
21.610291574149187
 21
42.598163751543211
  0
LINE
  8
_0-0_
  6
CONTINUOUS
 62
    7
 10
21.610291574149187
 20
42.598163751543211
 11
8.0953403651490135
 21
42.598163751543211
  0
LINE
  8
_0-0_
  6
CONTINUOUS
 62
    7
 10
8.0953403651490135
 20
43.898163751543279
 11
8.0953403651490135
 21
35.398163751543279
  0
LINE
  8
_0-0_
  6
CONTINUOUS
 62
    7
 10
8.0953403651490135
 20
36.698163751543234
 11
21.610291574149187
 21
36.698163751543234
  0
LINE
  8
_0-0_
  6
CONTINUOUS
 62
    7
 10
21.610291574149187
 20
38.148163751543279
 11
16.82503800212362
 21
38.148163751543279
  0
LINE
  8
_0-0_
  6
CONTINUOUS
 62
    7
 10
16.82503800212362
 20
38.148163751543279
 11
16.82503800212362
 21
41.148163751543279
  0
LINE
  8
_0-0_
  6
CONTINUOUS
 62
    7
 10
16.82503800212362
 20
41.148163751543279
 11
21.610291574149187
 21
41.148163751543279
  0
LINE
  8
_0-0_
  6
CONTINUOUS
 62
    7
 10
21.46328955758031
 20
42.598163751543211
 11
21.46328955758031
 21
43.898163751543279
  0
LINE
  8
_0-0_
  6
CONTINUOUS
 62
    7
 10
19.680229257351584
 20
41.148163751543279
 11
19.680229257351584
 21
38.148163751543279
  0
LINE
  8
_0-0_
  6
CONTINUOUS
 62
    7
 10
19.423114213451754
 20
38.148163751543279
 11
19.423114213451754
 21
41.148163751543279
  0
LINE
  8
_0-0_
  6
CONTINUOUS
 62
    7
 10
10.395340365149195
 20
42.598163751543211
 11
10.395340365149195
 21
36.698163751543234
  0
ENDSEC
  0
EOF
