  0
SECTION
  2
HEADER
  9
$ACADVER
  1
AC1009
  9
$INSBASE
 10
0
 20
0
 30
0
  9
$EXTMIN
 10
0
 20
0
  9
$EXTMAX
 10
1189
 20
841
  9
$LIMMIN
 10
0
 20
0
  9
$LIMMAX
 10
1189
 20
841
  9
$LTSCALE
 40
1
  0
ENDSEC
  0
SECTION
  2
TABLES
  0
TABLE
  2
LTYPE
 70
     9
  0
LTYPE
  2
CONTINUOUS
 70
    64
  3
実線
 72
    65
 73
     0
 40
0.0
  0
LTYPE
  2
DASHED1
 70
    64
  3
--  --  --  --  --  --  --  --  
 72
    65
 73
     2
 40
2.5
 49
1.25
 49
-1.25
  0
LTYPE
  2
DASHED2
 70
    64
  3
----    ----    ----    ----    
 72
    65
 73
     2
 40
5.0
 49
2.5
 49
-2.5
  0
LTYPE
  2
DASHED3
 70
    64
  3
------  ------  ------  ------  
 72
    65
 73
     2
 40
5.0
 49
3.75
 49
-1.25
  0
LTYPE
  2
CENTER1
 70
    64
  3
----- - ----- - ----- - ----- - 
 72
    65
 73
     4
 40
10.0
 49
6.25
 49
-1.25
 49
1.25
 49
-1.25
  0
LTYPE
  2
CENTER2
 70
    64
  3
----------  --  ----------  --  
 72
    65
 73
     4
 40
20.0
 49
12.5
 49
-2.5
 49
2.5
 49
-2.5
  0
LTYPE
  2
PHANTOM1
 70
    64
  3
--- - - --- - - --- - - --- - - 
 72
    65
 73
     6
 40
10.0
 49
3.25
 49
-1.25
 49
1.25
 49
-1.25
 49
1.25
 49
-1.25
  0
LTYPE
  2
PHANTOM2
 70
    64
  3
--------  -  -  --------  -  -  
 72
    65
 73
     6
 40
20.0
 49
10.0
 49
-2.5
 49
1.25
 49
-2.5
 49
1.25
 49
-2.5
  0
LTYPE
  2
DOT
 70
    64
  3
-   -   -   -   -   -   -   -   
 72
    65
 73
     2
 40
2.5
 49
0.625
 49
-1.875
  0
LTYPE
  2
DUMMY
 70
    64
  3
ダミー
 72
    65
 73
     0
 40
0.0
  0
LTYPE
  2
RAND1
 70
    64
  3
ランダム線1
 72
    65
 73
     4
 40
10.0
 49
1.0
 49
-2.0
 49
3.0
 49
-4.0
  0
LTYPE
  2
RAND2
 70
    64
  3
ランダム線2
 72
    65
 73
     4
 40
14.0
 49
2.0
 49
-3.0
 49
4.0
 49
-5.0
  0
LTYPE
  2
RAND3
 70
    64
  3
ランダム線3
 72
    65
 73
     4
 40
18.0
 49
3.0
 49
-4.0
 49
5.0
 49
-6.0
  0
LTYPE
  2
RAND4
 70
    64
  3
ランダム線4
 72
    65
 73
     4
 40
22.0
 49
4.0
 49
-5.0
 49
6.0
 49
-7.0
  0
LTYPE
  2
RAND5
 70
    64
  3
ランダム線5
 72
    65
 73
     4
 40
26.0
 49
5.0
 49
-6.0
 49
7.0
 49
-8.0
  0
LTYPE
  2
LONG1
 70
    64
  3
----------  --  ----------  --  
 72
    65
 73
     4
 40
40.0
 49
32.5
 49
-2.5
 49
2.5
 49
-2.5
  0
LTYPE
  2
LONG2
 70
    64
  3
--------  -  -  --------  -  -  
 72
    65
 73
     6
 40
40.0
 49
30.0
 49
-2.5
 49
1.25
 49
-2.5
 49
1.25
 49
-2.5
  0
LTYPE
  2
LONG3
 70
    64
  3
+++++++++++++++..+++++++++++++++
 72
    65
 73
     2
 40
40.0
 49
37.5
 49
-2.5
  0
LTYPE
  2
LONG4
 70
    64
  3
+++++++++++++++..+++++++++++++++
 72
    65
 73
     2
 40
80.0
 49
75.0
 49
-5.0
  0
LTYPE
  2
LONG5
 70
    64
  3
----------  --  ----------  --  
 72
    65
 73
     4
 40
60.0
 49
37.5
 49
-7.5
 49
7.5
 49
-7.5
  0
LTYPE
  2
dashed
 70
   64
  3
-------   -------------   ------
 72
   65
 73
    2
 40
7.5
 49
6
 49
-1.5
  0
LTYPE
  2
dashed_spaced
 70
   64
  3
----        --------        ----
 72
   65
 73
    2
 40
12
 49
6
 49
-6
  0
LTYPE
  2
long_dashed_dotted
 70
   64
  3
------------- --- --------------
 72
   65
 73
    4
 40
15.25
 49
12
 49
-1.5
 49
0.25
 49
-1.5
  0
LTYPE
  2
long_dashed_double-dotted
 70
   64
  3
----------- --- --- ------------
 72
   65
 73
    6
 40
17
 49
12
 49
-1.5
 49
0.25
 49
-1.5
 49
0.25
 49
-1.5
  0
LTYPE
  2
long_dashed_triplicate-dotted
 70
   64
  3
--------- --- --- --- ----------
 72
   65
 73
    8
 40
18.75
 49
12
 49
-1.5
 49
0.25
 49
-1.5
 49
0.25
 49
-1.5
 49
0.25
 49
-1.5
  0
LTYPE
  2
dotted
 70
   64
  3
   -       -       -       -    
 72
   65
 73
    2
 40
1.75
 49
0.25
 49
-1.5
  0
LTYPE
  2
chain
 70
   64
  3
-------------- -- --------------
 72
   65
 73
    4
 40
18.5
 49
12
 49
-1.5
 49
3.5
 49
-1.5
  0
LTYPE
  2
chain_double_dash
 70
   64
  3
------------ -- -- -------------
 72
   65
 73
    6
 40
23.5
 49
12
 49
-1.5
 49
3.5
 49
-1.5
 49
3.5
 49
-1.5
  0
LTYPE
  2
dashed_dotted
 70
   64
  3
-----------     -     ----------
 72
   65
 73
    4
 40
9.25
 49
6
 49
-1.5
 49
0.25
 49
-1.5
  0
LTYPE
  2
double-dashed_dotted
 70
   64
  3
------   -----------   -   -----
 72
   65
 73
    6
 40
16.75
 49
6
 49
-1.5
 49
6
 49
-1.5
 49
0.25
 49
-1.5
  0
LTYPE
  2
dashed_double-dotted
 70
   64
  3
---------    -    -    ---------
 72
   65
 73
    6
 40
11
 49
6
 49
-1.5
 49
0.25
 49
-1.5
 49
0.25
 49
-1.5
  0
LTYPE
  2
double-dashed_double-dotted
 70
   64
  3
-----   ---------   -   -   ----
 72
   65
 73
    8
 40
18.5
 49
6
 49
-1.5
 49
6
 49
-1.5
 49
0.25
 49
-1.5
 49
0.25
 49
-1.5
  0
LTYPE
  2
dashed_triplicate-dotted
 70
   64
  3
-------    -    -    -    ------
 72
   65
 73
    8
 40
12.75
 49
6
 49
-1.5
 49
0.25
 49
-1.5
 49
0.25
 49
-1.5
 49
0.25
 49
-1.5
  0
LTYPE
  2
double-dashed_triplicate-dotted
 70
   64
  3
-----  ---------  -  -  -  -----
 72
   65
 73
   10
 40
20.25
 49
6
 49
-1.5
 49
6
 49
-1.5
 49
0.25
 49
-1.5
 49
0.25
 49
-1.5
 49
0.25
 49
-1.5
  0
LTYPE
  2
undefined
 70
   64
  3
--------------------------------
 72
   65
 73
    0
 40
0
  0
ENDTAB
  0
TABLE
  2
STYLE
  5
3
100
AcDbSymbolTable
 70
     1
  0
STYLE
  5
10
100
AcDbSymbolTableRecord
100
AcDbTextStyleTableRecord
  2
STANDARD
 70
     0
 40
0.0
 41
1.0
 50
0.0
 71
     0
 42
0.2
  3
txt
  4
bigfont.shx
  0
STYLE
  5
26
100
AcDbSymbolTableRecord
100
AcDbTextStyleTableRecord
  2
TATEGAKI
 70
    68
 40
0.0
 41
1.0
 50
0.0
 71
     0
 42
1.0
  3
txt
  4
bigfont.shx
  0
ENDTAB
  0
TABLE
  2
LAYER
 70
    5
  0
LAYER
  2
_0-0_
 70
   64
 62
    7
  6
CONTINUOUS
  0
LAYER
  2
_0-1_
 70
   64
 62
    7
  6
CONTINUOUS
  0
LAYER
  2
_0-8_
 70
   64
 62
    7
  6
CONTINUOUS
  0
LAYER
  2
_0-f_
 70
   64
 62
    7
  6
CONTINUOUS
  0
LAYER
  2
ADD_LINE
 70
   64
 62
    7
  6
CONTINUOUS
  0
ENDTAB
  0
ENDSEC
  0
SECTION
  2
BLOCKS
  0
ENDSEC
  0
SECTION
  2
ENTITIES
  0
TEXT
  8
_0-8_
 62
    7
 10
286.63783122694383
 20
83.28361190866292
 40
4.2999999999999998
 41
0.744186046511628
 50
0
  1
NFM6-
  0
TEXT
  8
_0-8_
 62
    7
 10
294.56851125271601
 20
78.857902715642012
 40
4.2999999999999998
 41
0.744186046511628
 50
0
  1
P75
  0
LINE
  8
_0-0_
  6
CONTINUOUS
 62
    7
 10
300.08727775134582
 20
67.803930654886926
 11
300.08727775134582
 21
54.203930654887017
  0
LINE
  8
_0-8_
  6
CONTINUOUS
 62
    7
 10
300.08727775134582
 20
30.730988275637458
 11
300.08727775134582
 21
24.330988275637367
  0
CIRCLE
  8
_0-1_
  6
CONTINUOUS
 62
    7
 10
307.58727775134582
 20
61.003930654887426
 40
2.5499999523162842
  0
CIRCLE
  8
_0-0_
  6
CONTINUOUS
 62
  152
 10
307.58727775134582
 20
61.003930654887426
 40
3
  0
LINE
  8
_0-1_
  6
CENTER1
 62
  152
 10
307.58727775134582
 20
54.203930654887017
 11
307.58727775134582
 21
67.803930654886926
  0
LINE
  8
_0-f_
  6
CONTINUOUS
 62
    7
 10
387.38060740855548
 20
61.234965407131483
 11
382.38060740855548
 21
61.234965407131483
  0
LINE
  8
_0-0_
  6
CONTINUOUS
 62
    7
 10
390.08727775134582
 20
67.803930654886926
 11
300.08727775134582
 21
67.803930654886926
  0
LINE
  8
_0-0_
  6
CONTINUOUS
 62
    7
 10
300.08727775134582
 20
54.203930654887017
 11
390.08727775134582
 21
54.203930654887017
  0
LINE
  8
_0-0_
  6
CONTINUOUS
 62
    7
 10
390.08727775134582
 20
54.203930654887017
 11
390.08727775134582
 21
67.803930654886926
  0
LINE
  8
_0-0_
  6
CONTINUOUS
 62
    7
 10
390.08727775134582
 20
65.803930654886926
 11
300.08727775134582
 21
65.803930654886926
  0
LINE
  8
_0-0_
  6
CONTINUOUS
 62
    7
 10
390.08727775134582
 20
56.203930654887017
 11
300.08727775134582
 21
56.203930654887017
  0
CIRCLE
  8
_0-1_
  6
CONTINUOUS
 62
    7
 10
382.58727775134582
 20
61.003930654887426
 40
2.5499999523162842
  0
CIRCLE
  8
_0-0_
  6
CONTINUOUS
 62
  152
 10
382.58727775134582
 20
61.003930654887426
 40
3
  0
LINE
  8
_0-1_
  6
CENTER1
 62
  152
 10
299.08726775134608
 20
61.003930654886972
 11
391.08726775134562
 21
61.003930654886972
  0
LINE
  8
_0-1_
  6
CENTER1
 62
  152
 10
382.58727775134582
 20
54.203930654887017
 11
382.58727775134582
 21
67.803930654886926
  0
LINE
  8
_0-0_
  6
CONTINUOUS
 62
    7
 10
270.83958436132008
 20
67.803930654886926
 11
195.83958436132008
 21
67.803930654886926
  0
LINE
  8
_0-0_
  6
CONTINUOUS
 62
    7
 10
195.83958436132008
 20
67.803930654886926
 11
195.83958436132008
 21
54.203930654887017
  0
LINE
  8
_0-0_
  6
CONTINUOUS
 62
    7
 10
195.83958436132008
 20
54.203930654887017
 11
270.83958436132008
 21
54.203930654887017
  0
LINE
  8
_0-0_
  6
CONTINUOUS
 62
    7
 10
270.83958436132008
 20
54.203930654887017
 11
270.83958436132008
 21
67.803930654886926
  0
LINE
  8
_0-0_
  6
CONTINUOUS
 62
    7
 10
270.83958436132008
 20
65.803930654886926
 11
195.83958436132008
 21
65.803930654886926
  0
LINE
  8
_0-0_
  6
CONTINUOUS
 62
    7
 10
270.83958436132008
 20
56.203930654887017
 11
195.83958436132008
 21
56.203930654887017
  0
CIRCLE
  8
_0-1_
  6
CONTINUOUS
 62
    7
 10
263.33958436132008
 20
61.003930654887426
 40
2.5499999523162842
  0
LINE
  8
_0-0_
  6
CONTINUOUS
 62
    7
 10
195.83958436132008
 20
30.730988275637458
 11
270.83958436132008
 21
30.730988275637458
  0
LINE
  8
_0-0_
  6
CONTINUOUS
 62
    7
 10
195.83958436132008
 20
27.730988275637458
 11
270.83958436132008
 21
27.730988275637458
  0
LINE
  8
_0-0_
  6
CONTINUOUS
 62
    7
 10
195.83958436132008
 20
24.330988275637367
 11
270.83958436132008
 21
24.330988275637367
  0
LINE
  8
_0-8_
  6
CONTINUOUS
 62
    7
 10
195.83958436132008
 20
30.730988275637458
 11
195.83958436132008
 21
24.330988275637367
  0
LINE
  8
_0-8_
  6
CONTINUOUS
 62
    7
 10
270.83958436132008
 20
30.730988275637458
 11
270.83958436132008
 21
24.330988275637367
  0
CIRCLE
  8
_0-0_
  6
CONTINUOUS
 62
  152
 10
263.33958436132008
 20
61.003930654887426
 40
3
  0
CIRCLE
  8
_0-1_
  6
CONTINUOUS
 62
    7
 10
203.33958436132008
 20
61.003930654887426
 40
2.5499999523162842
  0
CIRCLE
  8
_0-0_
  6
CONTINUOUS
 62
  152
 10
203.33958436132008
 20
61.003930654887426
 40
3
  0
LINE
  8
_0-1_
  6
CENTER1
 62
  152
 10
194.83957436132033
 20
61.003930654886972
 11
271.83957436131988
 21
61.003930654886972
  0
LINE
  8
_0-1_
  6
CENTER1
 62
  152
 10
203.33958436132008
 20
54.203930654887017
 11
203.33958436132008
 21
67.803930654886926
  0
LINE
  8
_0-1_
  6
CENTER1
 62
  152
 10
263.33958436132008
 20
54.203930654887017
 11
263.33958436132008
 21
67.803930654886926
  0
TEXT
  8
_0-8_
 62
    7
 10
193.74531851757308
 20
83.28361190866292
 40
4.2999999999999998
 41
0.744186046511628
 50
0
  1
NFM6-
  0
TEXT
  8
_0-8_
 62
    7
 10
200.08859003257248
 20
79.078701824160362
 40
4.2999999999999998
 41
0.744186046511628
 50
0
  1
P60
  0
LINE
  8
_0-0_
  6
CONTINUOUS
 62
    7
 10
23.09769881833131
 20
65.843862416923685
 11
21.466965204210055
 21
65.986533121390039
  0
LINE
  8
_0-0_
  6
CONTINUOUS
 62
    7
 10
20.55412094695771
 20
66.982727819481852
 11
20.55412094695771
 21
67.303930654886472
  0
LINE
  8
_0-0_
  6
CONTINUOUS
 62
    7
 10
19.924711424406496
 20
67.786893568031019
 11
19.226025396488012
 21
67.5996812110875
  0
LINE
  8
_0-0_
  6
CONTINUOUS
 62
    7
 10
18.922422217146732
 20
67.366718297942953
 11
17.556044735604473
 21
65.000083077593217
  0
LINE
  8
_0-0_
  6
CONTINUOUS
 62
    7
 10
17.154120946957619
 20
63.500083077593217
 11
17.154120946957619
 21
58.507778232179817
  0
LINE
  8
_0-0_
  6
CONTINUOUS
 62
    7
 10
17.556044735604473
 20
57.007778232179817
 11
18.922422217146732
 21
54.641143011830309
  0
LINE
  8
_0-0_
  6
CONTINUOUS
 62
    7
 10
19.226025396488012
 20
54.408180098685762
 11
19.924711424406496
 21
54.220967741742015
  0
LINE
  8
_0-0_
  6
CONTINUOUS
 62
    7
 10
20.55412094695771
 20
54.703930654886562
 11
20.55412094695771
 21
55.02513349029141
  0
LINE
  8
_0-0_
  6
CONTINUOUS
 62
    7
 10
21.466965204210055
 20
56.021328188382995
 11
23.09769881833131
 21
56.163998892849349
  0
LINE
  8
_0-0_
  6
CONTINUOUS
 62
    7
 10
23.55412094695771
 20
56.66209624189537
 11
23.55412094695771
 21
65.345765067877892
  0
ARC
  8
_0-0_
  6
CONTINUOUS
 62
    7
 10
23.05412094695771
 20
65.345765067877892
 40
0.5
 50
0
 51
84.999999999999986
  0
ARC
  8
_0-0_
  6
CONTINUOUS
 62
    7
 10
21.55412094695771
 20
66.982727819481852
 40
1
 50
180
 51
265.00000000000006
  0
ARC
  8
_0-0_
  6
CONTINUOUS
 62
    7
 10
20.05412094695771
 20
67.303930654886472
 40
0.5
 50
0
 51
48.592702342670698
  0
ARC
  8
_0-0_
  6
CONTINUOUS
 62
    7
 10
20.05412094695771
 20
67.303930654886472
 40
0.5
 50
48.592702342670698
 51
104.99999999999999
  0
ARC
  8
_0-0_
  6
CONTINUOUS
 62
    7
 10
19.355434919039226
 20
67.116718297942953
 40
0.5
 50
105.00000000000001
 51
149.99999999999994
  0
ARC
  8
_0-0_
  6
CONTINUOUS
 62
    7
 10
20.154120946957619
 20
63.500083077593217
 40
3
 50
149.99999999999994
 51
180
  0
ARC
  8
_0-0_
  6
CONTINUOUS
 62
    7
 10
23.05412094695771
 20
56.66209624189537
 40
0.5
 50
275
 51
0
  0
ARC
  8
_0-0_
  6
CONTINUOUS
 62
    7
 10
21.55412094695771
 20
55.02513349029141
 40
1
 50
94.999999999999957
 51
180
  0
ARC
  8
_0-0_
  6
CONTINUOUS
 62
    7
 10
20.05412094695771
 20
54.703930654886562
 40
0.5
 50
311.40729765732931
 51
0
  0
ARC
  8
_0-0_
  6
CONTINUOUS
 62
    7
 10
20.05412094695771
 20
54.703930654886562
 40
0.5
 50
255
 51
311.40729765732931
  0
ARC
  8
_0-0_
  6
CONTINUOUS
 62
    7
 10
19.355434919039226
 20
54.891143011830309
 40
0.5
 50
210.00000000000003
 51
255
  0
ARC
  8
_0-0_
  6
CONTINUOUS
 62
    7
 10
20.154120946957619
 20
58.507778232179817
 40
3
 50
180.00000000000006
 51
210.00000000000006
  0
TEXT
  8
_0-8_
 62
    7
 10
35.205286138917245
 20
83.28361190866292
 40
4.2999999999999998
 41
0.744186046511628
 50
0
  1
NFM6-
  0
TEXT
  8
_0-8_
 62
    7
 10
40.881444879722267
 20
78.02990605869843
 40
4.2999999999999998
 41
0.744186046511628
 50
0
  1
P30
  0
LINE
  8
_0-0_
  6
CONTINUOUS
 62
    7
 10
169.33436766078825
 20
67.803930654886926
 11
109.33436766078825
 21
67.803930654886926
  0
LINE
  8
_0-0_
  6
CONTINUOUS
 62
    7
 10
109.33436766078825
 20
67.803930654886926
 11
109.33436766078825
 21
54.203930654887017
  0
LINE
  8
_0-0_
  6
CONTINUOUS
 62
    7
 10
109.33436766078825
 20
54.203930654887017
 11
169.33436766078825
 21
54.203930654887017
  0
LINE
  8
_0-0_
  6
CONTINUOUS
 62
    7
 10
169.33436766078825
 20
54.203930654887017
 11
169.33436766078825
 21
67.803930654886926
  0
LINE
  8
_0-0_
  6
CONTINUOUS
 62
    7
 10
169.33436766078825
 20
65.803930654886926
 11
109.33436766078825
 21
65.803930654886926
  0
LINE
  8
_0-0_
  6
CONTINUOUS
 62
    7
 10
169.33436766078825
 20
56.203930654887017
 11
109.33436766078825
 21
56.203930654887017
  0
LINE
  8
_0-0_
  6
CONTINUOUS
 62
    7
 10
83.381953751975686
 20
67.803930654886926
 11
38.381953751975743
 21
67.803930654886926
  0
LINE
  8
_0-0_
  6
CONTINUOUS
 62
    7
 10
38.381953751975743
 20
67.803930654886926
 11
38.381953751975743
 21
54.203930654887017
  0
LINE
  8
_0-0_
  6
CONTINUOUS
 62
    7
 10
38.381953751975743
 20
54.203930654887017
 11
83.381953751975686
 21
54.203930654887017
  0
LINE
  8
_0-0_
  6
CONTINUOUS
 62
    7
 10
83.381953751975686
 20
54.203930654887017
 11
83.381953751975686
 21
67.803930654886926
  0
LINE
  8
_0-0_
  6
CONTINUOUS
 62
    7
 10
83.381953751975686
 20
65.803930654886926
 11
38.381953751975743
 21
65.803930654886926
  0
LINE
  8
_0-0_
  6
CONTINUOUS
 62
    7
 10
83.381953751975686
 20
56.203930654887017
 11
38.381953751975743
 21
56.203930654887017
  0
CIRCLE
  8
_0-1_
  6
CONTINUOUS
 62
    7
 10
161.83436766078825
 20
61.003930654887426
 40
2.5499999523162842
  0
CIRCLE
  8
_0-1_
  6
CONTINUOUS
 62
    7
 10
75.881953751975743
 20
61.003930654887426
 40
2.5499999523162842
  0
LINE
  8
_0-0_
  6
CONTINUOUS
 62
    7
 10
109.33436766078825
 20
30.730988275637458
 11
169.33436766078825
 21
30.730988275637458
  0
LINE
  8
_0-0_
  6
CONTINUOUS
 62
    7
 10
38.381953751975743
 20
30.730988275637458
 11
83.381953751975686
 21
30.730988275637458
  0
LINE
  8
_0-0_
  6
CONTINUOUS
 62
    7
 10
109.33436766078825
 20
27.730988275637458
 11
169.33436766078825
 21
27.730988275637458
  0
LINE
  8
_0-0_
  6
CONTINUOUS
 62
    7
 10
38.381953751975743
 20
27.730988275637458
 11
83.381953751975686
 21
27.730988275637458
  0
LINE
  8
_0-0_
  6
CONTINUOUS
 62
    7
 10
109.33436766078825
 20
24.330988275637367
 11
169.33436766078825
 21
24.330988275637367
  0
LINE
  8
_0-0_
  6
CONTINUOUS
 62
    7
 10
38.381953751975743
 20
24.330988275637367
 11
83.381953751975686
 21
24.330988275637367
  0
LINE
  8
_0-8_
  6
CONTINUOUS
 62
    7
 10
38.381953751975743
 20
30.730988275637458
 11
38.381953751975743
 21
24.330988275637367
  0
LINE
  8
_0-8_
  6
CONTINUOUS
 62
    7
 10
83.381953751975686
 20
30.730988275637458
 11
83.381953751975686
 21
24.330988275637367
  0
LINE
  8
_0-8_
  6
CONTINUOUS
 62
    7
 10
169.33436766078825
 20
30.730988275637458
 11
169.33436766078825
 21
24.330988275637367
  0
LINE
  8
_0-8_
  6
CONTINUOUS
 62
    7
 10
109.33436766078825
 20
30.730988275637458
 11
109.33436766078825
 21
24.330988275637367
  0
CIRCLE
  8
_0-0_
  6
CONTINUOUS
 62
  152
 10
161.83436766078825
 20
61.003930654887426
 40
3
  0
CIRCLE
  8
_0-0_
  6
CONTINUOUS
 62
  152
 10
75.881953751975743
 20
61.003930654887426
 40
3
  0
CIRCLE
  8
_0-1_
  6
CONTINUOUS
 62
    7
 10
45.881953751975743
 20
61.003930654887426
 40
2.5499999523162842
  0
CIRCLE
  8
_0-0_
  6
CONTINUOUS
 62
  152
 10
45.881953751975743
 20
61.003930654887426
 40
3
  0
CIRCLE
  8
_0-1_
  6
CONTINUOUS
 62
    7
 10
116.83436766078825
 20
61.003930654887426
 40
2.5499999523162842
  0
CIRCLE
  8
_0-0_
  6
CONTINUOUS
 62
  152
 10
116.83436766078825
 20
61.003930654887426
 40
3
  0
LINE
  8
_0-1_
  6
CENTER1
 62
  152
 10
108.3343576607885
 20
61.003930654886972
 11
170.33435766078804
 21
61.003930654886972
  0
LINE
  8
_0-1_
  6
CENTER1
 62
  152
 10
116.83436766078825
 20
54.203930654887017
 11
116.83436766078825
 21
67.803930654886926
  0
LINE
  8
_0-1_
  6
CENTER1
 62
  152
 10
37.381943751975996
 20
61.003930654886972
 11
84.381943751975484
 21
61.003930654886972
  0
LINE
  8
_0-1_
  6
CENTER1
 62
  152
 10
45.881953751975743
 20
54.203930654887017
 11
45.881953751975743
 21
67.803930654886926
  0
LINE
  8
_0-1_
  6
CENTER1
 62
  152
 10
75.881953751975743
 20
67.803930654886926
 11
75.881953751975743
 21
54.203930654887017
  0
LINE
  8
_0-1_
  6
CENTER1
 62
  152
 10
161.83436766078825
 20
54.203930654887017
 11
161.83436766078825
 21
67.803930654886926
  0
TEXT
  8
_0-8_
 62
    7
 10
105.88849024236521
 20
83.28361190866292
 40
4.2999999999999998
 41
0.744186046511628
 50
0
  1
NFM6-
  0
TEXT
  8
_0-8_
 62
    7
 10
113.68765626003977
 20
78.250705167216665
 40
4.2999999999999998
 41
0.744186046511628
 50
0
  1
P45
  0
LINE
  8
_0-0_
  6
CONTINUOUS
 62
    7
 10
300.08727775134582
 20
30.730988275637458
 11
390.08727775134582
 21
30.730988275637458
  0
LINE
  8
_0-0_
  6
CONTINUOUS
 62
    7
 10
300.08727775134582
 20
27.730988275637458
 11
390.08727775134582
 21
27.730988275637458
  0
LINE
  8
_0-0_
  6
CONTINUOUS
 62
    7
 10
300.08727775134582
 20
24.330988275637367
 11
390.08727775134582
 21
24.330988275637367
  0
LINE
  8
_0-8_
  6
CONTINUOUS
 62
    7
 10
390.08727775134582
 20
30.730988275637458
 11
390.08727775134582
 21
24.330988275637367
  0
ENDSEC
  0
EOF
