  0
SECTION
  2
HEADER
  9
$ACADVER
  1
AC1009
  9
$INSBASE
 10
0
 20
0
 30
0
  9
$EXTMIN
 10
0
 20
0
  9
$EXTMAX
 10
1189
 20
841
  9
$LIMMIN
 10
0
 20
0
  9
$LIMMAX
 10
1189
 20
841
  9
$LTSCALE
 40
1
  0
ENDSEC
  0
SECTION
  2
TABLES
  0
TABLE
  2
LTYPE
 70
     9
  0
LTYPE
  2
CONTINUOUS
 70
    64
  3
実線
 72
    65
 73
     0
 40
0.0
  0
LTYPE
  2
DASHED1
 70
    64
  3
--  --  --  --  --  --  --  --  
 72
    65
 73
     2
 40
2.5
 49
1.25
 49
-1.25
  0
LTYPE
  2
DASHED2
 70
    64
  3
----    ----    ----    ----    
 72
    65
 73
     2
 40
5.0
 49
2.5
 49
-2.5
  0
LTYPE
  2
DASHED3
 70
    64
  3
------  ------  ------  ------  
 72
    65
 73
     2
 40
5.0
 49
3.75
 49
-1.25
  0
LTYPE
  2
CENTER1
 70
    64
  3
----- - ----- - ----- - ----- - 
 72
    65
 73
     4
 40
10.0
 49
6.25
 49
-1.25
 49
1.25
 49
-1.25
  0
LTYPE
  2
CENTER2
 70
    64
  3
----------  --  ----------  --  
 72
    65
 73
     4
 40
20.0
 49
12.5
 49
-2.5
 49
2.5
 49
-2.5
  0
LTYPE
  2
PHANTOM1
 70
    64
  3
--- - - --- - - --- - - --- - - 
 72
    65
 73
     6
 40
10.0
 49
3.25
 49
-1.25
 49
1.25
 49
-1.25
 49
1.25
 49
-1.25
  0
LTYPE
  2
PHANTOM2
 70
    64
  3
--------  -  -  --------  -  -  
 72
    65
 73
     6
 40
20.0
 49
10.0
 49
-2.5
 49
1.25
 49
-2.5
 49
1.25
 49
-2.5
  0
LTYPE
  2
DOT
 70
    64
  3
-   -   -   -   -   -   -   -   
 72
    65
 73
     2
 40
2.5
 49
0.625
 49
-1.875
  0
LTYPE
  2
DUMMY
 70
    64
  3
ダミー
 72
    65
 73
     0
 40
0.0
  0
LTYPE
  2
RAND1
 70
    64
  3
ランダム線1
 72
    65
 73
     4
 40
10.0
 49
1.0
 49
-2.0
 49
3.0
 49
-4.0
  0
LTYPE
  2
RAND2
 70
    64
  3
ランダム線2
 72
    65
 73
     4
 40
14.0
 49
2.0
 49
-3.0
 49
4.0
 49
-5.0
  0
LTYPE
  2
RAND3
 70
    64
  3
ランダム線3
 72
    65
 73
     4
 40
18.0
 49
3.0
 49
-4.0
 49
5.0
 49
-6.0
  0
LTYPE
  2
RAND4
 70
    64
  3
ランダム線4
 72
    65
 73
     4
 40
22.0
 49
4.0
 49
-5.0
 49
6.0
 49
-7.0
  0
LTYPE
  2
RAND5
 70
    64
  3
ランダム線5
 72
    65
 73
     4
 40
26.0
 49
5.0
 49
-6.0
 49
7.0
 49
-8.0
  0
LTYPE
  2
LONG1
 70
    64
  3
----------  --  ----------  --  
 72
    65
 73
     4
 40
40.0
 49
32.5
 49
-2.5
 49
2.5
 49
-2.5
  0
LTYPE
  2
LONG2
 70
    64
  3
--------  -  -  --------  -  -  
 72
    65
 73
     6
 40
40.0
 49
30.0
 49
-2.5
 49
1.25
 49
-2.5
 49
1.25
 49
-2.5
  0
LTYPE
  2
LONG3
 70
    64
  3
+++++++++++++++..+++++++++++++++
 72
    65
 73
     2
 40
40.0
 49
37.5
 49
-2.5
  0
LTYPE
  2
LONG4
 70
    64
  3
+++++++++++++++..+++++++++++++++
 72
    65
 73
     2
 40
80.0
 49
75.0
 49
-5.0
  0
LTYPE
  2
LONG5
 70
    64
  3
----------  --  ----------  --  
 72
    65
 73
     4
 40
60.0
 49
37.5
 49
-7.5
 49
7.5
 49
-7.5
  0
LTYPE
  2
dashed
 70
   64
  3
-------   -------------   ------
 72
   65
 73
    2
 40
7.5
 49
6
 49
-1.5
  0
LTYPE
  2
dashed_spaced
 70
   64
  3
----        --------        ----
 72
   65
 73
    2
 40
12
 49
6
 49
-6
  0
LTYPE
  2
long_dashed_dotted
 70
   64
  3
------------- --- --------------
 72
   65
 73
    4
 40
15.25
 49
12
 49
-1.5
 49
0.25
 49
-1.5
  0
LTYPE
  2
long_dashed_double-dotted
 70
   64
  3
----------- --- --- ------------
 72
   65
 73
    6
 40
17
 49
12
 49
-1.5
 49
0.25
 49
-1.5
 49
0.25
 49
-1.5
  0
LTYPE
  2
long_dashed_triplicate-dotted
 70
   64
  3
--------- --- --- --- ----------
 72
   65
 73
    8
 40
18.75
 49
12
 49
-1.5
 49
0.25
 49
-1.5
 49
0.25
 49
-1.5
 49
0.25
 49
-1.5
  0
LTYPE
  2
dotted
 70
   64
  3
   -       -       -       -    
 72
   65
 73
    2
 40
1.75
 49
0.25
 49
-1.5
  0
LTYPE
  2
chain
 70
   64
  3
-------------- -- --------------
 72
   65
 73
    4
 40
18.5
 49
12
 49
-1.5
 49
3.5
 49
-1.5
  0
LTYPE
  2
chain_double_dash
 70
   64
  3
------------ -- -- -------------
 72
   65
 73
    6
 40
23.5
 49
12
 49
-1.5
 49
3.5
 49
-1.5
 49
3.5
 49
-1.5
  0
LTYPE
  2
dashed_dotted
 70
   64
  3
-----------     -     ----------
 72
   65
 73
    4
 40
9.25
 49
6
 49
-1.5
 49
0.25
 49
-1.5
  0
LTYPE
  2
double-dashed_dotted
 70
   64
  3
------   -----------   -   -----
 72
   65
 73
    6
 40
16.75
 49
6
 49
-1.5
 49
6
 49
-1.5
 49
0.25
 49
-1.5
  0
LTYPE
  2
dashed_double-dotted
 70
   64
  3
---------    -    -    ---------
 72
   65
 73
    6
 40
11
 49
6
 49
-1.5
 49
0.25
 49
-1.5
 49
0.25
 49
-1.5
  0
LTYPE
  2
double-dashed_double-dotted
 70
   64
  3
-----   ---------   -   -   ----
 72
   65
 73
    8
 40
18.5
 49
6
 49
-1.5
 49
6
 49
-1.5
 49
0.25
 49
-1.5
 49
0.25
 49
-1.5
  0
LTYPE
  2
dashed_triplicate-dotted
 70
   64
  3
-------    -    -    -    ------
 72
   65
 73
    8
 40
12.75
 49
6
 49
-1.5
 49
0.25
 49
-1.5
 49
0.25
 49
-1.5
 49
0.25
 49
-1.5
  0
LTYPE
  2
double-dashed_triplicate-dotted
 70
   64
  3
-----  ---------  -  -  -  -----
 72
   65
 73
   10
 40
20.25
 49
6
 49
-1.5
 49
6
 49
-1.5
 49
0.25
 49
-1.5
 49
0.25
 49
-1.5
 49
0.25
 49
-1.5
  0
LTYPE
  2
undefined
 70
   64
  3
--------------------------------
 72
   65
 73
    0
 40
0
  0
ENDTAB
  0
TABLE
  2
STYLE
  5
3
100
AcDbSymbolTable
 70
     1
  0
STYLE
  5
10
100
AcDbSymbolTableRecord
100
AcDbTextStyleTableRecord
  2
STANDARD
 70
     0
 40
0.0
 41
1.0
 50
0.0
 71
     0
 42
0.2
  3
txt
  4
bigfont.shx
  0
STYLE
  5
26
100
AcDbSymbolTableRecord
100
AcDbTextStyleTableRecord
  2
TATEGAKI
 70
    68
 40
0.0
 41
1.0
 50
0.0
 71
     0
 42
1.0
  3
txt
  4
bigfont.shx
  0
ENDTAB
  0
TABLE
  2
LAYER
 70
    4
  0
LAYER
  2
_0-0_
 70
   64
 62
    7
  6
CONTINUOUS
  0
LAYER
  2
_0-1_
 70
   64
 62
    7
  6
CONTINUOUS
  0
LAYER
  2
_0-e_
 70
   64
 62
    7
  6
CONTINUOUS
  0
LAYER
  2
ADD_LINE
 70
   64
 62
    7
  6
CONTINUOUS
  0
ENDTAB
  0
ENDSEC
  0
SECTION
  2
BLOCKS
  0
ENDSEC
  0
SECTION
  2
ENTITIES
  0
LINE
  8
_0-1_
  6
CONTINUOUS
 62
    7
 10
161.62735711729658
 20
85.515096806078304
 11
109.62735711729658
 21
85.515096806078304
  0
LINE
  8
_0-1_
  6
CONTINUOUS
 62
    7
 10
109.62735711729658
 20
85.836635836995697
 11
161.62735711729658
 21
85.836635836995697
  0
LINE
  8
_0-1_
  6
CONTINUOUS
 62
    7
 10
109.62735711729658
 20
92.33663583699547
 11
161.62735711729658
 21
92.33663583699547
  0
LINE
  8
_0-1_
  6
CONTINUOUS
 62
    7
 10
161.62735711729658
 20
92.658174867912862
 11
109.62735711729658
 21
92.658174867912862
  0
LINE
  8
_0-1_
  6
CONTINUOUS
 62
    7
 10
64.045757289827407
 20
85.515096806078077
 11
34.045757289827407
 21
85.515096806078077
  0
LINE
  8
_0-1_
  6
CONTINUOUS
 62
    7
 10
34.045757289827407
 20
85.83663583699547
 11
64.045757289827407
 21
85.83663583699547
  0
LINE
  8
_0-1_
  6
CONTINUOUS
 62
    7
 10
34.045757289827407
 20
92.33663583699547
 11
64.045757289827407
 21
92.33663583699547
  0
LINE
  8
_0-1_
  6
CONTINUOUS
 62
    7
 10
64.045757289827407
 20
92.658174867912862
 11
34.045757289827407
 21
92.658174867912862
  0
LINE
  8
_0-1_
  6
CONTINUOUS
 62
    7
 10
206.10093958374887
 20
85.515096806078077
 11
288.10093958374887
 21
85.515096806078077
  0
LINE
  8
_0-1_
  6
CONTINUOUS
 62
    7
 10
288.10093958374887
 20
85.83663583699547
 11
206.10093958374887
 21
85.83663583699547
  0
LINE
  8
_0-1_
  6
CONTINUOUS
 62
    7
 10
206.10093958374887
 20
92.33663583699547
 11
288.10093958374887
 21
92.33663583699547
  0
LINE
  8
_0-1_
  6
CONTINUOUS
 62
    7
 10
288.10093958374887
 20
92.658174867912862
 11
206.10093958374887
 21
92.658174867912862
  0
LINE
  8
_0-0_
  6
CONTINUOUS
 62
    7
 10
109.62735711729658
 20
84.286635836995515
 11
109.62735711729658
 21
93.886635836995652
  0
LINE
  8
_0-0_
  6
CONTINUOUS
 62
    7
 10
109.62735711729658
 20
93.886635836995652
 11
161.62735711729658
 21
93.886635836995652
  0
LINE
  8
_0-0_
  6
CONTINUOUS
 62
    7
 10
161.62735711729658
 20
93.886635836995652
 11
161.62735711729658
 21
84.286635836995515
  0
LINE
  8
_0-0_
  6
CONTINUOUS
 62
    7
 10
161.62735711729658
 20
84.286635836995515
 11
109.62735711729658
 21
84.286635836995515
  0
LINE
  8
_0-0_
  6
CONTINUOUS
 62
    7
 10
206.10093958374887
 20
93.886635836995652
 11
206.10093958374887
 21
84.286635836995288
  0
LINE
  8
_0-0_
  6
CONTINUOUS
 62
    7
 10
206.10093958374887
 20
84.286635836995288
 11
288.10093958374887
 21
84.286635836995288
  0
LINE
  8
_0-0_
  6
CONTINUOUS
 62
    7
 10
288.10093958374887
 20
84.286635836995288
 11
288.10093958374887
 21
93.886635836995652
  0
LINE
  8
_0-0_
  6
CONTINUOUS
 62
    7
 10
288.10093958374887
 20
93.886635836995652
 11
206.10093958374887
 21
93.886635836995652
  0
LINE
  8
_0-0_
  6
CONTINUOUS
 62
    7
 10
34.045757289827407
 20
93.886635836995424
 11
64.045757289827407
 21
93.886635836995424
  0
LINE
  8
_0-0_
  6
CONTINUOUS
 62
    7
 10
64.045757289827407
 20
93.886635836995424
 11
64.045757289827407
 21
84.286635836995288
  0
LINE
  8
_0-0_
  6
CONTINUOUS
 62
    7
 10
64.045757289827407
 20
84.286635836995288
 11
34.045757289827407
 21
84.286635836995288
  0
LINE
  8
_0-0_
  6
CONTINUOUS
 62
    7
 10
34.045757289827407
 20
84.286635836995288
 11
34.045757289827407
 21
93.886635836995424
  0
CIRCLE
  8
_0-0_
  6
CONTINUOUS
 62
    7
 10
39.045757289827407
 20
89.08663583699547
 40
1.7000000476837158
  0
CIRCLE
  8
_0-0_
  6
CONTINUOUS
 62
    7
 10
59.045757289827407
 20
89.08663583699547
 40
1.7000000476837158
  0
CIRCLE
  8
_0-0_
  6
CONTINUOUS
 62
    7
 10
114.62735711729658
 20
89.08663583699547
 40
1.7000000476837158
  0
CIRCLE
  8
_0-0_
  6
CONTINUOUS
 62
    7
 10
156.62735711729658
 20
89.08663583699547
 40
1.7000000476837158
  0
CIRCLE
  8
_0-0_
  6
CONTINUOUS
 62
    7
 10
211.10093958374887
 20
89.08663583699547
 40
1.7000000476837158
  0
CIRCLE
  8
_0-0_
  6
CONTINUOUS
 62
    7
 10
283.10093958374887
 20
89.08663583699547
 40
1.7000000476837158
  0
LINE
  8
_0-1_
  6
CONTINUOUS
 62
    7
 10
64.045757289827407
 20
19.984244451964116
 11
34.045757289827407
 21
19.984244451964116
  0
LINE
  8
_0-1_
  6
CONTINUOUS
 62
    7
 10
34.045757289827407
 20
20.305783482881509
 11
64.045757289827407
 21
20.305783482881509
  0
LINE
  8
_0-1_
  6
CONTINUOUS
 62
    7
 10
64.045757289827407
 20
13.162705421046951
 11
34.045757289827407
 21
13.162705421046951
  0
LINE
  8
_0-1_
  6
CONTINUOUS
 62
    7
 10
34.045757289827407
 20
13.484244451964344
 11
64.045757289827407
 21
13.484244451964344
  0
LINE
  8
_0-1_
  6
CONTINUOUS
 62
    7
 10
183.89052649050109
 20
20.305783482881509
 11
108.89052649050109
 21
20.305783482881509
  0
LINE
  8
_0-1_
  6
CONTINUOUS
 62
    7
 10
108.89052649050109
 20
19.984244451964116
 11
183.89052649050109
 21
19.984244451964116
  0
LINE
  8
_0-1_
  6
CONTINUOUS
 62
    7
 10
108.89052649050109
 20
13.484244451964344
 11
183.89052649050109
 21
13.484244451964344
  0
LINE
  8
_0-1_
  6
CONTINUOUS
 62
    7
 10
183.89052649050109
 20
13.162705421046951
 11
108.89052649050109
 21
13.162705421046951
  0
LINE
  8
_0-0_
  6
CONTINUOUS
 62
    7
 10
108.89052649050109
 20
21.534244451964298
 11
183.89052649050109
 21
21.534244451964298
  0
LINE
  8
_0-0_
  6
CONTINUOUS
 62
    7
 10
183.89052649050109
 20
21.534244451964298
 11
183.89052649050109
 21
11.934244451964162
  0
LINE
  8
_0-0_
  6
CONTINUOUS
 62
    7
 10
183.89052649050109
 20
11.934244451964162
 11
108.89052649050109
 21
11.934244451964162
  0
LINE
  8
_0-0_
  6
CONTINUOUS
 62
    7
 10
108.89052649050109
 20
11.934244451964162
 11
108.89052649050109
 21
21.534244451964298
  0
LINE
  8
_0-0_
  6
CONTINUOUS
 62
    7
 10
64.045757289827407
 20
21.534244451964298
 11
34.045757289827407
 21
21.534244451964298
  0
LINE
  8
_0-0_
  6
CONTINUOUS
 62
    7
 10
34.045757289827407
 20
21.534244451964298
 11
34.045757289827407
 21
11.934244451964162
  0
LINE
  8
_0-0_
  6
CONTINUOUS
 62
    7
 10
34.045757289827407
 20
11.934244451964162
 11
64.045757289827407
 21
11.934244451964162
  0
LINE
  8
_0-0_
  6
CONTINUOUS
 62
    7
 10
64.045757289827407
 20
11.934244451964162
 11
64.045757289827407
 21
21.534244451964298
  0
LINE
  8
_0-0_
  6
CONTINUOUS
 62
    7
 10
18.640941253408641
 20
21.223990006597944
 11
18.640941253408641
 21
20.535981579275187
  0
LINE
  8
_0-0_
  6
CONTINUOUS
 62
    7
 10
18.86329553987764
 20
20.246203831388641
 11
19.618586966939006
 21
20.043824103457212
  0
LINE
  8
_0-0_
  6
CONTINUOUS
 62
    7
 10
19.840941253408459
 20
19.754046355570665
 11
19.840941253408459
 21
13.714442548358022
  0
LINE
  8
_0-0_
  6
CONTINUOUS
 62
    7
 10
19.618586966939006
 20
13.424664800471248
 11
18.86329553987764
 21
13.222285072540046
  0
LINE
  8
_0-0_
  6
CONTINUOUS
 62
    7
 10
18.640941253408641
 20
12.932507324653272
 11
18.640941253408641
 21
12.244498897330516
  0
LINE
  8
_0-0_
  6
CONTINUOUS
 62
    7
 10
15.779543714626584
 20
13.579194093650187
 11
15.461556011836478
 21
14.452858126729836
  0
LINE
  8
_0-0_
  6
CONTINUOUS
 62
    7
 10
15.340941253408459
 20
15.136898413381289
 11
15.340941253408459
 21
18.331590490547399
  0
LINE
  8
_0-0_
  6
CONTINUOUS
 62
    7
 10
15.461556011836478
 20
19.015630777198623
 11
15.779543714626584
 21
19.8892948102785
  0
CIRCLE
  8
_0-0_
  6
CONTINUOUS
 62
    7
 10
39.045757289827407
 20
16.734244451964344
 40
2.1500000953674316
  0
CIRCLE
  8
_0-0_
  6
CONTINUOUS
 62
    7
 10
59.045757289827407
 20
16.734244451964344
 40
2.1500000953674316
  0
ARC
  8
_0-0_
  6
CONTINUOUS
 62
    7
 10
18.340941253408459
 20
12.244498897330516
 40
0.2999999999999999
 50
275.53415365649795
 51
0.0000000000000127
  0
ARC
  8
_0-0_
  6
CONTINUOUS
 62
    7
 10
17.340941253408459
 20
18.331590490547399
 40
2
 50
159.99999999999972
 51
179.99999999999997
  0
ARC
  8
_0-0_
  6
CONTINUOUS
 62
    7
 10
17.340941253408459
 20
15.136898413381289
 40
2
 50
180
 51
200.00000000000011
  0
ARC
  8
_0-0_
  6
CONTINUOUS
 62
    7
 10
18.128775266591333
 20
14.434244451964162
 40
2.5
 50
199.99999999999937
 51
275.53415365649846
  0
ARC
  8
_0-0_
  6
CONTINUOUS
 62
    7
 10
18.340941253408459
 20
21.223990006597944
 40
0.2999999999999999
 50
0
 51
84.465846343502051
  0
ARC
  8
_0-0_
  6
CONTINUOUS
 62
    7
 10
18.128775266591333
 20
19.034244451964298
 40
2.5
 50
84.465846343502278
 51
159.99999999999932
  0
ARC
  8
_0-0_
  6
CONTINUOUS
 62
    7
 10
18.940941253408369
 20
20.535981579275187
 40
0.2999999999999999
 50
180
 51
255.00000000000037
  0
ARC
  8
_0-0_
  6
CONTINUOUS
 62
    7
 10
19.540941253408278
 20
19.754046355570665
 40
0.2999999999999999
 50
0
 51
75.000000000000625
  0
ARC
  8
_0-0_
  6
CONTINUOUS
 62
    7
 10
19.540941253408278
 20
13.714442548358022
 40
0.2999999999999999
 50
284.99999999999966
 51
0.0000000000000254
  0
ARC
  8
_0-0_
  6
CONTINUOUS
 62
    7
 10
18.940941253408369
 20
12.932507324653272
 40
0.2999999999999999
 50
104.99999999999937
 51
180
  0
CIRCLE
  8
_0-0_
  6
CONTINUOUS
 62
    7
 10
113.89052649050109
 20
16.734244451964344
 40
2.1500000953674316
  0
CIRCLE
  8
_0-0_
  6
CONTINUOUS
 62
    7
 10
178.89052649050109
 20
16.734244451964344
 40
2.1500000953674316
  0
LINE
  8
_0-0_
  6
CONTINUOUS
 62
    7
 10
15.779543714626584
 20
85.931585478681313
 11
15.461556011836706
 21
86.805249511760962
  0
LINE
  8
_0-0_
  6
CONTINUOUS
 62
    7
 10
15.340941253408459
 20
87.489289798412415
 11
15.340941253408459
 21
90.683981875578525
  0
LINE
  8
_0-0_
  6
CONTINUOUS
 62
    7
 10
15.461556011836706
 20
91.368022162229749
 11
15.779543714626584
 21
92.241686195309626
  0
LINE
  8
_0-0_
  6
CONTINUOUS
 62
    7
 10
18.86329553987764
 20
92.598595216419767
 11
19.618586966939233
 21
92.396215488488338
  0
LINE
  8
_0-0_
  6
CONTINUOUS
 62
    7
 10
19.840941253408459
 20
92.106437740601791
 11
19.840941253408459
 21
86.066833933389148
  0
LINE
  8
_0-0_
  6
CONTINUOUS
 62
    7
 10
19.618586966939233
 20
85.777056185502374
 11
18.86329553987764
 21
85.574676457571172
  0
LINE
  8
_0-0_
  6
CONTINUOUS
 62
    7
 10
18.640941253408414
 20
85.284898709684398
 11
18.640941253408414
 21
84.596890282361642
  0
LINE
  8
_0-0_
  6
CONTINUOUS
 62
    7
 10
18.640941253408414
 20
92.888372964306313
 11
18.640941253408414
 21
93.57638139162907
  0
ARC
  8
_0-0_
  6
CONTINUOUS
 62
    7
 10
18.340941253408459
 20
84.596890282361642
 40
0.2999999999999999
 50
275.53415365649795
 51
0.0000000000000127
  0
ARC
  8
_0-0_
  6
CONTINUOUS
 62
    7
 10
17.340941253408459
 20
90.683981875578525
 40
2
 50
159.99999999999972
 51
179.99999999999997
  0
ARC
  8
_0-0_
  6
CONTINUOUS
 62
    7
 10
17.340941253408459
 20
87.489289798412415
 40
2
 50
180
 51
200.00000000000011
  0
ARC
  8
_0-0_
  6
CONTINUOUS
 62
    7
 10
18.128775266591333
 20
86.786635836995288
 40
2.5
 50
199.99999999999937
 51
275.53415365649846
  0
ARC
  8
_0-0_
  6
CONTINUOUS
 62
    7
 10
18.340941253408459
 20
93.57638139162907
 40
0.2999999999999999
 50
0
 51
84.465846343502051
  0
ARC
  8
_0-0_
  6
CONTINUOUS
 62
    7
 10
18.128775266591333
 20
91.386635836995424
 40
2.5
 50
84.465846343502278
 51
159.99999999999932
  0
ARC
  8
_0-0_
  6
CONTINUOUS
 62
    7
 10
18.940941253408369
 20
92.888372964306313
 40
0.2999999999999999
 50
180
 51
255.00000000000037
  0
ARC
  8
_0-0_
  6
CONTINUOUS
 62
    7
 10
19.540941253408505
 20
92.106437740601791
 40
0.2999999999999999
 50
0
 51
75.000000000000625
  0
ARC
  8
_0-0_
  6
CONTINUOUS
 62
    7
 10
19.540941253408505
 20
86.066833933389148
 40
0.2999999999999999
 50
284.99999999999966
 51
0.0000000000000254
  0
ARC
  8
_0-0_
  6
CONTINUOUS
 62
    7
 10
18.940941253408369
 20
85.284898709684398
 40
0.2999999999999999
 50
104.99999999999937
 51
180
  0
TEXT
  8
_0-e_
 62
    7
 10
33.340406458767347
 20
99.52944248547584
 40
5
 41
1
 50
0
  1
P20
  0
TEXT
  8
_0-e_
 62
    7
 10
108.92200628623652
 20
99.529442485476068
 40
5
 41
1
 50
0
  1
P42
  0
TEXT
  8
_0-e_
 62
    7
 10
205.39558875268881
 20
99.529442485476068
 40
5
 41
1
 50
0
  1
P72
  0
TEXT
  8
_0-e_
 62
    7
 10
108.18517565944103
 20
27.177051100444714
 40
5
 41
1
 50
0
  1
P65
  0
TEXT
  8
_0-e_
 62
    7
 10
33.340406458767347
 20
27.177051100444714
 40
5
 41
1
 50
0
  1
P20
  0
TEXT
  8
_0-e_
 62
    7
 10
25.93422273263684
 20
105.87759996501626
 40
5
 41
1
 50
0
  1
NFM4
  0
TEXT
  8
_0-e_
 62
    7
 10
25.93422273263684
 20
33.525208579985133
 40
5
 41
1
 50
0
  1
NFM5
  0
LINE
  8
_0-1_
  6
CENTER1
 62
  152
 10
156.62735711729658
 20
93.874983058170187
 11
156.62735711729658
 21
84.298288615820752
  0
LINE
  8
_0-1_
  6
CENTER1
 62
  152
 10
114.62735711729658
 20
93.874983058170187
 11
114.62735711729658
 21
84.298288615820752
  0
LINE
  8
_0-1_
  6
CENTER1
 62
  152
 10
64.045757289827407
 20
89.08663583699547
 11
17.703059279160584
 21
89.08663583699547
  0
LINE
  8
_0-1_
  6
CENTER1
 62
  152
 10
39.045757289827407
 20
93.874983058170187
 11
39.045757289827407
 21
84.298288615820752
  0
LINE
  8
_0-1_
  6
CENTER1
 62
  152
 10
59.045757289827407
 20
93.874983058170187
 11
59.045757289827407
 21
84.298288615820752
  0
LINE
  8
_0-1_
  6
CENTER1
 62
  152
 10
211.10093958374887
 20
93.874983058170187
 11
211.10093958374887
 21
84.298288615820752
  0
LINE
  8
_0-1_
  6
CENTER1
 62
  152
 10
283.10093958374887
 20
84.298288615820752
 11
283.10093958374887
 21
93.874983058170187
  0
LINE
  8
_0-1_
  6
CENTER1
 62
  152
 10
15.340941253408459
 20
16.734244451964344
 11
64.045757289827407
 21
16.734244451964344
  0
LINE
  8
_0-1_
  6
CENTER1
 62
  152
 10
59.045757289827407
 20
21.522591673139061
 11
59.045757289827407
 21
11.945897230789626
  0
LINE
  8
_0-1_
  6
CENTER1
 62
  152
 10
39.045757289827407
 20
11.945897230789626
 11
39.045757289827407
 21
21.522591673139061
  0
LINE
  8
_0-1_
  6
CENTER1
 62
  152
 10
178.89052649050109
 20
11.945897230789626
 11
178.89052649050109
 21
21.522591673139061
  0
LINE
  8
_0-1_
  6
CENTER1
 62
  152
 10
113.89052649050109
 20
11.945897230789626
 11
113.89052649050109
 21
21.522591673139061
  0
LINE
  8
_0-1_
  6
CENTER1
 62
  152
 10
161.62735711729658
 20
89.08663583699547
 11
106.33489912986693
 21
89.08663583699547
  0
LINE
  8
_0-1_
  6
CENTER1
 62
  152
 10
183.89052649050109
 20
16.734244451964344
 11
106.33489912986693
 21
16.734244451964344
  0
LINE
  8
_0-1_
  6
CENTER1
 62
  152
 10
202.33629367628771
 20
89.08663583699547
 11
288.10093958374887
 21
89.08663583699547
  0
CIRCLE
  8
_0-1_
  6
CONTINUOUS
 62
  152
 10
39.045757289827407
 20
89.08663583699547
 40
2
  0
CIRCLE
  8
_0-1_
  6
CONTINUOUS
 62
  152
 10
59.045757289827407
 20
89.08663583699547
 40
2
  0
CIRCLE
  8
_0-1_
  6
CONTINUOUS
 62
  152
 10
114.62735711729658
 20
89.08663583699547
 40
2
  0
CIRCLE
  8
_0-1_
  6
CONTINUOUS
 62
  152
 10
156.62735711729658
 20
89.08663583699547
 40
2
  0
CIRCLE
  8
_0-1_
  6
CONTINUOUS
 62
  152
 10
211.10093958374887
 20
89.08663583699547
 40
2
  0
CIRCLE
  8
_0-1_
  6
CONTINUOUS
 62
  152
 10
283.10093958374887
 20
89.08663583699547
 40
2
  0
CIRCLE
  8
_0-1_
  6
CONTINUOUS
 62
  152
 10
39.045757289827407
 20
16.734244451964344
 40
2.5
  0
CIRCLE
  8
_0-1_
  6
CONTINUOUS
 62
  152
 10
59.045757289827407
 20
16.734244451964344
 40
2.5
  0
CIRCLE
  8
_0-1_
  6
CONTINUOUS
 62
  152
 10
113.89052649050109
 20
16.734244451964344
 40
2.5
  0
CIRCLE
  8
_0-1_
  6
CONTINUOUS
 62
  152
 10
178.89052649050109
 20
16.734244451964344
 40
2.5
  0
ENDSEC
  0
EOF
