  0
SECTION
  2
HEADER
  9
$ACADVER
  1
AC1009
  9
$INSBASE
 10
0
 20
0
 30
0
  9
$EXTMIN
 10
0
 20
0
  9
$EXTMAX
 10
1189
 20
841
  9
$LIMMIN
 10
0
 20
0
  9
$LIMMAX
 10
1189
 20
841
  9
$LTSCALE
 40
1
  0
ENDSEC
  0
SECTION
  2
TABLES
  0
TABLE
  2
LTYPE
 70
     9
  0
LTYPE
  2
CONTINUOUS
 70
    64
  3
実線
 72
    65
 73
     0
 40
0.0
  0
LTYPE
  2
DASHED1
 70
    64
  3
--  --  --  --  --  --  --  --  
 72
    65
 73
     2
 40
2.5
 49
1.25
 49
-1.25
  0
LTYPE
  2
DASHED2
 70
    64
  3
----    ----    ----    ----    
 72
    65
 73
     2
 40
5.0
 49
2.5
 49
-2.5
  0
LTYPE
  2
DASHED3
 70
    64
  3
------  ------  ------  ------  
 72
    65
 73
     2
 40
5.0
 49
3.75
 49
-1.25
  0
LTYPE
  2
CENTER1
 70
    64
  3
----- - ----- - ----- - ----- - 
 72
    65
 73
     4
 40
10.0
 49
6.25
 49
-1.25
 49
1.25
 49
-1.25
  0
LTYPE
  2
CENTER2
 70
    64
  3
----------  --  ----------  --  
 72
    65
 73
     4
 40
20.0
 49
12.5
 49
-2.5
 49
2.5
 49
-2.5
  0
LTYPE
  2
PHANTOM1
 70
    64
  3
--- - - --- - - --- - - --- - - 
 72
    65
 73
     6
 40
10.0
 49
3.25
 49
-1.25
 49
1.25
 49
-1.25
 49
1.25
 49
-1.25
  0
LTYPE
  2
PHANTOM2
 70
    64
  3
--------  -  -  --------  -  -  
 72
    65
 73
     6
 40
20.0
 49
10.0
 49
-2.5
 49
1.25
 49
-2.5
 49
1.25
 49
-2.5
  0
LTYPE
  2
DOT
 70
    64
  3
-   -   -   -   -   -   -   -   
 72
    65
 73
     2
 40
2.5
 49
0.625
 49
-1.875
  0
LTYPE
  2
DUMMY
 70
    64
  3
ダミー
 72
    65
 73
     0
 40
0.0
  0
LTYPE
  2
RAND1
 70
    64
  3
ランダム線1
 72
    65
 73
     4
 40
10.0
 49
1.0
 49
-2.0
 49
3.0
 49
-4.0
  0
LTYPE
  2
RAND2
 70
    64
  3
ランダム線2
 72
    65
 73
     4
 40
14.0
 49
2.0
 49
-3.0
 49
4.0
 49
-5.0
  0
LTYPE
  2
RAND3
 70
    64
  3
ランダム線3
 72
    65
 73
     4
 40
18.0
 49
3.0
 49
-4.0
 49
5.0
 49
-6.0
  0
LTYPE
  2
RAND4
 70
    64
  3
ランダム線4
 72
    65
 73
     4
 40
22.0
 49
4.0
 49
-5.0
 49
6.0
 49
-7.0
  0
LTYPE
  2
RAND5
 70
    64
  3
ランダム線5
 72
    65
 73
     4
 40
26.0
 49
5.0
 49
-6.0
 49
7.0
 49
-8.0
  0
LTYPE
  2
LONG1
 70
    64
  3
----------  --  ----------  --  
 72
    65
 73
     4
 40
40.0
 49
32.5
 49
-2.5
 49
2.5
 49
-2.5
  0
LTYPE
  2
LONG2
 70
    64
  3
--------  -  -  --------  -  -  
 72
    65
 73
     6
 40
40.0
 49
30.0
 49
-2.5
 49
1.25
 49
-2.5
 49
1.25
 49
-2.5
  0
LTYPE
  2
LONG3
 70
    64
  3
+++++++++++++++..+++++++++++++++
 72
    65
 73
     2
 40
40.0
 49
37.5
 49
-2.5
  0
LTYPE
  2
LONG4
 70
    64
  3
+++++++++++++++..+++++++++++++++
 72
    65
 73
     2
 40
80.0
 49
75.0
 49
-5.0
  0
LTYPE
  2
LONG5
 70
    64
  3
----------  --  ----------  --  
 72
    65
 73
     4
 40
60.0
 49
37.5
 49
-7.5
 49
7.5
 49
-7.5
  0
LTYPE
  2
dashed
 70
   64
  3
-------   -------------   ------
 72
   65
 73
    2
 40
7.5
 49
6
 49
-1.5
  0
LTYPE
  2
dashed_spaced
 70
   64
  3
----        --------        ----
 72
   65
 73
    2
 40
12
 49
6
 49
-6
  0
LTYPE
  2
long_dashed_dotted
 70
   64
  3
------------- --- --------------
 72
   65
 73
    4
 40
15.25
 49
12
 49
-1.5
 49
0.25
 49
-1.5
  0
LTYPE
  2
long_dashed_double-dotted
 70
   64
  3
----------- --- --- ------------
 72
   65
 73
    6
 40
17
 49
12
 49
-1.5
 49
0.25
 49
-1.5
 49
0.25
 49
-1.5
  0
LTYPE
  2
long_dashed_triplicate-dotted
 70
   64
  3
--------- --- --- --- ----------
 72
   65
 73
    8
 40
18.75
 49
12
 49
-1.5
 49
0.25
 49
-1.5
 49
0.25
 49
-1.5
 49
0.25
 49
-1.5
  0
LTYPE
  2
dotted
 70
   64
  3
   -       -       -       -    
 72
   65
 73
    2
 40
1.75
 49
0.25
 49
-1.5
  0
LTYPE
  2
chain
 70
   64
  3
-------------- -- --------------
 72
   65
 73
    4
 40
18.5
 49
12
 49
-1.5
 49
3.5
 49
-1.5
  0
LTYPE
  2
chain_double_dash
 70
   64
  3
------------ -- -- -------------
 72
   65
 73
    6
 40
23.5
 49
12
 49
-1.5
 49
3.5
 49
-1.5
 49
3.5
 49
-1.5
  0
LTYPE
  2
dashed_dotted
 70
   64
  3
-----------     -     ----------
 72
   65
 73
    4
 40
9.25
 49
6
 49
-1.5
 49
0.25
 49
-1.5
  0
LTYPE
  2
double-dashed_dotted
 70
   64
  3
------   -----------   -   -----
 72
   65
 73
    6
 40
16.75
 49
6
 49
-1.5
 49
6
 49
-1.5
 49
0.25
 49
-1.5
  0
LTYPE
  2
dashed_double-dotted
 70
   64
  3
---------    -    -    ---------
 72
   65
 73
    6
 40
11
 49
6
 49
-1.5
 49
0.25
 49
-1.5
 49
0.25
 49
-1.5
  0
LTYPE
  2
double-dashed_double-dotted
 70
   64
  3
-----   ---------   -   -   ----
 72
   65
 73
    8
 40
18.5
 49
6
 49
-1.5
 49
6
 49
-1.5
 49
0.25
 49
-1.5
 49
0.25
 49
-1.5
  0
LTYPE
  2
dashed_triplicate-dotted
 70
   64
  3
-------    -    -    -    ------
 72
   65
 73
    8
 40
12.75
 49
6
 49
-1.5
 49
0.25
 49
-1.5
 49
0.25
 49
-1.5
 49
0.25
 49
-1.5
  0
LTYPE
  2
double-dashed_triplicate-dotted
 70
   64
  3
-----  ---------  -  -  -  -----
 72
   65
 73
   10
 40
20.25
 49
6
 49
-1.5
 49
6
 49
-1.5
 49
0.25
 49
-1.5
 49
0.25
 49
-1.5
 49
0.25
 49
-1.5
  0
LTYPE
  2
undefined
 70
   64
  3
--------------------------------
 72
   65
 73
    0
 40
0
  0
ENDTAB
  0
TABLE
  2
STYLE
  5
3
100
AcDbSymbolTable
 70
     1
  0
STYLE
  5
10
100
AcDbSymbolTableRecord
100
AcDbTextStyleTableRecord
  2
STANDARD
 70
     0
 40
0.0
 41
1.0
 50
0.0
 71
     0
 42
0.2
  3
txt
  4
bigfont.shx
  0
STYLE
  5
26
100
AcDbSymbolTableRecord
100
AcDbTextStyleTableRecord
  2
TATEGAKI
 70
    68
 40
0.0
 41
1.0
 50
0.0
 71
     0
 42
1.0
  3
txt
  4
bigfont.shx
  0
ENDTAB
  0
TABLE
  2
LAYER
 70
    3
  0
LAYER
  2
_0-0_
 70
   64
 62
    7
  6
CONTINUOUS
  0
LAYER
  2
_0-1_
 70
   64
 62
    7
  6
CONTINUOUS
  0
LAYER
  2
ADD_LINE
 70
   64
 62
    7
  6
CONTINUOUS
  0
ENDTAB
  0
ENDSEC
  0
SECTION
  2
BLOCKS
  0
ENDSEC
  0
SECTION
  2
ENTITIES
  0
LINE
  8
_0-0_
  6
CONTINUOUS
 62
    7
 10
175.28726526902165
 20
15.055235512086938
 11
175.28726526902165
 21
8.6552355120869606
  0
LINE
  8
_0-0_
  6
CONTINUOUS
 62
    7
 10
190.28726526902165
 20
45.619076129742893
 11
175.28726526902165
 21
45.619076129742893
  0
LINE
  8
_0-0_
  6
CONTINUOUS
 62
    7
 10
175.28726526902165
 20
45.619076129742893
 11
175.28726526902165
 21
32.019076129742984
  0
LINE
  8
_0-0_
  6
CONTINUOUS
 62
    7
 10
175.28726526902165
 20
32.019076129742984
 11
190.28726526902165
 21
32.019076129742984
  0
LINE
  8
_0-0_
  6
CONTINUOUS
 62
    7
 10
190.28726526902165
 20
32.019076129742984
 11
190.28726526902165
 21
45.619076129742893
  0
LINE
  8
_0-0_
  6
CONTINUOUS
 62
    7
 10
190.28726526902165
 20
43.619076129742893
 11
175.28726526902165
 21
43.619076129742893
  0
LINE
  8
_0-0_
  6
CONTINUOUS
 62
    7
 10
190.28726526902165
 20
34.019076129742984
 11
175.28726526902165
 21
34.019076129742984
  0
LINE
  8
_0-0_
  6
CONTINUOUS
 62
    7
 10
140.28726526902165
 20
45.619076129742893
 11
125.28726526902165
 21
45.619076129742893
  0
LINE
  8
_0-0_
  6
CONTINUOUS
 62
    7
 10
125.28726526902165
 20
45.619076129742893
 11
125.28726526902165
 21
32.019076129742984
  0
LINE
  8
_0-0_
  6
CONTINUOUS
 62
    7
 10
125.28726526902165
 20
32.019076129742984
 11
140.28726526902165
 21
32.019076129742984
  0
LINE
  8
_0-0_
  6
CONTINUOUS
 62
    7
 10
140.28726526902165
 20
32.019076129742984
 11
140.28726526902165
 21
45.619076129742893
  0
LINE
  8
_0-0_
  6
CONTINUOUS
 62
    7
 10
140.28726526902165
 20
43.619076129742893
 11
125.28726526902165
 21
43.619076129742893
  0
LINE
  8
_0-0_
  6
CONTINUOUS
 62
    7
 10
140.28726526902165
 20
34.019076129742984
 11
125.28726526902165
 21
34.019076129742984
  0
CIRCLE
  8
_0-0_
  6
CONTINUOUS
 62
    7
 10
132.78726526902165
 20
38.819076129742712
 40
2.4043565183072477
  0
LINE
  8
_0-0_
  6
CONTINUOUS
 62
    7
 10
90.287265269021646
 20
45.619076129742893
 11
75.287265269021646
 21
45.619076129742893
  0
LINE
  8
_0-0_
  6
CONTINUOUS
 62
    7
 10
75.287265269021646
 20
45.619076129742893
 11
75.287265269021646
 21
32.019076129742984
  0
LINE
  8
_0-0_
  6
CONTINUOUS
 62
    7
 10
75.287265269021646
 20
32.019076129742984
 11
90.287265269021646
 21
32.019076129742984
  0
LINE
  8
_0-0_
  6
CONTINUOUS
 62
    7
 10
90.287265269021646
 20
32.019076129742984
 11
90.287265269021646
 21
45.619076129742893
  0
LINE
  8
_0-0_
  6
CONTINUOUS
 62
    7
 10
90.287265269021646
 20
43.619076129742893
 11
75.287265269021646
 21
43.619076129742893
  0
LINE
  8
_0-0_
  6
CONTINUOUS
 62
    7
 10
90.287265269021646
 20
34.019076129742984
 11
75.287265269021646
 21
34.019076129742984
  0
LINE
  8
_0-0_
  6
CONTINUOUS
 62
    7
 10
40.287265269021646
 20
45.619076129742893
 11
25.287265269021646
 21
45.619076129742893
  0
LINE
  8
_0-0_
  6
CONTINUOUS
 62
    7
 10
25.287265269021646
 20
45.619076129742893
 11
25.287265269021646
 21
32.019076129742984
  0
LINE
  8
_0-0_
  6
CONTINUOUS
 62
    7
 10
25.287265269021646
 20
32.019076129742984
 11
40.287265269021646
 21
32.019076129742984
  0
LINE
  8
_0-0_
  6
CONTINUOUS
 62
    7
 10
40.287265269021646
 20
32.019076129742984
 11
40.287265269021646
 21
45.619076129742893
  0
LINE
  8
_0-0_
  6
CONTINUOUS
 62
    7
 10
40.287265269021646
 20
43.619076129742893
 11
25.287265269021646
 21
43.619076129742893
  0
LINE
  8
_0-0_
  6
CONTINUOUS
 62
    7
 10
40.287265269021646
 20
34.019076129742984
 11
25.287265269021646
 21
34.019076129742984
  0
LINE
  8
_0-0_
  6
CONTINUOUS
 62
    7
 10
222.76241187056888
 20
43.659007891780561
 11
224.39314548469036
 21
43.801678596246688
  0
LINE
  8
_0-0_
  6
CONTINUOUS
 62
    7
 10
225.30598974194271
 20
44.797873294338729
 11
225.30598974194271
 21
45.119076129743348
  0
LINE
  8
_0-0_
  6
CONTINUOUS
 62
    7
 10
225.93539926449392
 20
45.602039042887895
 11
226.63408529241264
 21
45.414826685944149
  0
LINE
  8
_0-0_
  6
CONTINUOUS
 62
    7
 10
226.93768847175346
 20
45.181863772799602
 11
228.30406595329595
 21
42.815228552450094
  0
LINE
  8
_0-0_
  6
CONTINUOUS
 62
    7
 10
228.7059897419428
 20
41.315228552450094
 11
228.7059897419428
 21
36.322923707036693
  0
LINE
  8
_0-0_
  6
CONTINUOUS
 62
    7
 10
228.30406595329595
 20
34.822923707036693
 11
226.93768847175346
 21
32.456288486687185
  0
LINE
  8
_0-0_
  6
CONTINUOUS
 62
    7
 10
226.63408529241264
 20
32.223325573542638
 11
225.93539926449392
 21
32.036113216598892
  0
LINE
  8
_0-0_
  6
CONTINUOUS
 62
    7
 10
225.30598974194271
 20
32.519076129743439
 11
225.30598974194271
 21
32.840278965148059
  0
LINE
  8
_0-0_
  6
CONTINUOUS
 62
    7
 10
224.39314548469036
 20
33.836473663240099
 11
222.76241187056888
 21
33.979144367706226
  0
LINE
  8
_0-0_
  6
CONTINUOUS
 62
    7
 10
222.30598974194271
 20
34.477241716752246
 11
222.30598974194271
 21
43.160910542734541
  0
ARC
  8
_0-0_
  6
CONTINUOUS
 62
    7
 10
222.80598974194271
 20
34.477241716752246
 40
0.5
 50
180
 51
265
  0
ARC
  8
_0-0_
  6
CONTINUOUS
 62
    7
 10
224.30598974194271
 20
32.840278965148059
 40
1
 50
0
 51
85.000000000000043
  0
ARC
  8
_0-0_
  6
CONTINUOUS
 62
    7
 10
225.80598974194271
 20
32.519076129743439
 40
0.5
 50
180
 51
228.59270234267069
  0
ARC
  8
_0-0_
  6
CONTINUOUS
 62
    7
 10
225.80598974194271
 20
32.519076129743439
 40
0.5
 50
228.59270234267069
 51
285
  0
ARC
  8
_0-0_
  6
CONTINUOUS
 62
    7
 10
226.50467576986119
 20
32.706288486687185
 40
0.5
 50
285
 51
330
  0
ARC
  8
_0-0_
  6
CONTINUOUS
 62
    7
 10
225.7059897419428
 20
36.322923707036693
 40
3
 50
329.99999999999994
 51
0
  0
ARC
  8
_0-0_
  6
CONTINUOUS
 62
    7
 10
222.80598974194271
 20
43.160910542734541
 40
0.5
 50
95
 51
180
  0
ARC
  8
_0-0_
  6
CONTINUOUS
 62
    7
 10
224.30598974194271
 20
44.797873294338729
 40
1
 50
274.99999999999994
 51
0
  0
ARC
  8
_0-0_
  6
CONTINUOUS
 62
    7
 10
225.80598974194271
 20
45.119076129743348
 40
0.5
 50
131.40729765732931
 51
180
  0
ARC
  8
_0-0_
  6
CONTINUOUS
 62
    7
 10
225.80598974194271
 20
45.119076129743348
 40
0.5
 50
75.000000000000014
 51
131.40729765732931
  0
ARC
  8
_0-0_
  6
CONTINUOUS
 62
    7
 10
226.50467576986119
 20
44.931863772799602
 40
0.5
 50
29.999999999999993
 51
74.999999999999972
  0
ARC
  8
_0-0_
  6
CONTINUOUS
 62
    7
 10
225.7059897419428
 20
41.315228552450094
 40
3
 50
0.0000000000000254
 51
30.000000000000068
  0
LINE
  8
_0-0_
  6
CONTINUOUS
 62
    7
 10
190.28726526902165
 20
15.055235512086938
 11
175.28726526902165
 21
15.055235512086938
  0
LINE
  8
_0-0_
  6
CONTINUOUS
 62
    7
 10
190.28726526902165
 20
12.055235512086938
 11
175.28726526902165
 21
12.055235512086938
  0
LINE
  8
_0-0_
  6
CONTINUOUS
 62
    7
 10
190.28726526902165
 20
15.055235512086938
 11
190.28726526902165
 21
8.6552355120869606
  0
LINE
  8
_0-0_
  6
CONTINUOUS
 62
    7
 10
190.28726526902165
 20
8.6552355120869606
 11
175.28726526902165
 21
8.6552355120869606
  0
CIRCLE
  8
_0-0_
  6
CONTINUOUS
 62
    7
 10
32.787265269021646
 20
38.819076129742712
 40
1.7000000476837158
  0
CIRCLE
  8
_0-0_
  6
CONTINUOUS
 62
    7
 10
82.787265269021646
 20
38.819076129743166
 40
2.1500000953674316
  0
CIRCLE
  8
_0-0_
  6
CONTINUOUS
 62
    7
 10
182.78726526902165
 20
38.819076129742712
 40
3.4500000476837158
  0
LINE
  8
_0-1_
  6
CENTER2
 62
  152
 10
174.28727526902185
 20
38.819076129742712
 11
191.28727526902139
 21
38.819076129742712
  0
LINE
  8
_0-1_
  6
CENTER2
 62
  152
 10
182.78726526902165
 20
30.856796129742975
 11
182.78726526902165
 21
46.856776129743025
  0
LINE
  8
_0-1_
  6
CENTER2
 62
  152
 10
124.28727526902185
 20
38.819076129742712
 11
141.28727526902139
 21
38.819076129742712
  0
LINE
  8
_0-1_
  6
CENTER2
 62
  152
 10
132.78726526902165
 20
30.856796129742975
 11
132.78726526902165
 21
46.856776129743025
  0
LINE
  8
_0-1_
  6
CENTER2
 62
  152
 10
74.287275269021848
 20
38.819076129742712
 11
91.287275269021393
 21
38.819076129742712
  0
LINE
  8
_0-1_
  6
CENTER2
 62
  152
 10
82.787265269021646
 20
30.856796129742975
 11
82.787265269021646
 21
46.856776129743025
  0
LINE
  8
_0-1_
  6
CENTER2
 62
  152
 10
24.287275269021848
 20
38.819076129742712
 11
41.287275269021393
 21
38.819076129742712
  0
LINE
  8
_0-1_
  6
CENTER2
 62
  152
 10
32.787265269021646
 20
30.856796129742975
 11
32.787265269021646
 21
46.856776129743025
  0
LINE
  8
_0-1_
  6
CENTER2
 62
  152
 10
221.30599474196009
 20
38.819076129743166
 11
229.90599474196
 21
38.819076129743166
  0
CIRCLE
  8
_0-1_
  6
CONTINUOUS
 62
  152
 10
32.787265269021646
 20
38.819076129742712
 40
2
  0
CIRCLE
  8
_0-1_
  6
CONTINUOUS
 62
  152
 10
82.787265269021646
 20
38.819076129743166
 40
2.5
  0
CIRCLE
  8
_0-1_
  6
CONTINUOUS
 62
  152
 10
182.78726526902165
 20
38.819076129742712
 40
4
  0
TEXT
  8
_0-1_
 62
    7
 10
11.651650763031967
 20
51.986115050939759
 40
4.2999999999999998
 41
0.744186046511628
 50
0
  1
NF40-M4
  0
TEXT
  8
_0-1_
 62
    7
 10
61.651650763031967
 20
51.986115050939759
 40
4.2999999999999998
 41
0.744186046511628
 50
0
  1
NF40-M5
  0
TEXT
  8
_0-1_
 62
    7
 10
111.65165076303191
 20
51.986115050939759
 40
4.2999999999999998
 41
0.744186046511628
 50
0
  1
NF40-M6
  0
TEXT
  8
_0-1_
 62
    7
 10
161.65165076303191
 20
51.986115050939759
 40
4.2999999999999998
 41
0.744186046511628
 50
0
  1
NF40-M8
  0
LINE
  8
_0-1_
  6
CENTER2
 62
  152
 10
182.78726526902165
 20
16.725202494451082
 11
182.78726526902165
 21
6.5760944139883577
  0
CIRCLE
  8
_0-1_
  6
CONTINUOUS
 62
  152
 10
132.78726526902165
 20
38.819076129742712
 40
3.0423901532147384
  0
ENDSEC
  0
EOF
